ISO-10303-21;
HEADER;
FILE_DESCRIPTION (( 'STEP AP203' ),
    '1' );
FILE_NAME ('3D_R152_DN26.9_17305175.STEP',
    '2024-08-13T07:32:57',
    ( '' ),
    ( '' ),
    'SwSTEP 2.0',
    'SolidWorks 2024',
    '' );
FILE_SCHEMA (( 'CONFIG_CONTROL_DESIGN' ));
ENDSEC;

DATA;
#1 = APPROVAL_ROLE ( '' ) ;
#2 = VERTEX_POINT ( 'NONE', #35 ) ;
#3 = ORIENTED_EDGE ( 'NONE', *, *, #168, .T. ) ;
#4 = LOCAL_TIME ( 9, 32, 57.00000000000000000, #231 ) ;
#5 = VERTEX_POINT ( 'NONE', #183 ) ;
#6 = ORIENTED_EDGE ( 'NONE', *, *, #125, .F. ) ;
#7 = APPROVAL ( #197, 'UNSPECIFIED' ) ;
#8 = CARTESIAN_POINT ( 'NONE',  ( 6.907007947191071980E-15, 6.000000000000000000, 56.39999999999999858 ) ) ;
#9 = ORIENTED_EDGE ( 'NONE', *, *, #79, .T. ) ;
#10 = CARTESIAN_POINT ( 'NONE',  ( 6.907007947191071980E-15, 0.000000000000000000, 56.39999999999999858 ) ) ;
#11 = FACE_BOUND ( 'NONE', #241, .T. ) ;
#12 = CIRCLE ( 'NONE', #116, 29.00000000000000000 ) ;
#13 = PERSON_AND_ORGANIZATION_ROLE ( 'design_owner' ) ;
#14 = CARTESIAN_POINT ( 'NONE',  ( 0.000000000000000000, 6.000000000000000000, -56.39999999999999858 ) ) ;
#15 = CC_DESIGN_PERSON_AND_ORGANIZATION_ASSIGNMENT ( #143, #40, ( #193 ) ) ;
#16 = MECHANICAL_CONTEXT ( 'NONE', #31, 'mechanical' ) ;
#17 = DIRECTION ( 'NONE',  ( 0.000000000000000000, 0.000000000000000000, 1.000000000000000000 ) ) ;
#18 = LOCAL_TIME ( 9, 32, 57.00000000000000000, #104 ) ;
#19 = AXIS2_PLACEMENT_3D ( 'NONE', #68, #51, #205 ) ;
#20 = DATE_AND_TIME ( #195, #144 ) ;
#21 = EDGE_LOOP ( 'NONE', ( #196, #103, #9, #232 ) ) ;
#22 = CALENDAR_DATE ( 2024, 13, 8 ) ;
#23 = PRODUCT_RELATED_PRODUCT_CATEGORY ( 'detail', '', ( #122 ) ) ;
#24 = VERTEX_POINT ( 'NONE', #10 ) ;
#25 = AXIS2_PLACEMENT_3D ( 'NONE', #38, #139, #172 ) ;
#26 = AXIS2_PLACEMENT_3D ( 'NONE', #39, #137, #36 ) ;
#27 = CC_DESIGN_PERSON_AND_ORGANIZATION_ASSIGNMENT ( #100, #78, ( #246 ) ) ;
#28 = ORIENTED_EDGE ( 'NONE', *, *, #173, .F. ) ;
#29 = AXIS2_PLACEMENT_3D ( 'NONE', #53, #225, #113 ) ;
#30 = DIRECTION ( 'NONE',  ( -0.000000000000000000, -1.000000000000000000, -0.000000000000000000 ) ) ;
#31 = APPLICATION_CONTEXT ( 'configuration controlled 3d designs of mechanical parts and assemblies' ) ;
#32 = ORIENTED_EDGE ( 'NONE', *, *, #155, .T. ) ;
#33 = CYLINDRICAL_SURFACE ( 'NONE', #198, 56.39999999999999858 ) ;
#34 = CC_DESIGN_PERSON_AND_ORGANIZATION_ASSIGNMENT ( #216, #229, ( #65 ) ) ;
#35 = CARTESIAN_POINT ( 'NONE',  ( 3.551475717527324030E-15, 0.000000000000000000, 29.00000000000000000 ) ) ;
#36 = DIRECTION ( 'NONE',  ( 1.000000000000000000, 0.000000000000000000, 0.000000000000000000 ) ) ;
#37 = CYLINDRICAL_SURFACE ( 'NONE', #92, 29.00000000000000000 ) ;
#38 = CARTESIAN_POINT ( 'NONE',  ( 0.000000000000000000, 0.000000000000000000, 0.000000000000000000 ) ) ;
#39 = CARTESIAN_POINT ( 'NONE',  ( 0.000000000000000000, 0.000000000000000000, 0.000000000000000000 ) ) ;
#40 = PERSON_AND_ORGANIZATION_ROLE ( 'classification_officer' ) ;
#41 = AXIS2_PLACEMENT_3D ( 'NONE', #221, #201, #127 ) ;
#42 = APPROVAL_ROLE ( '' ) ;
#43 = ADVANCED_FACE ( 'NONE', ( #45 ), #33, .T. ) ;
#44 = DATE_TIME_ROLE ( 'creation_date' ) ;
#45 = FACE_OUTER_BOUND ( 'NONE', #67, .T. ) ;
#46 = CARTESIAN_POINT ( 'NONE',  ( 0.000000000000000000, 6.000000000000000000, 0.000000000000000000 ) ) ;
#47 = DIRECTION ( 'NONE',  ( 0.000000000000000000, -0.000000000000000000, 1.000000000000000000 ) ) ;
#48 = CARTESIAN_POINT ( 'NONE',  ( 0.000000000000000000, 6.000000000000000000, -29.00000000000000000 ) ) ;
#49 = EDGE_CURVE ( 'NONE', #182, #84, #228, .T. ) ;
#50 = APPROVAL_PERSON_ORGANIZATION ( #161, #108, #1 ) ;
#51 = DIRECTION ( 'NONE',  ( 0.000000000000000000, 1.000000000000000000, 0.000000000000000000 ) ) ;
#52 = VECTOR ( 'NONE', #30, 1000.000000000000000 ) ;
#53 = CARTESIAN_POINT ( 'NONE',  ( 0.000000000000000000, 6.000000000000000000, 0.000000000000000000 ) ) ;
#54 = CARTESIAN_POINT ( 'NONE',  ( 0.000000000000000000, 0.000000000000000000, -56.39999999999999858 ) ) ;
#55 = DIRECTION ( 'NONE',  ( 0.000000000000000000, 0.000000000000000000, -1.000000000000000000 ) ) ;
#56 = CYLINDRICAL_SURFACE ( 'NONE', #105, 29.00000000000000000 ) ;
#57 = CLOSED_SHELL ( 'NONE', ( #140, #210, #150, #119, #43, #148 ) ) ;
#58 = APPROVAL_DATE_TIME ( #20, #238 ) ;
#59 =( GEOMETRIC_REPRESENTATION_CONTEXT ( 3 ) GLOBAL_UNCERTAINTY_ASSIGNED_CONTEXT ( ( #214 ) ) GLOBAL_UNIT_ASSIGNED_CONTEXT ( ( #192, #190, #206 ) ) REPRESENTATION_CONTEXT ( 'NONE', 'WORKASPACE' ) );
#60 = CIRCLE ( 'NONE', #25, 56.39999999999999858 ) ;
#61 = APPROVAL_DATE_TIME ( #233, #108 ) ;
#62 = CC_DESIGN_PERSON_AND_ORGANIZATION_ASSIGNMENT ( #145, #82, ( #65 ) ) ;
#63 = CALENDAR_DATE ( 2024, 13, 8 ) ;
#64 = APPROVAL_STATUS ( 'not_yet_approved' ) ;
#65 = PRODUCT_DEFINITION_FORMATION_WITH_SPECIFIED_SOURCE ( 'ANY', '', #122, .NOT_KNOWN. ) ;
#66 = APPROVAL_STATUS ( 'not_yet_approved' ) ;
#67 = EDGE_LOOP ( 'NONE', ( #186, #101, #107, #170 ) ) ;
#68 = CARTESIAN_POINT ( 'NONE',  ( 0.000000000000000000, 0.000000000000000000, 0.000000000000000000 ) ) ;
#69 = EDGE_CURVE ( 'NONE', #180, #2, #12, .T. ) ;
#70 = CARTESIAN_POINT ( 'NONE',  ( 0.000000000000000000, 6.000000000000000000, 0.000000000000000000 ) ) ;
#71 = ORIENTED_EDGE ( 'NONE', *, *, #49, .T. ) ;
#72 = PERSON ( 'UNSPECIFIED', 'UNSPECIFIED', 'UNSPECIFIED', ('UNSPECIFIED'), ('UNSPECIFIED'), ('UNSPECIFIED') ) ;
#73 = CC_DESIGN_APPROVAL ( #108, ( #65 ) ) ;
#74 = FACE_OUTER_BOUND ( 'NONE', #21, .T. ) ;
#75 = EDGE_CURVE ( 'NONE', #2, #180, #191, .T. ) ;
#76 = CARTESIAN_POINT ( 'NONE',  ( 0.000000000000000000, 6.000000000000000000, 0.000000000000000000 ) ) ;
#77 = CARTESIAN_POINT ( 'NONE',  ( 0.000000000000000000, 6.000000000000000000, 0.000000000000000000 ) ) ;
#78 = PERSON_AND_ORGANIZATION_ROLE ( 'creator' ) ;
#79 = EDGE_CURVE ( 'NONE', #135, #180, #185, .T. ) ;
#80 = SECURITY_CLASSIFICATION_LEVEL ( 'unclassified' ) ;
#81 = ORIENTED_EDGE ( 'NONE', *, *, #99, .F. ) ;
#82 = PERSON_AND_ORGANIZATION_ROLE ( 'creator' ) ;
#83 = VECTOR ( 'NONE', #189, 1000.000000000000000 ) ;
#84 = VERTEX_POINT ( 'NONE', #8 ) ;
#85 = EDGE_LOOP ( 'NONE', ( #28, #3, #166, #6 ) ) ;
#86 = CARTESIAN_POINT ( 'NONE',  ( 0.000000000000000000, 6.000000000000000000, 0.000000000000000000 ) ) ;
#87 = EDGE_CURVE ( 'NONE', #5, #135, #244, .T. ) ;
#88 = DIRECTION ( 'NONE',  ( 0.000000000000000000, 1.000000000000000000, 0.000000000000000000 ) ) ;
#89 = DIRECTION ( 'NONE',  ( 0.000000000000000000, 0.000000000000000000, -1.000000000000000000 ) ) ;
#90 = PLANE ( 'NONE',  #236 ) ;
#91 = DIRECTION ( 'NONE',  ( -0.000000000000000000, -1.000000000000000000, -0.000000000000000000 ) ) ;
#92 = AXIS2_PLACEMENT_3D ( 'NONE', #224, #94, #55 ) ;
#93 = CYLINDRICAL_SURFACE ( 'NONE', #136, 56.39999999999999858 ) ;
#94 = DIRECTION ( 'NONE',  ( -0.000000000000000000, -1.000000000000000000, -0.000000000000000000 ) ) ;
#95 = APPLICATION_PROTOCOL_DEFINITION ( 'international standard', 'config_control_design', 1994, #31 ) ;
#96 = LOCAL_TIME ( 9, 32, 57.00000000000000000, #160 ) ;
#97 = CIRCLE ( 'NONE', #235, 29.00000000000000000 ) ;
#98 = LINE ( 'NONE', #245, #134 ) ;
#99 = EDGE_CURVE ( 'NONE', #152, #24, #223, .T. ) ;
#100 = PERSON_AND_ORGANIZATION ( #72, #181 ) ;
#101 = ORIENTED_EDGE ( 'NONE', *, *, #49, .F. ) ;
#102 = DATE_TIME_ROLE ( 'classification_date' ) ;
#103 = ORIENTED_EDGE ( 'NONE', *, *, #87, .T. ) ;
#104 = COORDINATED_UNIVERSAL_TIME_OFFSET ( 1, 0, .AHEAD. ) ;
#105 = AXIS2_PLACEMENT_3D ( 'NONE', #194, #159, #175 ) ;
#106 = EDGE_LOOP ( 'NONE', ( #71, #203 ) ) ;
#107 = ORIENTED_EDGE ( 'NONE', *, *, #125, .T. ) ;
#108 = APPROVAL ( #64, 'UNSPECIFIED' ) ;
#109 = DIRECTION ( 'NONE',  ( 0.000000000000000000, 1.000000000000000000, 0.000000000000000000 ) ) ;
#110 = APPLICATION_CONTEXT ( 'configuration controlled 3d designs of mechanical parts and assemblies' ) ;
#111 = CARTESIAN_POINT ( 'NONE',  ( 0.000000000000000000, 0.000000000000000000, 0.000000000000000000 ) ) ;
#112 = EDGE_LOOP ( 'NONE', ( #162, #184 ) ) ;
#113 = DIRECTION ( 'NONE',  ( 0.000000000000000000, -0.000000000000000000, 1.000000000000000000 ) ) ;
#114 = FACE_BOUND ( 'NONE', #112, .T. ) ;
#115 = DIRECTION ( 'NONE',  ( 0.000000000000000000, 1.000000000000000000, 0.000000000000000000 ) ) ;
#116 = AXIS2_PLACEMENT_3D ( 'NONE', #167, #88, #240 ) ;
#117 = CC_DESIGN_APPROVAL ( #7, ( #193 ) ) ;
#118 = VECTOR ( 'NONE', #220, 1000.000000000000000 ) ;
#119 = ADVANCED_FACE ( 'NONE', ( #242, #11 ), #90, .F. ) ;
#120 = SHAPE_DEFINITION_REPRESENTATION ( #157, #132 ) ;
#121 = DESIGN_CONTEXT ( 'detailed design', #110, 'design' ) ;
#122 = PRODUCT ( '3D_R152_DN26.9_17305175', '3D_R152_DN26.9_17305175', '', ( #16 ) ) ;
#123 = DATE_AND_TIME ( #22, #4 ) ;
#124 = CALENDAR_DATE ( 2024, 13, 8 ) ;
#125 = EDGE_CURVE ( 'NONE', #182, #152, #130, .T. ) ;
#126 = AXIS2_PLACEMENT_3D ( 'NONE', #70, #109, #154 ) ;
#127 = DIRECTION ( 'NONE',  ( 0.000000000000000000, 0.000000000000000000, 1.000000000000000000 ) ) ;
#128 = CC_DESIGN_PERSON_AND_ORGANIZATION_ASSIGNMENT ( #187, #13, ( #122 ) ) ;
#129 = DIRECTION ( 'NONE',  ( -0.000000000000000000, -1.000000000000000000, -0.000000000000000000 ) ) ;
#130 = LINE ( 'NONE', #149, #118 ) ;
#131 = FACE_OUTER_BOUND ( 'NONE', #177, .T. ) ;
#132 = ADVANCED_BREP_SHAPE_REPRESENTATION ( '3D_R152_DN26.9_17305175', ( #147, #26 ), #59 ) ;
#133 = APPROVAL_PERSON_ORGANIZATION ( #146, #238, #42 ) ;
#134 = VECTOR ( 'NONE', #91, 1000.000000000000000 ) ;
#135 = VERTEX_POINT ( 'NONE', #48 ) ;
#136 = AXIS2_PLACEMENT_3D ( 'NONE', #211, #174, #247 ) ;
#137 = DIRECTION ( 'NONE',  ( 0.000000000000000000, 0.000000000000000000, 1.000000000000000000 ) ) ;
#138 = DIRECTION ( 'NONE',  ( 0.000000000000000000, 1.000000000000000000, 0.000000000000000000 ) ) ;
#139 = DIRECTION ( 'NONE',  ( 0.000000000000000000, 1.000000000000000000, 0.000000000000000000 ) ) ;
#140 = ADVANCED_FACE ( 'NONE', ( #131 ), #56, .F. ) ;
#141 = FACE_OUTER_BOUND ( 'NONE', #106, .T. ) ;
#142 = FACE_OUTER_BOUND ( 'NONE', #85, .T. ) ;
#143 = PERSON_AND_ORGANIZATION ( #72, #181 ) ;
#144 = LOCAL_TIME ( 9, 32, 57.00000000000000000, #248 ) ;
#145 = PERSON_AND_ORGANIZATION ( #72, #181 ) ;
#146 = PERSON_AND_ORGANIZATION ( #72, #181 ) ;
#147 = MANIFOLD_SOLID_BREP ( 'Aufsatz-Linear austragen1', #57 ) ;
#148 = ADVANCED_FACE ( 'NONE', ( #74 ), #37, .F. ) ;
#149 = CARTESIAN_POINT ( 'NONE',  ( 0.000000000000000000, 6.000000000000000000, -56.39999999999999858 ) ) ;
#150 = ADVANCED_FACE ( 'NONE', ( #141, #114 ), #209, .T. ) ;
#151 = EDGE_LOOP ( 'NONE', ( #81, #218 ) ) ;
#152 = VERTEX_POINT ( 'NONE', #54 ) ;
#153 = DIRECTION ( 'NONE',  ( 0.000000000000000000, 1.000000000000000000, 0.000000000000000000 ) ) ;
#154 = DIRECTION ( 'NONE',  ( 0.000000000000000000, 0.000000000000000000, 1.000000000000000000 ) ) ;
#155 = EDGE_CURVE ( 'NONE', #135, #5, #97, .T. ) ;
#156 = AXIS2_PLACEMENT_3D ( 'NONE', #86, #239, #169 ) ;
#157 = PRODUCT_DEFINITION_SHAPE ( 'NONE', 'NONE',  #246 ) ;
#158 = APPLICATION_PROTOCOL_DEFINITION ( 'international standard', 'config_control_design', 1994, #110 ) ;
#159 = DIRECTION ( 'NONE',  ( -0.000000000000000000, -1.000000000000000000, -0.000000000000000000 ) ) ;
#160 = COORDINATED_UNIVERSAL_TIME_OFFSET ( 1, 0, .AHEAD. ) ;
#161 = PERSON_AND_ORGANIZATION ( #72, #181 ) ;
#162 = ORIENTED_EDGE ( 'NONE', *, *, #155, .F. ) ;
#163 = CALENDAR_DATE ( 2024, 13, 8 ) ;
#164 = EDGE_CURVE ( 'NONE', #5, #2, #98, .T. ) ;
#165 = ORIENTED_EDGE ( 'NONE', *, *, #164, .T. ) ;
#166 = ORIENTED_EDGE ( 'NONE', *, *, #178, .T. ) ;
#167 = CARTESIAN_POINT ( 'NONE',  ( 0.000000000000000000, 0.000000000000000000, 0.000000000000000000 ) ) ;
#168 = EDGE_CURVE ( 'NONE', #84, #24, #207, .T. ) ;
#169 = DIRECTION ( 'NONE',  ( 0.000000000000000000, 0.000000000000000000, 1.000000000000000000 ) ) ;
#170 = ORIENTED_EDGE ( 'NONE', *, *, #99, .T. ) ;
#171 = AXIS2_PLACEMENT_3D ( 'NONE', #76, #138, #17 ) ;
#172 = DIRECTION ( 'NONE',  ( 0.000000000000000000, 0.000000000000000000, 1.000000000000000000 ) ) ;
#173 = EDGE_CURVE ( 'NONE', #84, #182, #212, .T. ) ;
#174 = DIRECTION ( 'NONE',  ( -0.000000000000000000, -1.000000000000000000, -0.000000000000000000 ) ) ;
#175 = DIRECTION ( 'NONE',  ( 0.000000000000000000, 0.000000000000000000, -1.000000000000000000 ) ) ;
#176 = COORDINATED_UNIVERSAL_TIME_OFFSET ( 1, 0, .AHEAD. ) ;
#177 = EDGE_LOOP ( 'NONE', ( #32, #165, #199, #237 ) ) ;
#178 = EDGE_CURVE ( 'NONE', #24, #152, #60, .T. ) ;
#179 = DATE_AND_TIME ( #163, #18 ) ;
#180 = VERTEX_POINT ( 'NONE', #208 ) ;
#181 = ORGANIZATION ( 'UNSPECIFIED', 'UNSPECIFIED', '' ) ;
#182 = VERTEX_POINT ( 'NONE', #14 ) ;
#183 = CARTESIAN_POINT ( 'NONE',  ( 3.551475717527324030E-15, 6.000000000000000000, 29.00000000000000000 ) ) ;
#184 = ORIENTED_EDGE ( 'NONE', *, *, #87, .F. ) ;
#185 = LINE ( 'NONE', #219, #52 ) ;
#186 = ORIENTED_EDGE ( 'NONE', *, *, #168, .F. ) ;
#187 = PERSON_AND_ORGANIZATION ( #72, #181 ) ;
#188 = CC_DESIGN_DATE_AND_TIME_ASSIGNMENT ( #249, #44, ( #246 ) ) ;
#189 = DIRECTION ( 'NONE',  ( -0.000000000000000000, -1.000000000000000000, -0.000000000000000000 ) ) ;
#190 =( NAMED_UNIT ( * ) PLANE_ANGLE_UNIT ( ) SI_UNIT ( $, .RADIAN. ) );
#191 = CIRCLE ( 'NONE', #41, 29.00000000000000000 ) ;
#192 =( LENGTH_UNIT ( ) NAMED_UNIT ( * ) SI_UNIT ( .MILLI., .METRE. ) );
#193 = SECURITY_CLASSIFICATION ( '', '', #80 ) ;
#194 = CARTESIAN_POINT ( 'NONE',  ( 0.000000000000000000, 6.000000000000000000, 0.000000000000000000 ) ) ;
#195 = CALENDAR_DATE ( 2024, 13, 8 ) ;
#196 = ORIENTED_EDGE ( 'NONE', *, *, #164, .F. ) ;
#197 = APPROVAL_STATUS ( 'not_yet_approved' ) ;
#198 = AXIS2_PLACEMENT_3D ( 'NONE', #46, #129, #89 ) ;
#199 = ORIENTED_EDGE ( 'NONE', *, *, #69, .F. ) ;
#200 = CC_DESIGN_APPROVAL ( #238, ( #246 ) ) ;
#201 = DIRECTION ( 'NONE',  ( 0.000000000000000000, 1.000000000000000000, 0.000000000000000000 ) ) ;
#202 = ORIENTED_EDGE ( 'NONE', *, *, #75, .T. ) ;
#203 = ORIENTED_EDGE ( 'NONE', *, *, #173, .T. ) ;
#204 = LOCAL_TIME ( 9, 32, 57.00000000000000000, #176 ) ;
#205 = DIRECTION ( 'NONE',  ( 0.000000000000000000, 0.000000000000000000, 1.000000000000000000 ) ) ;
#206 =( NAMED_UNIT ( * ) SI_UNIT ( $, .STERADIAN. ) SOLID_ANGLE_UNIT ( ) );
#207 = LINE ( 'NONE', #227, #83 ) ;
#208 = CARTESIAN_POINT ( 'NONE',  ( 0.000000000000000000, 0.000000000000000000, -29.00000000000000000 ) ) ;
#209 = PLANE ( 'NONE',  #29 ) ;
#210 = ADVANCED_FACE ( 'NONE', ( #142 ), #93, .T. ) ;
#211 = CARTESIAN_POINT ( 'NONE',  ( 0.000000000000000000, 6.000000000000000000, 0.000000000000000000 ) ) ;
#212 = CIRCLE ( 'NONE', #171, 56.39999999999999858 ) ;
#213 = APPROVAL_ROLE ( '' ) ;
#214 = UNCERTAINTY_MEASURE_WITH_UNIT (LENGTH_MEASURE( 1.000000000000000082E-05 ), #192, 'distance_accuracy_value', 'NONE');
#215 = PERSON_AND_ORGANIZATION ( #72, #181 ) ;
#216 = PERSON_AND_ORGANIZATION ( #72, #181 ) ;
#217 = ORIENTED_EDGE ( 'NONE', *, *, #69, .T. ) ;
#218 = ORIENTED_EDGE ( 'NONE', *, *, #178, .F. ) ;
#219 = CARTESIAN_POINT ( 'NONE',  ( 0.000000000000000000, 6.000000000000000000, -29.00000000000000000 ) ) ;
#220 = DIRECTION ( 'NONE',  ( -0.000000000000000000, -1.000000000000000000, -0.000000000000000000 ) ) ;
#221 = CARTESIAN_POINT ( 'NONE',  ( 0.000000000000000000, 0.000000000000000000, 0.000000000000000000 ) ) ;
#222 = APPROVAL_PERSON_ORGANIZATION ( #215, #7, #213 ) ;
#223 = CIRCLE ( 'NONE', #19, 56.39999999999999858 ) ;
#224 = CARTESIAN_POINT ( 'NONE',  ( 0.000000000000000000, 6.000000000000000000, 0.000000000000000000 ) ) ;
#225 = DIRECTION ( 'NONE',  ( 0.000000000000000000, 1.000000000000000000, 0.000000000000000000 ) ) ;
#226 = DIRECTION ( 'NONE',  ( 0.000000000000000000, 0.000000000000000000, 1.000000000000000000 ) ) ;
#227 = CARTESIAN_POINT ( 'NONE',  ( 6.907007947191071980E-15, 6.000000000000000000, 56.39999999999999858 ) ) ;
#228 = CIRCLE ( 'NONE', #126, 56.39999999999999858 ) ;
#229 = PERSON_AND_ORGANIZATION_ROLE ( 'design_supplier' ) ;
#230 = CC_DESIGN_DATE_AND_TIME_ASSIGNMENT ( #123, #102, ( #193 ) ) ;
#231 = COORDINATED_UNIVERSAL_TIME_OFFSET ( 1, 0, .AHEAD. ) ;
#232 = ORIENTED_EDGE ( 'NONE', *, *, #75, .F. ) ;
#233 = DATE_AND_TIME ( #63, #96 ) ;
#234 = APPROVAL_DATE_TIME ( #179, #7 ) ;
#235 = AXIS2_PLACEMENT_3D ( 'NONE', #77, #115, #226 ) ;
#236 = AXIS2_PLACEMENT_3D ( 'NONE', #111, #153, #47 ) ;
#237 = ORIENTED_EDGE ( 'NONE', *, *, #79, .F. ) ;
#238 = APPROVAL ( #66, 'UNSPECIFIED' ) ;
#239 = DIRECTION ( 'NONE',  ( 0.000000000000000000, 1.000000000000000000, 0.000000000000000000 ) ) ;
#240 = DIRECTION ( 'NONE',  ( 0.000000000000000000, 0.000000000000000000, 1.000000000000000000 ) ) ;
#241 = EDGE_LOOP ( 'NONE', ( #217, #202 ) ) ;
#242 = FACE_OUTER_BOUND ( 'NONE', #151, .T. ) ;
#243 = CC_DESIGN_SECURITY_CLASSIFICATION ( #193, ( #65 ) ) ;
#244 = CIRCLE ( 'NONE', #156, 29.00000000000000000 ) ;
#245 = CARTESIAN_POINT ( 'NONE',  ( 3.551475717527324030E-15, 6.000000000000000000, 29.00000000000000000 ) ) ;
#246 = PRODUCT_DEFINITION ( 'UNKNOWN', '', #65, #121 ) ;
#247 = DIRECTION ( 'NONE',  ( 0.000000000000000000, 0.000000000000000000, -1.000000000000000000 ) ) ;
#248 = COORDINATED_UNIVERSAL_TIME_OFFSET ( 1, 0, .AHEAD. ) ;
#249 = DATE_AND_TIME ( #124, #204 ) ;
ENDSEC;
END-ISO-10303-21;
