ISO-10303-21;
HEADER;
FILE_DESCRIPTION (( 'STEP AP203' ),
    '1' );
FILE_NAME ('11-0201-05_outokumpu.step',
    '2015-08-10T12:14:14',
    ( '' ),
    ( '' ),
    'SwSTEP 2.0',
    'SolidWorks 2008',
    '' );
FILE_SCHEMA (( 'CONFIG_CONTROL_DESIGN' ));
ENDSEC;

DATA;
#1 = DIRECTION ( 'NONE',  ( 1.000000000000000000, 0.0000000000000000000, 0.0000000000000000000 ) ) ;
#2 = DIRECTION ( 'NONE',  ( -0.0000000000000000000, -0.0000000000000000000, 1.000000000000000000 ) ) ;
#3 = CARTESIAN_POINT ( 'NONE',  ( 0.0000000000000000000, 0.0000000000000000000, -36.00000000000000000 ) ) ;
#4 = FACE_OUTER_BOUND ( 'NONE', #197, .T. ) ;
#5 = AXIS2_PLACEMENT_3D ( 'NONE', #3, #2, #1 ) ;
#6 = COORDINATED_UNIVERSAL_TIME_OFFSET ( 1, 0, .AHEAD. ) ;
#7 = APPROVAL_PERSON_ORGANIZATION ( #11, #9, #8 ) ;
#8 = APPROVAL_ROLE ( '' ) ;
#9 = APPROVAL ( #10, 'UNSPECIFIED' ) ;
#10 = APPROVAL_STATUS ( 'not_yet_approved' ) ;
#11 = PERSON_AND_ORGANIZATION ( #60, #110 ) ;
#12 = CC_DESIGN_DATE_AND_TIME_ASSIGNMENT ( #14, #13, ( #21 ) ) ;
#13 = DATE_TIME_ROLE ( 'classification_date' ) ;
#14 = DATE_AND_TIME ( #15, #16 ) ;
#15 = CALENDAR_DATE ( 2015, 10, 8 ) ;
#16 = LOCAL_TIME ( 14, 14, 14.00000000000000000, #17 ) ;
#17 = COORDINATED_UNIVERSAL_TIME_OFFSET ( 1, 0, .AHEAD. ) ;
#18 = CC_DESIGN_PERSON_AND_ORGANIZATION_ASSIGNMENT ( #20, #19, ( #21 ) ) ;
#19 = PERSON_AND_ORGANIZATION_ROLE ( 'classification_officer' ) ;
#20 = PERSON_AND_ORGANIZATION ( #60, #110 ) ;
#21 = SECURITY_CLASSIFICATION ( '', '', #22 ) ;
#22 = SECURITY_CLASSIFICATION_LEVEL ( 'unclassified' ) ;
#23 = CC_DESIGN_PERSON_AND_ORGANIZATION_ASSIGNMENT ( #25, #24, ( #40 ) ) ;
#24 = PERSON_AND_ORGANIZATION_ROLE ( 'design_supplier' ) ;
#25 = PERSON_AND_ORGANIZATION ( #60, #110 ) ;
#26 = CC_DESIGN_PERSON_AND_ORGANIZATION_ASSIGNMENT ( #28, #27, ( #40 ) ) ;
#27 = PERSON_AND_ORGANIZATION_ROLE ( 'creator' ) ;
#28 = PERSON_AND_ORGANIZATION ( #60, #110 ) ;
#29 = CC_DESIGN_APPROVAL ( #37, ( #40 ) ) ;
#30 = APPROVAL_DATE_TIME ( #31, #37 ) ;
#31 = DATE_AND_TIME ( #32, #33 ) ;
#32 = CALENDAR_DATE ( 2015, 10, 8 ) ;
#33 = LOCAL_TIME ( 14, 14, 14.00000000000000000, #34 ) ;
#34 = COORDINATED_UNIVERSAL_TIME_OFFSET ( 1, 0, .AHEAD. ) ;
#35 = APPROVAL_PERSON_ORGANIZATION ( #39, #37, #36 ) ;
#36 = APPROVAL_ROLE ( '' ) ;
#37 = APPROVAL ( #38, 'UNSPECIFIED' ) ;
#38 = APPROVAL_STATUS ( 'not_yet_approved' ) ;
#39 = PERSON_AND_ORGANIZATION ( #60, #110 ) ;
#40 = PRODUCT_DEFINITION_FORMATION_WITH_SPECIFIED_SOURCE ( 'ANY', '', #61, .NOT_KNOWN. ) ;
#41 = CC_DESIGN_DATE_AND_TIME_ASSIGNMENT ( #85, #84, ( #103 ) ) ;
#42 =( LENGTH_UNIT ( ) NAMED_UNIT ( * ) SI_UNIT ( .MILLI., .METRE. ) );
#43 = CARTESIAN_POINT ( 'NONE',  ( 0.0000000000000000000, 0.0000000000000000000, 0.0000000000000000000 ) ) ;
#44 = DIRECTION ( 'NONE',  ( 1.000000000000000000, 0.0000000000000000000, 0.0000000000000000000 ) ) ;
#45 = DIRECTION ( 'NONE',  ( -0.0000000000000000000, -0.0000000000000000000, 1.000000000000000000 ) ) ;
#46 = VECTOR ( 'NONE', #45, 1000.000000000000000 ) ;
#47 = AXIS2_PLACEMENT_3D ( 'NONE', #116, #54, #53 ) ;
#48 = VECTOR ( 'NONE', #114, 1000.000000000000000 ) ;
#49 = CARTESIAN_POINT ( 'NONE',  ( 1.618990830070874200E-015, -13.22050000000000100, -36.00000000000004300 ) ) ;
#50 = LINE ( 'NONE', #49, #48 ) ;
#51 = SHAPE_DEFINITION_REPRESENTATION ( #68, #83 ) ;
#52 = DIRECTION ( 'NONE',  ( 1.000000000000000000, 0.0000000000000000000, 0.0000000000000000000 ) ) ;
#53 = DIRECTION ( 'NONE',  ( 1.000000000000000000, 0.0000000000000000000, 0.0000000000000000000 ) ) ;
#54 = DIRECTION ( 'NONE',  ( -0.0000000000000000000, -0.0000000000000000000, 1.000000000000000000 ) ) ;
#55 = PLANE ( 'NONE',  #78 ) ;
#56 = DIRECTION ( 'NONE',  ( -1.000000000000000000, 0.0000000000000000000, -0.0000000000000000000 ) ) ;
#57 = DIRECTION ( 'NONE',  ( 0.0000000000000000000, 0.0000000000000000000, -1.000000000000000000 ) ) ;
#58 = CARTESIAN_POINT ( 'NONE',  ( 16.25000000000000000, 0.0000000000000000000, -4.336808689942017700E-016 ) ) ;
#59 = LINE ( 'NONE', #58, #46 ) ;
#60 = PERSON ( 'UNSPECIFIED', 'UNSPECIFIED', 'UNSPECIFIED', ('UNSPECIFIED'), ('UNSPECIFIED'), ('UNSPECIFIED') ) ;
#61 = PRODUCT ( '11-0201-05_outokumpu', '11-0201-05_outokumpu', '', ( #62 ) ) ;
#62 = MECHANICAL_CONTEXT ( 'NONE', #82, 'mechanical' ) ;
#63 = APPLICATION_PROTOCOL_DEFINITION ( 'international standard', 'config_control_design', 1994, #82 ) ;
#64 = DIRECTION ( 'NONE',  ( -0.0000000000000000000, -0.0000000000000000000, 1.000000000000000000 ) ) ;
#65 = CARTESIAN_POINT ( 'NONE',  ( 0.0000000000000000000, 0.0000000000000000000, -0.4616700330655558200 ) ) ;
#66 = AXIS2_PLACEMENT_3D ( 'NONE', #65, #64, #44 ) ;
#67 = CIRCLE ( 'NONE', #66, 13.22049999999999900 ) ;
#68 = PRODUCT_DEFINITION_SHAPE ( 'NONE', 'NONE',  #103 ) ;
#69 = PRODUCT_RELATED_PRODUCT_CATEGORY ( 'detail', '', ( #61 ) ) ;
#70 = CC_DESIGN_SECURITY_CLASSIFICATION ( #21, ( #40 ) ) ;
#71 = CC_DESIGN_APPROVAL ( #9, ( #21 ) ) ;
#72 = APPROVAL_DATE_TIME ( #73, #9 ) ;
#73 = DATE_AND_TIME ( #74, #75 ) ;
#74 = CALENDAR_DATE ( 2015, 10, 8 ) ;
#75 = LOCAL_TIME ( 14, 14, 14.00000000000000000, #6 ) ;
#76 =( GEOMETRIC_REPRESENTATION_CONTEXT ( 3 ) GLOBAL_UNCERTAINTY_ASSIGNED_CONTEXT ( ( #117 ) ) GLOBAL_UNIT_ASSIGNED_CONTEXT ( ( #42, #111, #118 ) ) REPRESENTATION_CONTEXT ( 'NONE', 'WORKASPACE' ) );
#77 = CARTESIAN_POINT ( 'NONE',  ( 0.0000000000000000000, 16.25000000000000000, -2.168404344971008900E-016 ) ) ;
#78 = AXIS2_PLACEMENT_3D ( 'NONE', #77, #57, #56 ) ;
#79 = FACE_BOUND ( 'NONE', #344, .T. ) ;
#80 = DIRECTION ( 'NONE',  ( 0.0000000000000000000, 0.0000000000000000000, 1.000000000000000000 ) ) ;
#81 = AXIS2_PLACEMENT_3D ( 'NONE', #43, #80, #52 ) ;
#82 = APPLICATION_CONTEXT ( 'configuration controlled 3d designs of mechanical parts and assemblies' ) ;
#83 = ADVANCED_BREP_SHAPE_REPRESENTATION ( '11-0201-05_outokumpu', ( #145, #81 ), #76 ) ;
#84 = DATE_TIME_ROLE ( 'creation_date' ) ;
#85 = DATE_AND_TIME ( #86, #87 ) ;
#86 = CALENDAR_DATE ( 2015, 10, 8 ) ;
#87 = LOCAL_TIME ( 14, 14, 14.00000000000000000, #88 ) ;
#88 = COORDINATED_UNIVERSAL_TIME_OFFSET ( 1, 0, .AHEAD. ) ;
#89 = CC_DESIGN_PERSON_AND_ORGANIZATION_ASSIGNMENT ( #91, #90, ( #103 ) ) ;
#90 = PERSON_AND_ORGANIZATION_ROLE ( 'creator' ) ;
#91 = PERSON_AND_ORGANIZATION ( #60, #110 ) ;
#92 = CC_DESIGN_APPROVAL ( #100, ( #103 ) ) ;
#93 = APPROVAL_DATE_TIME ( #94, #100 ) ;
#94 = DATE_AND_TIME ( #95, #96 ) ;
#95 = CALENDAR_DATE ( 2015, 10, 8 ) ;
#96 = LOCAL_TIME ( 14, 14, 14.00000000000000000, #97 ) ;
#97 = COORDINATED_UNIVERSAL_TIME_OFFSET ( 1, 0, .AHEAD. ) ;
#98 = APPROVAL_PERSON_ORGANIZATION ( #102, #100, #99 ) ;
#99 = APPROVAL_ROLE ( '' ) ;
#100 = APPROVAL ( #101, 'UNSPECIFIED' ) ;
#101 = APPROVAL_STATUS ( 'not_yet_approved' ) ;
#102 = PERSON_AND_ORGANIZATION ( #60, #110 ) ;
#103 = PRODUCT_DEFINITION ( 'UNKNOWN', '', #40, #104 ) ;
#104 = DESIGN_CONTEXT ( 'detailed design', #106, 'design' ) ;
#105 = APPLICATION_PROTOCOL_DEFINITION ( 'international standard', 'config_control_design', 1994, #106 ) ;
#106 = APPLICATION_CONTEXT ( 'configuration controlled 3d designs of mechanical parts and assemblies' ) ;
#107 = CC_DESIGN_PERSON_AND_ORGANIZATION_ASSIGNMENT ( #109, #108, ( #61 ) ) ;
#108 = PERSON_AND_ORGANIZATION_ROLE ( 'design_owner' ) ;
#109 = PERSON_AND_ORGANIZATION ( #60, #110 ) ;
#110 = ORGANIZATION ( 'UNSPECIFIED', 'UNSPECIFIED', '' ) ;
#111 =( NAMED_UNIT ( * ) PLANE_ANGLE_UNIT ( ) SI_UNIT ( $, .RADIAN. ) );
#112 = CIRCLE ( 'NONE', #5, 16.25000000000000000 ) ;
#113 = CARTESIAN_POINT ( 'NONE',  ( 0.0000000000000000000, 13.22050000000000300, -35.53832996693444100 ) ) ;
#114 = DIRECTION ( 'NONE',  ( -0.0000000000000000000, 1.610076630648218200E-016, -1.000000000000000000 ) ) ;
#115 = CIRCLE ( 'NONE', #47, 13.68217003306555800 ) ;
#116 = CARTESIAN_POINT ( 'NONE',  ( 0.0000000000000000000, 0.0000000000000000000, -35.99999999999999300 ) ) ;
#117 = UNCERTAINTY_MEASURE_WITH_UNIT (LENGTH_MEASURE( 1.000000000000000100E-005 ), #42, 'distance_accuracy_value', 'NONE');
#118 =( NAMED_UNIT ( * ) SI_UNIT ( $, .STERADIAN. ) SOLID_ANGLE_UNIT ( ) );
#119 = ORIENTED_EDGE ( 'NONE', *, *, #147, .T. ) ;
#120 = VERTEX_POINT ( 'NONE', #196 ) ;
#121 = VERTEX_POINT ( 'NONE', #195 ) ;
#122 = VERTEX_POINT ( 'NONE', #194 ) ;
#123 = VERTEX_POINT ( 'NONE', #193 ) ;
#124 = ORIENTED_EDGE ( 'NONE', *, *, #135, .F. ) ;
#125 = ORIENTED_EDGE ( 'NONE', *, *, #139, .T. ) ;
#126 = EDGE_LOOP ( 'NONE', ( #128, #125, #159, #368 ) ) ;
#127 = VERTEX_POINT ( 'NONE', #192 ) ;
#128 = ORIENTED_EDGE ( 'NONE', *, *, #140, .T. ) ;
#129 = EDGE_LOOP ( 'NONE', ( #157, #165, #161, #124, #132 ) ) ;
#130 = VERTEX_POINT ( 'NONE', #191 ) ;
#131 = EDGE_CURVE ( 'NONE', #137, #153, #189, .T. ) ;
#132 = ORIENTED_EDGE ( 'NONE', *, *, #133, .F. ) ;
#133 = EDGE_CURVE ( 'NONE', #120, #146, #190, .T. ) ;
#134 = ADVANCED_FACE ( 'NONE', ( #277 ), #271, .T. ) ;
#135 = EDGE_CURVE ( 'NONE', #146, #162, #267, .T. ) ;
#136 = EDGE_CURVE ( 'NONE', #130, #162, #263, .T. ) ;
#137 = VERTEX_POINT ( 'NONE', #258 ) ;
#138 = ADVANCED_FACE ( 'NONE', ( #257 ), #256, .F. ) ;
#139 = EDGE_CURVE ( 'NONE', #121, #122, #251, .T. ) ;
#140 = EDGE_CURVE ( 'NONE', #127, #121, #247, .T. ) ;
#141 = EDGE_CURVE ( 'NONE', #155, #148, #357, .T. ) ;
#142 = ADVANCED_FACE ( 'NONE', ( #352 ), #351, .F. ) ;
#143 = ORIENTED_EDGE ( 'NONE', *, *, #141, .T. ) ;
#144 = EDGE_LOOP ( 'NONE', ( #143, #150, #151, #163, #119 ) ) ;
#145 = MANIFOLD_SOLID_BREP ( 'NONE', #205 ) ;
#146 = VERTEX_POINT ( 'NONE', #350 ) ;
#147 = EDGE_CURVE ( 'NONE', #137, #155, #345, .T. ) ;
#148 = VERTEX_POINT ( 'NONE', #305 ) ;
#149 = VERTEX_POINT ( 'NONE', #304 ) ;
#150 = ORIENTED_EDGE ( 'NONE', *, *, #154, .T. ) ;
#151 = ORIENTED_EDGE ( 'NONE', *, *, #152, .F. ) ;
#152 = EDGE_CURVE ( 'NONE', #153, #149, #303, .T. ) ;
#153 = VERTEX_POINT ( 'NONE', #298 ) ;
#154 = EDGE_CURVE ( 'NONE', #148, #149, #297, .T. ) ;
#155 = VERTEX_POINT ( 'NONE', #293 ) ;
#156 = EDGE_CURVE ( 'NONE', #123, #120, #291, .T. ) ;
#157 = ORIENTED_EDGE ( 'NONE', *, *, #156, .F. ) ;
#158 = EDGE_CURVE ( 'NONE', #160, #122, #246, .T. ) ;
#159 = ORIENTED_EDGE ( 'NONE', *, *, #158, .F. ) ;
#160 = VERTEX_POINT ( 'NONE', #242 ) ;
#161 = ORIENTED_EDGE ( 'NONE', *, *, #136, .T. ) ;
#162 = VERTEX_POINT ( 'NONE', #241 ) ;
#163 = ORIENTED_EDGE ( 'NONE', *, *, #131, .F. ) ;
#164 = EDGE_CURVE ( 'NONE', #123, #130, #240, .T. ) ;
#165 = ORIENTED_EDGE ( 'NONE', *, *, #164, .T. ) ;
#166 = ORIENTED_EDGE ( 'NONE', *, *, #342, .T. ) ;
#167 = ORIENTED_EDGE ( 'NONE', *, *, #362, .T. ) ;
#168 = ORIENTED_EDGE ( 'NONE', *, *, #208, .F. ) ;
#169 = ADVANCED_FACE ( 'NONE', ( #236 ), #235, .F. ) ;
#170 = EDGE_LOOP ( 'NONE', ( #171, #172, #173, #174, #198 ) ) ;
#171 = ORIENTED_EDGE ( 'NONE', *, *, #164, .F. ) ;
#172 = ORIENTED_EDGE ( 'NONE', *, *, #336, .F. ) ;
#173 = ORIENTED_EDGE ( 'NONE', *, *, #371, .F. ) ;
#174 = ORIENTED_EDGE ( 'NONE', *, *, #135, .T. ) ;
#175 = ADVANCED_FACE ( 'NONE', ( #234 ), #229, .F. ) ;
#176 = EDGE_LOOP ( 'NONE', ( #367, #278, #364, #332, #333, #179 ) ) ;
#177 = VERTEX_POINT ( 'NONE', #228 ) ;
#178 = ORIENTED_EDGE ( 'NONE', *, *, #133, .T. ) ;
#179 = ORIENTED_EDGE ( 'NONE', *, *, #180, .F. ) ;
#180 = EDGE_CURVE ( 'NONE', #177, #366, #223, .T. ) ;
#181 = ORIENTED_EDGE ( 'NONE', *, *, #185, .F. ) ;
#182 = ADVANCED_FACE ( 'NONE', ( #219, #218 ), #216, .F. ) ;
#183 = EDGE_LOOP ( 'NONE', ( #370, #206 ) ) ;
#184 = ORIENTED_EDGE ( 'NONE', *, *, #371, .T. ) ;
#185 = EDGE_CURVE ( 'NONE', #148, #366, #327, .T. ) ;
#186 = DIRECTION ( 'NONE',  ( -0.7071067811865541200, 0.0000000000000000000, -0.7071067811865409100 ) ) ;
#187 = VECTOR ( 'NONE', #186, 1000.000000000000000 ) ;
#188 = CARTESIAN_POINT ( 'NONE',  ( -13.68217003306555800, 0.0000000000000000000, -35.99999999999999300 ) ) ;
#189 = LINE ( 'NONE', #188, #187 ) ;
#190 = CIRCLE ( 'NONE', #276, 13.22049999999999900 ) ;
#191 = CARTESIAN_POINT ( 'NONE',  ( -13.68217003306556000, 1.675527235657021100E-015, 5.813330856004549000E-018 ) ) ;
#192 = CARTESIAN_POINT ( 'NONE',  ( 16.25000000000000000, 0.0000000000000000000, -36.00000000000000000 ) ) ;
#193 = CARTESIAN_POINT ( 'NONE',  ( -13.22049999999999900, 1.647259032863947300E-015, -0.4616700330655558200 ) ) ;
#194 = CARTESIAN_POINT ( 'NONE',  ( -16.25000000000000000, 1.989985324961363000E-015, 0.0000000000000000000 ) ) ;
#195 = CARTESIAN_POINT ( 'NONE',  ( -16.25000000000000000, 1.989985324961363000E-015, -36.00000000000000000 ) ) ;
#196 = CARTESIAN_POINT ( 'NONE',  ( 1.618990830070874200E-015, -13.22049999999999900, -0.4616700330655558200 ) ) ;
#197 = EDGE_LOOP ( 'NONE', ( #341, #207 ) ) ;
#198 = ORIENTED_EDGE ( 'NONE', *, *, #210, .T. ) ;
#199 = ADVANCED_FACE ( 'NONE', ( #323 ), #322, .F. ) ;
#200 = ORIENTED_EDGE ( 'NONE', *, *, #154, .F. ) ;
#201 = ORIENTED_EDGE ( 'NONE', *, *, #185, .T. ) ;
#202 = ORIENTED_EDGE ( 'NONE', *, *, #334, .T. ) ;
#203 = ORIENTED_EDGE ( 'NONE', *, *, #131, .T. ) ;
#204 = ORIENTED_EDGE ( 'NONE', *, *, #340, .F. ) ;
#205 = CLOSED_SHELL ( 'NONE', ( #142, #138, #134, #175, #335, #182, #343, #212, #169, #199 ) ) ;
#206 = ORIENTED_EDGE ( 'NONE', *, *, #342, .F. ) ;
#207 = ORIENTED_EDGE ( 'NONE', *, *, #208, .T. ) ;
#208 = EDGE_CURVE ( 'NONE', #122, #160, #317, .T. ) ;
#209 = ORIENTED_EDGE ( 'NONE', *, *, #210, .F. ) ;
#210 = EDGE_CURVE ( 'NONE', #162, #130, #312, .T. ) ;
#211 = ORIENTED_EDGE ( 'NONE', *, *, #136, .F. ) ;
#212 = ADVANCED_FACE ( 'NONE', ( #284 ), #283, .T. ) ;
#213 = EDGE_LOOP ( 'NONE', ( #214, #166, #167, #168 ) ) ;
#214 = ORIENTED_EDGE ( 'NONE', *, *, #139, .F. ) ;
#215 = EDGE_LOOP ( 'NONE', ( #338, #339 ) ) ;
#216 = PLANE ( 'NONE',  #217 ) ;
#217 = AXIS2_PLACEMENT_3D ( 'NONE', #330, #329, #328 ) ;
#218 = FACE_BOUND ( 'NONE', #215, .T. ) ;
#219 = FACE_OUTER_BOUND ( 'NONE', #183, .T. ) ;
#220 = DIRECTION ( 'NONE',  ( -0.0000000000000000000, 1.610076630648218200E-016, -1.000000000000000000 ) ) ;
#221 = VECTOR ( 'NONE', #220, 1000.000000000000000 ) ;
#222 = CARTESIAN_POINT ( 'NONE',  ( 0.0000000000000000000, 13.22050000000000500, -36.00000000000004300 ) ) ;
#223 = LINE ( 'NONE', #222, #221 ) ;
#224 = DIRECTION ( 'NONE',  ( 0.0000000000000000000, 1.000000000000000000, 0.0000000000000000000 ) ) ;
#225 = DIRECTION ( 'NONE',  ( -0.0000000000000000000, 1.610076630648218200E-016, -1.000000000000000000 ) ) ;
#226 = CARTESIAN_POINT ( 'NONE',  ( 0.0000000000000000000, 2.326828918379978100E-015, -36.00000000000004300 ) ) ;
#227 = AXIS2_PLACEMENT_3D ( 'NONE', #226, #225, #224 ) ;
#228 = CARTESIAN_POINT ( 'NONE',  ( 0.0000000000000000000, 13.22049999999999900, -0.4616700330655558200 ) ) ;
#229 = CYLINDRICAL_SURFACE ( 'NONE', #227, 13.22050000000000300 ) ;
#230 = DIRECTION ( 'NONE',  ( 1.000000000000000000, 0.0000000000000000000, 0.0000000000000000000 ) ) ;
#231 = DIRECTION ( 'NONE',  ( -0.0000000000000000000, -0.0000000000000000000, 1.000000000000000000 ) ) ;
#232 = CARTESIAN_POINT ( 'NONE',  ( 0.0000000000000000000, 0.0000000000000000000, -0.4616700330655558200 ) ) ;
#233 = AXIS2_PLACEMENT_3D ( 'NONE', #232, #231, #230 ) ;
#234 = FACE_OUTER_BOUND ( 'NONE', #176, .T. ) ;
#235 = CONICAL_SURFACE ( 'NONE', #233, 13.22049999999999900, 0.7853981633974526100 ) ;
#236 = FACE_OUTER_BOUND ( 'NONE', #170, .T. ) ;
#237 = DIRECTION ( 'NONE',  ( -0.7071067811865505700, 8.659274570719392400E-017, 0.7071067811865444600 ) ) ;
#238 = VECTOR ( 'NONE', #237, 1000.000000000000000 ) ;
#239 = CARTESIAN_POINT ( 'NONE',  ( -13.22049999999999900, 1.618990830070873800E-015, -0.4616700330655558200 ) ) ;
#240 = LINE ( 'NONE', #239, #238 ) ;
#241 = CARTESIAN_POINT ( 'NONE',  ( 13.68217003306556000, 0.0000000000000000000, 5.813330856004549000E-018 ) ) ;
#242 = CARTESIAN_POINT ( 'NONE',  ( 16.25000000000000000, 0.0000000000000000000, 0.0000000000000000000 ) ) ;
#243 = DIRECTION ( 'NONE',  ( 1.000000000000000000, 0.0000000000000000000, 0.0000000000000000000 ) ) ;
#244 = DIRECTION ( 'NONE',  ( -0.0000000000000000000, -0.0000000000000000000, 1.000000000000000000 ) ) ;
#245 = AXIS2_PLACEMENT_3D ( 'NONE', #292, #244, #243 ) ;
#246 = CIRCLE ( 'NONE', #245, 16.25000000000000000 ) ;
#247 = CIRCLE ( 'NONE', #361, 16.25000000000000000 ) ;
#248 = DIRECTION ( 'NONE',  ( -0.0000000000000000000, -0.0000000000000000000, 1.000000000000000000 ) ) ;
#249 = VECTOR ( 'NONE', #248, 1000.000000000000000 ) ;
#250 = CARTESIAN_POINT ( 'NONE',  ( -16.25000000000000000, 1.989985324961363000E-015, -4.336808689942017700E-016 ) ) ;
#251 = LINE ( 'NONE', #250, #249 ) ;
#252 = DIRECTION ( 'NONE',  ( 1.000000000000000000, 0.0000000000000000000, 0.0000000000000000000 ) ) ;
#253 = DIRECTION ( 'NONE',  ( -0.0000000000000000000, -0.0000000000000000000, 1.000000000000000000 ) ) ;
#254 = CARTESIAN_POINT ( 'NONE',  ( 0.0000000000000000000, 0.0000000000000000000, -0.4616700330655558200 ) ) ;
#255 = AXIS2_PLACEMENT_3D ( 'NONE', #254, #253, #252 ) ;
#256 = CONICAL_SURFACE ( 'NONE', #255, 13.22049999999999900, 0.7853981633974526100 ) ;
#257 = FACE_OUTER_BOUND ( 'NONE', #129, .T. ) ;
#258 = CARTESIAN_POINT ( 'NONE',  ( -13.22050000000000100, 0.0000000000000000000, -35.53832996693444100 ) ) ;
#259 = DIRECTION ( 'NONE',  ( 1.000000000000000000, 0.0000000000000000000, 0.0000000000000000000 ) ) ;
#260 = DIRECTION ( 'NONE',  ( -0.0000000000000000000, -0.0000000000000000000, 1.000000000000000000 ) ) ;
#261 = CARTESIAN_POINT ( 'NONE',  ( 0.0000000000000000000, 0.0000000000000000000, 5.813330856004549000E-018 ) ) ;
#262 = AXIS2_PLACEMENT_3D ( 'NONE', #261, #260, #259 ) ;
#263 = CIRCLE ( 'NONE', #262, 13.68217003306556000 ) ;
#264 = DIRECTION ( 'NONE',  ( 0.7071067811865505700, 0.0000000000000000000, 0.7071067811865444600 ) ) ;
#265 = VECTOR ( 'NONE', #264, 1000.000000000000000 ) ;
#266 = CARTESIAN_POINT ( 'NONE',  ( 13.22049999999999900, 0.0000000000000000000, -0.4616700330655558200 ) ) ;
#267 = LINE ( 'NONE', #266, #265 ) ;
#268 = DIRECTION ( 'NONE',  ( 1.000000000000000000, 0.0000000000000000000, 0.0000000000000000000 ) ) ;
#269 = DIRECTION ( 'NONE',  ( -0.0000000000000000000, -0.0000000000000000000, 1.000000000000000000 ) ) ;
#270 = AXIS2_PLACEMENT_3D ( 'NONE', #272, #269, #268 ) ;
#271 = CYLINDRICAL_SURFACE ( 'NONE', #270, 16.25000000000000000 ) ;
#272 = CARTESIAN_POINT ( 'NONE',  ( 0.0000000000000000000, 0.0000000000000000000, -4.336808689942017700E-016 ) ) ;
#273 = DIRECTION ( 'NONE',  ( 1.000000000000000000, 0.0000000000000000000, 0.0000000000000000000 ) ) ;
#274 = DIRECTION ( 'NONE',  ( -0.0000000000000000000, -0.0000000000000000000, 1.000000000000000000 ) ) ;
#275 = CARTESIAN_POINT ( 'NONE',  ( 0.0000000000000000000, 0.0000000000000000000, -0.4616700330655558200 ) ) ;
#276 = AXIS2_PLACEMENT_3D ( 'NONE', #275, #274, #273 ) ;
#277 = FACE_OUTER_BOUND ( 'NONE', #126, .T. ) ;
#278 = ORIENTED_EDGE ( 'NONE', *, *, #156, .T. ) ;
#279 = DIRECTION ( 'NONE',  ( 1.000000000000000000, 0.0000000000000000000, 0.0000000000000000000 ) ) ;
#280 = DIRECTION ( 'NONE',  ( -0.0000000000000000000, -0.0000000000000000000, 1.000000000000000000 ) ) ;
#281 = CARTESIAN_POINT ( 'NONE',  ( 0.0000000000000000000, 0.0000000000000000000, -4.336808689942017700E-016 ) ) ;
#282 = AXIS2_PLACEMENT_3D ( 'NONE', #281, #280, #279 ) ;
#283 = CYLINDRICAL_SURFACE ( 'NONE', #282, 16.25000000000000000 ) ;
#284 = FACE_OUTER_BOUND ( 'NONE', #213, .T. ) ;
#285 = DIRECTION ( 'NONE',  ( 1.000000000000000000, 0.0000000000000000000, 0.0000000000000000000 ) ) ;
#286 = DIRECTION ( 'NONE',  ( -0.0000000000000000000, -0.0000000000000000000, 1.000000000000000000 ) ) ;
#287 = DIRECTION ( 'NONE',  ( 1.000000000000000000, 0.0000000000000000000, 0.0000000000000000000 ) ) ;
#288 = DIRECTION ( 'NONE',  ( -0.0000000000000000000, -0.0000000000000000000, 1.000000000000000000 ) ) ;
#289 = CARTESIAN_POINT ( 'NONE',  ( 0.0000000000000000000, 0.0000000000000000000, -0.4616700330655558200 ) ) ;
#290 = AXIS2_PLACEMENT_3D ( 'NONE', #289, #288, #287 ) ;
#291 = CIRCLE ( 'NONE', #290, 13.22049999999999900 ) ;
#292 = CARTESIAN_POINT ( 'NONE',  ( 0.0000000000000000000, 0.0000000000000000000, 0.0000000000000000000 ) ) ;
#293 = CARTESIAN_POINT ( 'NONE',  ( 1.618990830070874200E-015, -13.22050000000000100, -35.53832996693444100 ) ) ;
#294 = DIRECTION ( 'NONE',  ( 0.7071067811865541200, 8.659274570719435500E-017, -0.7071067811865409100 ) ) ;
#295 = VECTOR ( 'NONE', #294, 1000.000000000000000 ) ;
#296 = CARTESIAN_POINT ( 'NONE',  ( 13.68217003306555800, 1.675527235657020900E-015, -35.99999999999999300 ) ) ;
#297 = LINE ( 'NONE', #296, #295 ) ;
#298 = CARTESIAN_POINT ( 'NONE',  ( -13.68217003306555800, 0.0000000000000000000, -35.99999999999999300 ) ) ;
#299 = DIRECTION ( 'NONE',  ( 1.000000000000000000, 0.0000000000000000000, 0.0000000000000000000 ) ) ;
#300 = DIRECTION ( 'NONE',  ( -0.0000000000000000000, -0.0000000000000000000, 1.000000000000000000 ) ) ;
#301 = CARTESIAN_POINT ( 'NONE',  ( 0.0000000000000000000, 0.0000000000000000000, -35.99999999999999300 ) ) ;
#302 = AXIS2_PLACEMENT_3D ( 'NONE', #301, #300, #299 ) ;
#303 = CIRCLE ( 'NONE', #302, 13.68217003306555800 ) ;
#304 = CARTESIAN_POINT ( 'NONE',  ( 13.68217003306555800, 1.675527235657020900E-015, -35.99999999999999300 ) ) ;
#305 = CARTESIAN_POINT ( 'NONE',  ( 13.22050000000000100, 1.647259032863947300E-015, -35.53832996693444100 ) ) ;
#306 = DIRECTION ( 'NONE',  ( 1.000000000000000000, 0.0000000000000000000, 0.0000000000000000000 ) ) ;
#307 = DIRECTION ( 'NONE',  ( -0.0000000000000000000, -0.0000000000000000000, 1.000000000000000000 ) ) ;
#308 = CARTESIAN_POINT ( 'NONE',  ( 0.0000000000000000000, 0.0000000000000000000, -35.53832996693444100 ) ) ;
#309 = AXIS2_PLACEMENT_3D ( 'NONE', #308, #307, #306 ) ;
#310 = CARTESIAN_POINT ( 'NONE',  ( 0.0000000000000000000, 0.0000000000000000000, 5.813330856004549000E-018 ) ) ;
#311 = AXIS2_PLACEMENT_3D ( 'NONE', #310, #286, #285 ) ;
#312 = CIRCLE ( 'NONE', #311, 13.68217003306556000 ) ;
#313 = DIRECTION ( 'NONE',  ( 1.000000000000000000, 0.0000000000000000000, 0.0000000000000000000 ) ) ;
#314 = DIRECTION ( 'NONE',  ( -0.0000000000000000000, -0.0000000000000000000, 1.000000000000000000 ) ) ;
#315 = CARTESIAN_POINT ( 'NONE',  ( 0.0000000000000000000, 0.0000000000000000000, 0.0000000000000000000 ) ) ;
#316 = AXIS2_PLACEMENT_3D ( 'NONE', #315, #314, #313 ) ;
#317 = CIRCLE ( 'NONE', #316, 16.25000000000000000 ) ;
#318 = DIRECTION ( 'NONE',  ( -1.000000000000000000, 0.0000000000000000000, 0.0000000000000000000 ) ) ;
#319 = DIRECTION ( 'NONE',  ( 0.0000000000000000000, 0.0000000000000000000, -1.000000000000000000 ) ) ;
#320 = CARTESIAN_POINT ( 'NONE',  ( 0.0000000000000000000, 0.0000000000000000000, -35.99999999999999300 ) ) ;
#321 = AXIS2_PLACEMENT_3D ( 'NONE', #320, #319, #318 ) ;
#322 = CONICAL_SURFACE ( 'NONE', #321, 13.68217003306555800, 0.7853981633974576000 ) ;
#323 = FACE_OUTER_BOUND ( 'NONE', #337, .T. ) ;
#324 = DIRECTION ( 'NONE',  ( 1.000000000000000000, 0.0000000000000000000, 0.0000000000000000000 ) ) ;
#325 = DIRECTION ( 'NONE',  ( -0.0000000000000000000, -0.0000000000000000000, 1.000000000000000000 ) ) ;
#326 = AXIS2_PLACEMENT_3D ( 'NONE', #331, #325, #324 ) ;
#327 = CIRCLE ( 'NONE', #326, 13.22050000000000100 ) ;
#328 = DIRECTION ( 'NONE',  ( 1.000000000000000000, 0.0000000000000000000, 0.0000000000000000000 ) ) ;
#329 = DIRECTION ( 'NONE',  ( 0.0000000000000000000, -0.0000000000000000000, 1.000000000000000000 ) ) ;
#330 = CARTESIAN_POINT ( 'NONE',  ( 0.0000000000000000000, 16.25000000000000000, -36.00000000000000000 ) ) ;
#331 = CARTESIAN_POINT ( 'NONE',  ( 0.0000000000000000000, 0.0000000000000000000, -35.53832996693444100 ) ) ;
#332 = ORIENTED_EDGE ( 'NONE', *, *, #147, .F. ) ;
#333 = ORIENTED_EDGE ( 'NONE', *, *, #334, .F. ) ;
#334 = EDGE_CURVE ( 'NONE', #366, #137, #378, .T. ) ;
#335 = ADVANCED_FACE ( 'NONE', ( #389 ), #383, .F. ) ;
#336 = EDGE_CURVE ( 'NONE', #177, #123, #388, .T. ) ;
#337 = EDGE_LOOP ( 'NONE', ( #200, #201, #202, #203, #204 ) ) ;
#338 = ORIENTED_EDGE ( 'NONE', *, *, #152, .T. ) ;
#339 = ORIENTED_EDGE ( 'NONE', *, *, #340, .T. ) ;
#340 = EDGE_CURVE ( 'NONE', #149, #153, #115, .T. ) ;
#341 = ORIENTED_EDGE ( 'NONE', *, *, #158, .T. ) ;
#342 = EDGE_CURVE ( 'NONE', #121, #127, #112, .T. ) ;
#343 = ADVANCED_FACE ( 'NONE', ( #4, #79 ), #55, .F. ) ;
#344 = EDGE_LOOP ( 'NONE', ( #209, #211 ) ) ;
#345 = CIRCLE ( 'NONE', #309, 13.22050000000000100 ) ;
#346 = DIRECTION ( 'NONE',  ( -1.000000000000000000, 0.0000000000000000000, 0.0000000000000000000 ) ) ;
#347 = DIRECTION ( 'NONE',  ( 0.0000000000000000000, 0.0000000000000000000, -1.000000000000000000 ) ) ;
#348 = CARTESIAN_POINT ( 'NONE',  ( 0.0000000000000000000, 0.0000000000000000000, -35.99999999999999300 ) ) ;
#349 = AXIS2_PLACEMENT_3D ( 'NONE', #348, #347, #346 ) ;
#350 = CARTESIAN_POINT ( 'NONE',  ( 13.22049999999999900, 0.0000000000000000000, -0.4616700330655558200 ) ) ;
#351 = CONICAL_SURFACE ( 'NONE', #349, 13.68217003306555800, 0.7853981633974576000 ) ;
#352 = FACE_OUTER_BOUND ( 'NONE', #144, .T. ) ;
#353 = DIRECTION ( 'NONE',  ( 1.000000000000000000, 0.0000000000000000000, 0.0000000000000000000 ) ) ;
#354 = DIRECTION ( 'NONE',  ( -0.0000000000000000000, -0.0000000000000000000, 1.000000000000000000 ) ) ;
#355 = CARTESIAN_POINT ( 'NONE',  ( 0.0000000000000000000, 0.0000000000000000000, -35.53832996693444100 ) ) ;
#356 = AXIS2_PLACEMENT_3D ( 'NONE', #355, #354, #353 ) ;
#357 = CIRCLE ( 'NONE', #356, 13.22050000000000100 ) ;
#358 = DIRECTION ( 'NONE',  ( 1.000000000000000000, 0.0000000000000000000, 0.0000000000000000000 ) ) ;
#359 = DIRECTION ( 'NONE',  ( -0.0000000000000000000, -0.0000000000000000000, 1.000000000000000000 ) ) ;
#360 = CARTESIAN_POINT ( 'NONE',  ( 0.0000000000000000000, 0.0000000000000000000, -36.00000000000000000 ) ) ;
#361 = AXIS2_PLACEMENT_3D ( 'NONE', #360, #359, #358 ) ;
#362 = EDGE_CURVE ( 'NONE', #127, #160, #59, .T. ) ;
#363 = EDGE_LOOP ( 'NONE', ( #373, #178, #184, #372, #181, #369 ) ) ;
#364 = ORIENTED_EDGE ( 'NONE', *, *, #365, .T. ) ;
#365 = EDGE_CURVE ( 'NONE', #120, #155, #50, .T. ) ;
#366 = VERTEX_POINT ( 'NONE', #113 ) ;
#367 = ORIENTED_EDGE ( 'NONE', *, *, #336, .T. ) ;
#368 = ORIENTED_EDGE ( 'NONE', *, *, #362, .F. ) ;
#369 = ORIENTED_EDGE ( 'NONE', *, *, #141, .F. ) ;
#370 = ORIENTED_EDGE ( 'NONE', *, *, #140, .F. ) ;
#371 = EDGE_CURVE ( 'NONE', #146, #177, #67, .T. ) ;
#372 = ORIENTED_EDGE ( 'NONE', *, *, #180, .T. ) ;
#373 = ORIENTED_EDGE ( 'NONE', *, *, #365, .F. ) ;
#374 = DIRECTION ( 'NONE',  ( 1.000000000000000000, 0.0000000000000000000, 0.0000000000000000000 ) ) ;
#375 = DIRECTION ( 'NONE',  ( -0.0000000000000000000, -0.0000000000000000000, 1.000000000000000000 ) ) ;
#376 = CARTESIAN_POINT ( 'NONE',  ( 0.0000000000000000000, 0.0000000000000000000, -35.53832996693444100 ) ) ;
#377 = AXIS2_PLACEMENT_3D ( 'NONE', #376, #375, #374 ) ;
#378 = CIRCLE ( 'NONE', #377, 13.22050000000000100 ) ;
#379 = CARTESIAN_POINT ( 'NONE',  ( 0.0000000000000000000, 0.0000000000000000000, -0.4616700330655558200 ) ) ;
#380 = DIRECTION ( 'NONE',  ( 0.0000000000000000000, 1.000000000000000000, 0.0000000000000000000 ) ) ;
#381 = DIRECTION ( 'NONE',  ( -0.0000000000000000000, 1.610076630648218200E-016, -1.000000000000000000 ) ) ;
#382 = CARTESIAN_POINT ( 'NONE',  ( 0.0000000000000000000, 2.326828918379978100E-015, -36.00000000000004300 ) ) ;
#383 = CYLINDRICAL_SURFACE ( 'NONE', #384, 13.22050000000000300 ) ;
#384 = AXIS2_PLACEMENT_3D ( 'NONE', #382, #381, #380 ) ;
#385 = DIRECTION ( 'NONE',  ( 1.000000000000000000, 0.0000000000000000000, 0.0000000000000000000 ) ) ;
#386 = DIRECTION ( 'NONE',  ( -0.0000000000000000000, -0.0000000000000000000, 1.000000000000000000 ) ) ;
#387 = AXIS2_PLACEMENT_3D ( 'NONE', #379, #386, #385 ) ;
#388 = CIRCLE ( 'NONE', #387, 13.22049999999999900 ) ;
#389 = FACE_OUTER_BOUND ( 'NONE', #363, .T. ) ;
ENDSEC;
END-ISO-10303-21;
