ISO-10303-21;
HEADER;
FILE_DESCRIPTION (( 'STEP AP203' ),
    '1' );
FILE_NAME ('3D_R1655_26.9x2.6_17362130_17362550.STEP',
    '2024-08-05T08:44:14',
    ( '' ),
    ( '' ),
    'SwSTEP 2.0',
    'SolidWorks 2024',
    '' );
FILE_SCHEMA (( 'CONFIG_CONTROL_DESIGN' ));
ENDSEC;

DATA;
#1 = DIRECTION ( 'NONE',  ( 0.000000000000000000, 1.000000000000000000, 0.000000000000000000 ) ) ;
#2 = VERTEX_POINT ( 'NONE', #201 ) ;
#3 = EDGE_LOOP ( 'NONE', ( #60, #72, #37, #124 ) ) ;
#4 = DIRECTION ( 'NONE',  ( 1.000000000000000000, 0.000000000000000000, 2.431493749577826600E-16 ) ) ;
#5 = DIRECTION ( 'NONE',  ( -1.000000000000000000, 0.000000000000000000, 2.926707433950024016E-15 ) ) ;
#6 = CC_DESIGN_PERSON_AND_ORGANIZATION_ASSIGNMENT ( #246, #71, ( #63 ) ) ;
#7 = COORDINATED_UNIVERSAL_TIME_OFFSET ( 1, 0, .AHEAD. ) ;
#8 = DIRECTION ( 'NONE',  ( 0.000000000000000000, 1.000000000000000000, 0.000000000000000000 ) ) ;
#9 = APPLICATION_PROTOCOL_DEFINITION ( 'international standard', 'config_control_design', 1994, #130 ) ;
#10 = SHAPE_DEFINITION_REPRESENTATION ( #213, #139 ) ;
#11 = CARTESIAN_POINT ( 'NONE',  ( 0.000000000000000000, 0.000000000000000000, 0.000000000000000000 ) ) ;
#12 = CIRCLE ( 'NONE', #94, 70.45000000000000284 ) ;
#13 = AXIS2_PLACEMENT_3D ( 'NONE', #81, #84, #126 ) ;
#14 = PERSON_AND_ORGANIZATION ( #180, #240 ) ;
#15 = DIRECTION ( 'NONE',  ( 1.000000000000000000, 0.000000000000000000, 2.431493749577822163E-16 ) ) ;
#16 = ORIENTED_EDGE ( 'NONE', *, *, #148, .F. ) ;
#17 =( GEOMETRIC_REPRESENTATION_CONTEXT ( 3 ) GLOBAL_UNCERTAINTY_ASSIGNED_CONTEXT ( ( #249 ) ) GLOBAL_UNIT_ASSIGNED_CONTEXT ( ( #204, #22, #241 ) ) REPRESENTATION_CONTEXT ( 'NONE', 'WORKASPACE' ) );
#18 = ORIENTED_EDGE ( 'NONE', *, *, #148, .T. ) ;
#19 = EDGE_CURVE ( 'NONE', #74, #190, #40, .T. ) ;
#20 = DIRECTION ( 'NONE',  ( 0.000000000000000000, 0.000000000000000000, 1.000000000000000000 ) ) ;
#21 = PLANE ( 'NONE',  #127 ) ;
#22 =( NAMED_UNIT ( * ) PLANE_ANGLE_UNIT ( ) SI_UNIT ( $, .RADIAN. ) );
#23 = ADVANCED_FACE ( 'NONE', ( #195 ), #220, .T. ) ;
#24 = COORDINATED_UNIVERSAL_TIME_OFFSET ( 1, 0, .AHEAD. ) ;
#25 = DIRECTION ( 'NONE',  ( -1.000000000000000000, 0.000000000000000000, 2.926707433950024016E-15 ) ) ;
#26 = APPROVAL_STATUS ( 'not_yet_approved' ) ;
#27 = FACE_OUTER_BOUND ( 'NONE', #3, .T. ) ;
#28 = CARTESIAN_POINT ( 'NONE',  ( -57.00000000000000000, 0.000000000000000000, -1.047073013270991512E-14 ) ) ;
#29 = VERTEX_POINT ( 'NONE', #100 ) ;
#30 = LOCAL_TIME ( 10, 44, 14.00000000000000000, #138 ) ;
#31 = EDGE_CURVE ( 'NONE', #74, #160, #77, .T. ) ;
#32 = ORIENTED_EDGE ( 'NONE', *, *, #19, .T. ) ;
#33 = ORIENTED_EDGE ( 'NONE', *, *, #31, .F. ) ;
#34 = ORIENTED_EDGE ( 'NONE', *, *, #156, .F. ) ;
#35 = EDGE_LOOP ( 'NONE', ( #61, #200, #101, #194 ) ) ;
#36 = APPROVAL ( #26, 'UNSPECIFIED' ) ;
#37 = ORIENTED_EDGE ( 'NONE', *, *, #178, .F. ) ;
#38 = FACE_BOUND ( 'NONE', #175, .T. ) ;
#39 = TOROIDAL_SURFACE ( 'NONE', #117, 57.00000000000000000, 10.84999999999999609 ) ;
#40 = CIRCLE ( 'NONE', #129, 43.55000000000000426 ) ;
#41 = CIRCLE ( 'NONE', #212, 10.84999999999999787 ) ;
#42 = DIRECTION ( 'NONE',  ( 0.000000000000000000, 0.000000000000000000, 1.000000000000000000 ) ) ;
#43 = CARTESIAN_POINT ( 'NONE',  ( -1.668223237351513744E-13, 0.000000000000000000, -57.00000000000000000 ) ) ;
#44 = MANIFOLD_SOLID_BREP ( 'Wandung1', #199 ) ;
#45 = CC_DESIGN_DATE_AND_TIME_ASSIGNMENT ( #93, #49, ( #63 ) ) ;
#46 = DATE_AND_TIME ( #69, #99 ) ;
#47 = CARTESIAN_POINT ( 'NONE',  ( -1.702111079750350804E-13, 0.000000000000000000, -57.00000000000000000 ) ) ;
#48 = DATE_AND_TIME ( #191, #30 ) ;
#49 = DATE_TIME_ROLE ( 'classification_date' ) ;
#50 = EDGE_CURVE ( 'NONE', #232, #2, #113, .T. ) ;
#51 = EDGE_LOOP ( 'NONE', ( #33, #123 ) ) ;
#52 = LOCAL_TIME ( 10, 44, 14.00000000000000000, #86 ) ;
#53 = DESIGN_CONTEXT ( 'detailed design', #85, 'design' ) ;
#54 = AXIS2_PLACEMENT_3D ( 'NONE', #141, #75, #15 ) ;
#55 = TOROIDAL_SURFACE ( 'NONE', #203, 57.00000000000000000, 13.44999999999999751 ) ;
#56 = CARTESIAN_POINT ( 'NONE',  ( 0.000000000000000000, -1.647149944853189596E-15, 0.000000000000000000 ) ) ;
#57 = FACE_OUTER_BOUND ( 'NONE', #35, .T. ) ;
#58 = EDGE_CURVE ( 'NONE', #160, #121, #12, .T. ) ;
#59 = CARTESIAN_POINT ( 'NONE',  ( -70.45000000000000284, 0.000000000000000000, -1.374108922589208843E-14 ) ) ;
#60 = ORIENTED_EDGE ( 'NONE', *, *, #31, .T. ) ;
#61 = ORIENTED_EDGE ( 'NONE', *, *, #78, .F. ) ;
#62 = DIRECTION ( 'NONE',  ( 0.000000000000000000, 0.000000000000000000, 1.000000000000000000 ) ) ;
#63 = SECURITY_CLASSIFICATION ( '', '', #114 ) ;
#64 = LOCAL_TIME ( 10, 44, 14.00000000000000000, #67 ) ;
#65 = CIRCLE ( 'NONE', #184, 13.44999999999999751 ) ;
#66 = DIRECTION ( 'NONE',  ( 2.926707433950024016E-15, 0.000000000000000000, 1.000000000000000000 ) ) ;
#67 = COORDINATED_UNIVERSAL_TIME_OFFSET ( 1, 0, .AHEAD. ) ;
#68 = CARTESIAN_POINT ( 'NONE',  ( -2.095753229616628916E-13, 0.000000000000000000, -70.45000000000000284 ) ) ;
#69 = CALENDAR_DATE ( 2024, 5, 8 ) ;
#70 = DIRECTION ( 'NONE',  ( -1.000000000000000000, 0.000000000000000000, 2.926707433950024016E-15 ) ) ;
#71 = PERSON_AND_ORGANIZATION_ROLE ( 'classification_officer' ) ;
#72 = ORIENTED_EDGE ( 'NONE', *, *, #58, .T. ) ;
#73 = PERSON_AND_ORGANIZATION ( #180, #240 ) ;
#74 = VERTEX_POINT ( 'NONE', #214 ) ;
#75 = DIRECTION ( 'NONE',  ( -2.431493749577822656E-16, 0.000000000000000000, 1.000000000000000000 ) ) ;
#76 = PRODUCT_DEFINITION_FORMATION_WITH_SPECIFIED_SOURCE ( 'ANY', '', #251, .NOT_KNOWN. ) ;
#77 = CIRCLE ( 'NONE', #116, 13.44999999999999751 ) ;
#78 = EDGE_CURVE ( 'NONE', #29, #2, #218, .T. ) ;
#79 = DIRECTION ( 'NONE',  ( 1.000000000000000000, 0.000000000000000000, 2.431493749577827094E-16 ) ) ;
#80 = AXIS2_PLACEMENT_3D ( 'NONE', #185, #242, #131 ) ;
#81 = CARTESIAN_POINT ( 'NONE',  ( 0.000000000000000000, 0.000000000000000000, 0.000000000000000000 ) ) ;
#82 = CIRCLE ( 'NONE', #88, 13.44999999999999751 ) ;
#83 = CARTESIAN_POINT ( 'NONE',  ( -57.00000000000000000, 0.000000000000000000, -1.047073013270991512E-14 ) ) ;
#84 = DIRECTION ( 'NONE',  ( 0.000000000000000000, 1.000000000000000000, 0.000000000000000000 ) ) ;
#85 = APPLICATION_CONTEXT ( 'configuration controlled 3d designs of mechanical parts and assemblies' ) ;
#86 = COORDINATED_UNIVERSAL_TIME_OFFSET ( 1, 0, .AHEAD. ) ;
#87 = DIRECTION ( 'NONE',  ( 0.000000000000000000, 0.000000000000000000, 1.000000000000000000 ) ) ;
#88 = AXIS2_PLACEMENT_3D ( 'NONE', #28, #239, #151 ) ;
#89 = APPROVAL_STATUS ( 'not_yet_approved' ) ;
#90 = PRODUCT_DEFINITION ( 'UNKNOWN', '', #76, #53 ) ;
#91 = DIRECTION ( 'NONE',  ( 0.000000000000000000, 0.000000000000000000, 1.000000000000000000 ) ) ;
#92 = PERSON_AND_ORGANIZATION ( #180, #240 ) ;
#93 = DATE_AND_TIME ( #109, #210 ) ;
#94 = AXIS2_PLACEMENT_3D ( 'NONE', #236, #144, #217 ) ;
#95 = AXIS2_PLACEMENT_3D ( 'NONE', #111, #243, #186 ) ;
#96 = CC_DESIGN_PERSON_AND_ORGANIZATION_ASSIGNMENT ( #118, #226, ( #76 ) ) ;
#97 = ORIENTED_EDGE ( 'NONE', *, *, #143, .T. ) ;
#98 = EDGE_CURVE ( 'NONE', #121, #190, #189, .T. ) ;
#99 = LOCAL_TIME ( 10, 44, 14.00000000000000000, #24 ) ;
#100 = CARTESIAN_POINT ( 'NONE',  ( -1.985770993935091100E-13, 0.000000000000000000, -67.84999999999999432 ) ) ;
#101 = ORIENTED_EDGE ( 'NONE', *, *, #156, .T. ) ;
#102 = CC_DESIGN_APPROVAL ( #174, ( #63 ) ) ;
#103 = CARTESIAN_POINT ( 'NONE',  ( -57.00000000000000000, 0.000000000000000000, -1.047073013270991512E-14 ) ) ;
#104 = PERSON_AND_ORGANIZATION ( #180, #240 ) ;
#105 = APPROVAL_DATE_TIME ( #46, #36 ) ;
#106 = DIRECTION ( 'NONE',  ( 2.926707433950024016E-15, 0.000000000000000000, 1.000000000000000000 ) ) ;
#107 = ADVANCED_FACE ( 'NONE', ( #38, #233 ), #21, .T. ) ;
#108 = DIRECTION ( 'NONE',  ( 2.926707433950023622E-15, 0.000000000000000000, 1.000000000000000000 ) ) ;
#109 = CALENDAR_DATE ( 2024, 5, 8 ) ;
#110 = FACE_OUTER_BOUND ( 'NONE', #51, .T. ) ;
#111 = CARTESIAN_POINT ( 'NONE',  ( 0.000000000000000000, 0.000000000000000000, 0.000000000000000000 ) ) ;
#112 = CC_DESIGN_SECURITY_CLASSIFICATION ( #63, ( #76 ) ) ;
#113 = CIRCLE ( 'NONE', #54, 10.84999999999999787 ) ;
#114 = SECURITY_CLASSIFICATION_LEVEL ( 'unclassified' ) ;
#115 = AXIS2_PLACEMENT_3D ( 'NONE', #43, #5, #133 ) ;
#116 = AXIS2_PLACEMENT_3D ( 'NONE', #163, #235, #198 ) ;
#117 = AXIS2_PLACEMENT_3D ( 'NONE', #222, #208, #87 ) ;
#118 = PERSON_AND_ORGANIZATION ( #180, #240 ) ;
#119 = ORIENTED_EDGE ( 'NONE', *, *, #78, .T. ) ;
#120 = APPROVAL ( #155, 'UNSPECIFIED' ) ;
#121 = VERTEX_POINT ( 'NONE', #59 ) ;
#122 = ADVANCED_FACE ( 'NONE', ( #57 ), #39, .F. ) ;
#123 = ORIENTED_EDGE ( 'NONE', *, *, #207, .F. ) ;
#124 = ORIENTED_EDGE ( 'NONE', *, *, #19, .F. ) ;
#125 = ORIENTED_EDGE ( 'NONE', *, *, #143, .F. ) ;
#126 = DIRECTION ( 'NONE',  ( 0.000000000000000000, 0.000000000000000000, 1.000000000000000000 ) ) ;
#127 = AXIS2_PLACEMENT_3D ( 'NONE', #103, #179, #4 ) ;
#128 = AXIS2_PLACEMENT_3D ( 'NONE', #11, #8, #91 ) ;
#129 = AXIS2_PLACEMENT_3D ( 'NONE', #56, #182, #161 ) ;
#130 = APPLICATION_CONTEXT ( 'configuration controlled 3d designs of mechanical parts and assemblies' ) ;
#131 = DIRECTION ( 'NONE',  ( 1.000000000000000000, 0.000000000000000000, 2.431493749577822163E-16 ) ) ;
#132 = PERSON_AND_ORGANIZATION ( #180, #240 ) ;
#133 = DIRECTION ( 'NONE',  ( 2.926707433950023622E-15, 0.000000000000000000, 1.000000000000000000 ) ) ;
#134 = CARTESIAN_POINT ( 'NONE',  ( -46.15000000000000568, 0.000000000000000000, -1.122134365430165335E-14 ) ) ;
#135 = CIRCLE ( 'NONE', #115, 10.84999999999999787 ) ;
#136 = ORIENTED_EDGE ( 'NONE', *, *, #50, .F. ) ;
#137 = CC_DESIGN_PERSON_AND_ORGANIZATION_ASSIGNMENT ( #132, #172, ( #251 ) ) ;
#138 = COORDINATED_UNIVERSAL_TIME_OFFSET ( 1, 0, .AHEAD. ) ;
#139 = ADVANCED_BREP_SHAPE_REPRESENTATION ( '3D_R1655_26.9x2.6_17362130_17362550', ( #44, #95 ), #17 ) ;
#140 = ORIENTED_EDGE ( 'NONE', *, *, #98, .T. ) ;
#141 = CARTESIAN_POINT ( 'NONE',  ( -57.00000000000000000, 0.000000000000000000, -1.385951437259359111E-14 ) ) ;
#142 = ORIENTED_EDGE ( 'NONE', *, *, #98, .F. ) ;
#143 = EDGE_CURVE ( 'NONE', #29, #164, #41, .T. ) ;
#144 = DIRECTION ( 'NONE',  ( 0.000000000000000000, 1.000000000000000000, 0.000000000000000000 ) ) ;
#145 = PERSON_AND_ORGANIZATION_ROLE ( 'creator' ) ;
#146 = EDGE_LOOP ( 'NONE', ( #248, #97 ) ) ;
#147 = MECHANICAL_CONTEXT ( 'NONE', #130, 'mechanical' ) ;
#148 = EDGE_CURVE ( 'NONE', #2, #232, #171, .T. ) ;
#149 = FACE_BOUND ( 'NONE', #146, .T. ) ;
#150 = DATE_TIME_ROLE ( 'creation_date' ) ;
#151 = DIRECTION ( 'NONE',  ( 1.000000000000000000, 0.000000000000000000, 2.431493749577827094E-16 ) ) ;
#152 = DATE_AND_TIME ( #244, #64 ) ;
#153 = APPLICATION_PROTOCOL_DEFINITION ( 'international standard', 'config_control_design', 1994, #85 ) ;
#154 = CIRCLE ( 'NONE', #245, 46.15000000000000568 ) ;
#155 = APPROVAL_STATUS ( 'not_yet_approved' ) ;
#156 = EDGE_CURVE ( 'NONE', #164, #232, #154, .T. ) ;
#157 = ORIENTED_EDGE ( 'NONE', *, *, #58, .F. ) ;
#158 = CC_DESIGN_APPROVAL ( #36, ( #90 ) ) ;
#159 = CARTESIAN_POINT ( 'NONE',  ( 0.000000000000000000, 0.000000000000000000, 0.000000000000000000 ) ) ;
#160 = VERTEX_POINT ( 'NONE', #68 ) ;
#161 = DIRECTION ( 'NONE',  ( 0.000000000000000000, 0.000000000000000000, 1.000000000000000000 ) ) ;
#162 = CC_DESIGN_PERSON_AND_ORGANIZATION_ASSIGNMENT ( #209, #145, ( #90 ) ) ;
#163 = CARTESIAN_POINT ( 'NONE',  ( -1.702111079750350804E-13, 0.000000000000000000, -57.00000000000000000 ) ) ;
#164 = VERTEX_POINT ( 'NONE', #167 ) ;
#165 = CARTESIAN_POINT ( 'NONE',  ( -43.55000000000000426, 0.000000000000000000, -7.200371039527737081E-15 ) ) ;
#166 = CALENDAR_DATE ( 2024, 5, 8 ) ;
#167 = CARTESIAN_POINT ( 'NONE',  ( -1.350675480767936136E-13, 0.000000000000000000, -46.15000000000000568 ) ) ;
#168 = APPROVAL_PERSON_ORGANIZATION ( #92, #174, #170 ) ;
#169 = CARTESIAN_POINT ( 'NONE',  ( 0.000000000000000000, 0.000000000000000000, 0.000000000000000000 ) ) ;
#170 = APPROVAL_ROLE ( '' ) ;
#171 = CIRCLE ( 'NONE', #80, 10.84999999999999787 ) ;
#172 = PERSON_AND_ORGANIZATION_ROLE ( 'design_owner' ) ;
#173 = TOROIDAL_SURFACE ( 'NONE', #128, 57.00000000000000000, 10.84999999999999609 ) ;
#174 = APPROVAL ( #89, 'UNSPECIFIED' ) ;
#175 = EDGE_LOOP ( 'NONE', ( #136, #16 ) ) ;
#176 = DIRECTION ( 'NONE',  ( -2.431493749577822656E-16, 0.000000000000000000, 1.000000000000000000 ) ) ;
#177 = CC_DESIGN_APPROVAL ( #120, ( #76 ) ) ;
#178 = EDGE_CURVE ( 'NONE', #190, #121, #82, .T. ) ;
#179 = DIRECTION ( 'NONE',  ( -2.431493749577826600E-16, 0.000000000000000000, 1.000000000000000000 ) ) ;
#180 = PERSON ( 'UNSPECIFIED', 'UNSPECIFIED', 'UNSPECIFIED', ('UNSPECIFIED'), ('UNSPECIFIED'), ('UNSPECIFIED') ) ;
#181 = CARTESIAN_POINT ( 'NONE',  ( -1.668223237351513744E-13, 0.000000000000000000, -57.00000000000000000 ) ) ;
#182 = DIRECTION ( 'NONE',  ( 0.000000000000000000, 1.000000000000000000, 0.000000000000000000 ) ) ;
#183 = APPROVAL_ROLE ( '' ) ;
#184 = AXIS2_PLACEMENT_3D ( 'NONE', #47, #188, #66 ) ;
#185 = CARTESIAN_POINT ( 'NONE',  ( -57.00000000000000000, 0.000000000000000000, -1.385951437259359111E-14 ) ) ;
#186 = DIRECTION ( 'NONE',  ( 1.000000000000000000, 0.000000000000000000, 0.000000000000000000 ) ) ;
#187 = CARTESIAN_POINT ( 'NONE',  ( -1.702111079750350804E-13, 0.000000000000000000, -57.00000000000000000 ) ) ;
#188 = DIRECTION ( 'NONE',  ( -1.000000000000000000, 0.000000000000000000, 2.926707433950024016E-15 ) ) ;
#189 = CIRCLE ( 'NONE', #230, 13.44999999999999751 ) ;
#190 = VERTEX_POINT ( 'NONE', #165 ) ;
#191 = CALENDAR_DATE ( 2024, 5, 8 ) ;
#192 = APPROVAL_DATE_TIME ( #48, #120 ) ;
#193 = PRODUCT_RELATED_PRODUCT_CATEGORY ( 'detail', '', ( #251 ) ) ;
#194 = ORIENTED_EDGE ( 'NONE', *, *, #50, .T. ) ;
#195 = FACE_OUTER_BOUND ( 'NONE', #211, .T. ) ;
#196 = EDGE_LOOP ( 'NONE', ( #125, #119, #18, #34 ) ) ;
#197 = ADVANCED_FACE ( 'NONE', ( #149, #110 ), #205, .F. ) ;
#198 = DIRECTION ( 'NONE',  ( 2.926707433950024016E-15, 0.000000000000000000, 1.000000000000000000 ) ) ;
#199 = CLOSED_SHELL ( 'NONE', ( #223, #231, #23, #107, #197, #122 ) ) ;
#200 = ORIENTED_EDGE ( 'NONE', *, *, #215, .F. ) ;
#201 = CARTESIAN_POINT ( 'NONE',  ( -67.84999999999999432, 0.000000000000000000, -1.649768509088552887E-14 ) ) ;
#202 = AXIS2_PLACEMENT_3D ( 'NONE', #159, #1, #20 ) ;
#203 = AXIS2_PLACEMENT_3D ( 'NONE', #169, #221, #42 ) ;
#204 =( LENGTH_UNIT ( ) NAMED_UNIT ( * ) SI_UNIT ( .MILLI., .METRE. ) );
#205 = PLANE ( 'NONE',  #228 ) ;
#206 = FACE_OUTER_BOUND ( 'NONE', #196, .T. ) ;
#207 = EDGE_CURVE ( 'NONE', #160, #74, #65, .T. ) ;
#208 = DIRECTION ( 'NONE',  ( 0.000000000000000000, 1.000000000000000000, 0.000000000000000000 ) ) ;
#209 = PERSON_AND_ORGANIZATION ( #180, #240 ) ;
#210 = LOCAL_TIME ( 10, 44, 14.00000000000000000, #7 ) ;
#211 = EDGE_LOOP ( 'NONE', ( #157, #234, #32, #142 ) ) ;
#212 = AXIS2_PLACEMENT_3D ( 'NONE', #181, #70, #108 ) ;
#213 = PRODUCT_DEFINITION_SHAPE ( 'NONE', 'NONE',  #90 ) ;
#214 = CARTESIAN_POINT ( 'NONE',  ( -1.308468929884072693E-13, 0.000000000000000000, -43.55000000000000426 ) ) ;
#215 = EDGE_CURVE ( 'NONE', #164, #29, #135, .T. ) ;
#216 = EDGE_LOOP ( 'NONE', ( #252, #140 ) ) ;
#217 = DIRECTION ( 'NONE',  ( 0.000000000000000000, 0.000000000000000000, 1.000000000000000000 ) ) ;
#218 = CIRCLE ( 'NONE', #202, 67.84999999999999432 ) ;
#219 = APPROVAL_PERSON_ORGANIZATION ( #73, #120, #227 ) ;
#220 = TOROIDAL_SURFACE ( 'NONE', #13, 57.00000000000000000, 13.44999999999999751 ) ;
#221 = DIRECTION ( 'NONE',  ( 0.000000000000000000, 1.000000000000000000, 0.000000000000000000 ) ) ;
#222 = CARTESIAN_POINT ( 'NONE',  ( 0.000000000000000000, 0.000000000000000000, 0.000000000000000000 ) ) ;
#223 = ADVANCED_FACE ( 'NONE', ( #206 ), #173, .F. ) ;
#224 = APPROVAL_DATE_TIME ( #152, #174 ) ;
#225 = CARTESIAN_POINT ( 'NONE',  ( 0.000000000000000000, -1.328741777074877777E-15, 0.000000000000000000 ) ) ;
#226 = PERSON_AND_ORGANIZATION_ROLE ( 'design_supplier' ) ;
#227 = APPROVAL_ROLE ( '' ) ;
#228 = AXIS2_PLACEMENT_3D ( 'NONE', #187, #25, #106 ) ;
#229 = CC_DESIGN_PERSON_AND_ORGANIZATION_ASSIGNMENT ( #14, #250, ( #76 ) ) ;
#230 = AXIS2_PLACEMENT_3D ( 'NONE', #83, #176, #79 ) ;
#231 = ADVANCED_FACE ( 'NONE', ( #27 ), #55, .T. ) ;
#232 = VERTEX_POINT ( 'NONE', #134 ) ;
#233 = FACE_OUTER_BOUND ( 'NONE', #216, .T. ) ;
#234 = ORIENTED_EDGE ( 'NONE', *, *, #207, .T. ) ;
#235 = DIRECTION ( 'NONE',  ( -1.000000000000000000, 0.000000000000000000, 2.926707433950024016E-15 ) ) ;
#236 = CARTESIAN_POINT ( 'NONE',  ( 0.000000000000000000, 0.000000000000000000, 0.000000000000000000 ) ) ;
#237 = DIRECTION ( 'NONE',  ( 0.000000000000000000, 1.000000000000000000, 0.000000000000000000 ) ) ;
#238 = DATE_AND_TIME ( #166, #52 ) ;
#239 = DIRECTION ( 'NONE',  ( -2.431493749577822656E-16, 0.000000000000000000, 1.000000000000000000 ) ) ;
#240 = ORGANIZATION ( 'UNSPECIFIED', 'UNSPECIFIED', '' ) ;
#241 =( NAMED_UNIT ( * ) SI_UNIT ( $, .STERADIAN. ) SOLID_ANGLE_UNIT ( ) );
#242 = DIRECTION ( 'NONE',  ( -2.431493749577822656E-16, 0.000000000000000000, 1.000000000000000000 ) ) ;
#243 = DIRECTION ( 'NONE',  ( 0.000000000000000000, 0.000000000000000000, 1.000000000000000000 ) ) ;
#244 = CALENDAR_DATE ( 2024, 5, 8 ) ;
#245 = AXIS2_PLACEMENT_3D ( 'NONE', #225, #237, #62 ) ;
#246 = PERSON_AND_ORGANIZATION ( #180, #240 ) ;
#247 = CC_DESIGN_DATE_AND_TIME_ASSIGNMENT ( #238, #150, ( #90 ) ) ;
#248 = ORIENTED_EDGE ( 'NONE', *, *, #215, .T. ) ;
#249 = UNCERTAINTY_MEASURE_WITH_UNIT (LENGTH_MEASURE( 1.000000000000000082E-05 ), #204, 'distance_accuracy_value', 'NONE');
#250 = PERSON_AND_ORGANIZATION_ROLE ( 'creator' ) ;
#251 = PRODUCT ( '3D_R1655_26.9x2.6_17362130_17362550', '3D_R1655_26.9x2.6_17362130_17362550', '', ( #147 ) ) ;
#252 = ORIENTED_EDGE ( 'NONE', *, *, #178, .T. ) ;
#253 = APPROVAL_PERSON_ORGANIZATION ( #104, #36, #183 ) ;
ENDSEC;
END-ISO-10303-21;
