ISO-10303-21;
HEADER;
FILE_DESCRIPTION (( 'STEP AP203' ),
    '1' );
FILE_NAME ('3D_GR1184_33.7x2_183802872.SLDPRT.STEP',
    '2024-09-23T06:25:02',
    ( '' ),
    ( '' ),
    'SwSTEP 2.0',
    'SolidWorks 2024',
    '' );
FILE_SCHEMA (( 'CONFIG_CONTROL_DESIGN' ));
ENDSEC;

DATA;
#1 = EDGE_LOOP ( 'NONE', ( #69, #321 ) ) ;
#2 = AXIS2_PLACEMENT_3D ( 'NONE', #303, #22, #81 ) ;
#3 = AXIS2_PLACEMENT_3D ( 'NONE', #35, #68, #216 ) ;
#4 = CC_DESIGN_PERSON_AND_ORGANIZATION_ASSIGNMENT ( #198, #286, ( #326 ) ) ;
#5 = CARTESIAN_POINT ( 'NONE',  ( 0.000000000000000000, 0.000000000000000000, 0.000000000000000000 ) ) ;
#6 = VERTEX_POINT ( 'NONE', #258 ) ;
#7 = EDGE_CURVE ( 'NONE', #6, #99, #292, .T. ) ;
#8 = PERSON_AND_ORGANIZATION ( #363, #311 ) ;
#9 = DIRECTION ( 'NONE',  ( -1.000000000000000000, -0.000000000000000000, -0.000000000000000000 ) ) ;
#10 = AXIS2_PLACEMENT_3D ( 'NONE', #229, #351, #43 ) ;
#11 = AXIS2_PLACEMENT_3D ( 'NONE', #62, #305, #312 ) ;
#12 = COORDINATED_UNIVERSAL_TIME_OFFSET ( 1, 0, .AHEAD. ) ;
#13 = CARTESIAN_POINT ( 'NONE',  ( -1.761202001004567697, 2.002297516605924642E-15, -16.35000000000001563 ) ) ;
#14 = APPROVAL_STATUS ( 'not_yet_approved' ) ;
#15 = EDGE_CURVE ( 'NONE', #121, #34, #38, .T. ) ;
#16 = EDGE_LOOP ( 'NONE', ( #107, #249 ) ) ;
#17 = ORIENTED_EDGE ( 'NONE', *, *, #339, .F. ) ;
#18 = VECTOR ( 'NONE', #220, 1000.000000000000000 ) ;
#19 = DIRECTION ( 'NONE',  ( 0.000000000000000000, 0.000000000000000000, 1.000000000000000000 ) ) ;
#20 = FACE_OUTER_BOUND ( 'NONE', #387, .T. ) ;
#21 = ADVANCED_FACE ( 'NONE', ( #319 ), #50, .T. ) ;
#22 = DIRECTION ( 'NONE',  ( -1.000000000000000000, 0.000000000000000000, -0.000000000000000000 ) ) ;
#23 = CARTESIAN_POINT ( 'NONE',  ( -1.761202001004574802, 0.000000000000000000, 0.000000000000000000 ) ) ;
#24 = CLOSED_SHELL ( 'NONE', ( #309, #274, #93, #203, #21, #354, #360, #300, #129, #214, #397, #151 ) ) ;
#25 = LOCAL_TIME ( 8, 25, 2.000000000000000000, #138 ) ;
#26 = DIRECTION ( 'NONE',  ( -1.000000000000000000, -0.000000000000000000, -0.000000000000000000 ) ) ;
#27 = EDGE_CURVE ( 'NONE', #318, #195, #79, .T. ) ;
#28 = SPHERICAL_SURFACE ( 'NONE', #11, 26.66020833333330842 ) ;
#29 = UNCERTAINTY_MEASURE_WITH_UNIT (LENGTH_MEASURE( 1.000000000000000082E-05 ), #185, 'distance_accuracy_value', 'NONE');
#30 = ORIENTED_EDGE ( 'NONE', *, *, #27, .T. ) ;
#31 = DIRECTION ( 'NONE',  ( -0.7071067811865474617, 0.000000000000000000, 0.7071067811865474617 ) ) ;
#32 = EDGE_LOOP ( 'NONE', ( #383, #188, #201, #251 ) ) ;
#33 = AXIS2_PLACEMENT_3D ( 'NONE', #13, #139, #262 ) ;
#34 = VERTEX_POINT ( 'NONE', #227 ) ;
#35 = CARTESIAN_POINT ( 'NONE',  ( -2.151516368423367354, 0.000000000000000000, 0.000000000000000000 ) ) ;
#36 = ORIENTED_EDGE ( 'NONE', *, *, #70, .T. ) ;
#37 = DIRECTION ( 'NONE',  ( -1.000000000000000000, -0.000000000000000000, -0.000000000000000000 ) ) ;
#38 = CIRCLE ( 'NONE', #277, 16.66249751132844992 ) ;
#39 = CC_DESIGN_APPROVAL ( #357, ( #326 ) ) ;
#40 = SECURITY_CLASSIFICATION_LEVEL ( 'unclassified' ) ;
#41 = ORIENTED_EDGE ( 'NONE', *, *, #196, .T. ) ;
#42 = EDGE_CURVE ( 'NONE', #126, #356, #348, .T. ) ;
#43 = DIRECTION ( 'NONE',  ( 0.000000000000000000, 0.000000000000000000, 1.000000000000000000 ) ) ;
#44 = APPROVAL_DATE_TIME ( #317, #357 ) ;
#45 = EDGE_LOOP ( 'NONE', ( #65, #76, #375, #225, #323 ) ) ;
#46 = AXIS2_PLACEMENT_3D ( 'NONE', #298, #330, #19 ) ;
#47 = PERSON_AND_ORGANIZATION ( #363, #311 ) ;
#48 = VERTEX_POINT ( 'NONE', #192 ) ;
#49 = APPROVAL_ROLE ( '' ) ;
#50 = SPHERICAL_SURFACE ( 'NONE', #173, 26.66020833333330842 ) ;
#51 = CYLINDRICAL_SURFACE ( 'NONE', #284, 16.85000000000001918 ) ;
#52 = CC_DESIGN_PERSON_AND_ORGANIZATION_ASSIGNMENT ( #166, #325, ( #219 ) ) ;
#53 = AXIS2_PLACEMENT_3D ( 'NONE', #167, #378, #231 ) ;
#54 = AXIS2_PLACEMENT_3D ( 'NONE', #5, #257, #77 ) ;
#55 = LINE ( 'NONE', #366, #184 ) ;
#56 = EDGE_CURVE ( 'NONE', #126, #182, #104, .T. ) ;
#57 = FACE_OUTER_BOUND ( 'NONE', #346, .T. ) ;
#58 = DIRECTION ( 'NONE',  ( -1.000000000000000000, -0.000000000000000000, -0.000000000000000000 ) ) ;
#59 = AXIS2_PLACEMENT_3D ( 'NONE', #127, #281, #335 ) ;
#60 = PLANE ( 'NONE',  #2 ) ;
#61 = CC_DESIGN_APPROVAL ( #336, ( #154 ) ) ;
#62 = CARTESIAN_POINT ( 'NONE',  ( 18.66020833333329065, 0.000000000000000000, 0.000000000000000000 ) ) ;
#63 = ORIENTED_EDGE ( 'NONE', *, *, #165, .T. ) ;
#64 = CARTESIAN_POINT ( 'NONE',  ( -1.761202001004567697, 0.000000000000000000, 0.000000000000000000 ) ) ;
#65 = ORIENTED_EDGE ( 'NONE', *, *, #112, .T. ) ;
#66 = AXIS2_PLACEMENT_3D ( 'NONE', #205, #26, #111 ) ;
#67 = LINE ( 'NONE', #92, #174 ) ;
#68 = DIRECTION ( 'NONE',  ( -1.000000000000000000, -0.000000000000000000, -0.000000000000000000 ) ) ;
#69 = ORIENTED_EDGE ( 'NONE', *, *, #388, .F. ) ;
#70 = EDGE_CURVE ( 'NONE', #195, #318, #316, .T. ) ;
#71 = MECHANICAL_CONTEXT ( 'NONE', #197, 'mechanical' ) ;
#72 = DIRECTION ( 'NONE',  ( -1.000000000000000000, -0.000000000000000000, -0.000000000000000000 ) ) ;
#73 = CONICAL_SURFACE ( 'NONE', #120, 13.85000000000002274, 0.7853981633974482790 ) ;
#74 = ORIENTED_EDGE ( 'NONE', *, *, #315, .F. ) ;
#75 = DATE_TIME_ROLE ( 'classification_date' ) ;
#76 = ORIENTED_EDGE ( 'NONE', *, *, #82, .T. ) ;
#77 = DIRECTION ( 'NONE',  ( 1.000000000000000000, 0.000000000000000000, 0.000000000000000000 ) ) ;
#78 = ORIENTED_EDGE ( 'NONE', *, *, #315, .T. ) ;
#79 = CIRCLE ( 'NONE', #236, 14.85000000000002274 ) ;
#80 = CARTESIAN_POINT ( 'NONE',  ( 18.66020833333329065, 0.000000000000000000, 0.000000000000000000 ) ) ;
#81 = DIRECTION ( 'NONE',  ( -0.000000000000000000, 0.000000000000000000, 1.000000000000000000 ) ) ;
#82 = EDGE_CURVE ( 'NONE', #327, #221, #152, .T. ) ;
#83 = DIRECTION ( 'NONE',  ( 1.000000000000000000, 0.000000000000000000, 0.000000000000000000 ) ) ;
#84 = CIRCLE ( 'NONE', #299, 13.85000000000002274 ) ;
#85 = DIRECTION ( 'NONE',  ( 0.000000000000000000, 0.000000000000000000, 1.000000000000000000 ) ) ;
#86 = DIRECTION ( 'NONE',  ( 0.000000000000000000, 0.000000000000000000, 1.000000000000000000 ) ) ;
#87 = EDGE_CURVE ( 'NONE', #131, #121, #379, .T. ) ;
#88 = DIRECTION ( 'NONE',  ( -1.000000000000000000, 0.000000000000000000, -0.000000000000000000 ) ) ;
#89 = VECTOR ( 'NONE', #72, 1000.000000000000000 ) ;
#90 =( NAMED_UNIT ( * ) SI_UNIT ( $, .STERADIAN. ) SOLID_ANGLE_UNIT ( ) );
#91 = FACE_OUTER_BOUND ( 'NONE', #110, .T. ) ;
#92 = CARTESIAN_POINT ( 'NONE',  ( 7.999999999999979572, 1.696135816819086969E-15, -13.85000000000002274 ) ) ;
#93 = ADVANCED_FACE ( 'NONE', ( #176 ), #51, .T. ) ;
#94 = CARTESIAN_POINT ( 'NONE',  ( 6.999999999999978684, 1.818600496733822709E-15, -14.85000000000002451 ) ) ;
#95 = EDGE_LOOP ( 'NONE', ( #296, #371, #340, #288 ) ) ;
#96 = APPROVAL_PERSON_ORGANIZATION ( #289, #357, #106 ) ;
#97 = CC_DESIGN_DATE_AND_TIME_ASSIGNMENT ( #382, #102, ( #326 ) ) ;
#98 = CARTESIAN_POINT ( 'NONE',  ( -154.8395502972293230, 2.063529856563292216E-15, -16.85000000000001918 ) ) ;
#99 = VERTEX_POINT ( 'NONE', #393 ) ;
#100 = EDGE_CURVE ( 'NONE', #99, #6, #333, .T. ) ;
#101 = EDGE_LOOP ( 'NONE', ( #124, #133, #377, #290 ) ) ;
#102 = DATE_TIME_ROLE ( 'creation_date' ) ;
#103 = CARTESIAN_POINT ( 'NONE',  ( -154.8395502972293230, 0.000000000000000000, 16.85000000000001918 ) ) ;
#104 = CIRCLE ( 'NONE', #10, 16.85000000000001918 ) ;
#105 = CONICAL_SURFACE ( 'NONE', #390, 13.85000000000002274, 0.7853981633974482790 ) ;
#106 = APPROVAL_ROLE ( '' ) ;
#107 = ORIENTED_EDGE ( 'NONE', *, *, #7, .T. ) ;
#108 = PERSON_AND_ORGANIZATION_ROLE ( 'classification_officer' ) ;
#109 = CARTESIAN_POINT ( 'NONE',  ( -2.151516368423367354, 0.000000000000000000, 0.000000000000000000 ) ) ;
#110 = EDGE_LOOP ( 'NONE', ( #385, #260, #155, #74 ) ) ;
#111 = DIRECTION ( 'NONE',  ( 0.000000000000000000, 0.000000000000000000, 1.000000000000000000 ) ) ;
#112 = EDGE_CURVE ( 'NONE', #356, #327, #136, .T. ) ;
#113 = CARTESIAN_POINT ( 'NONE',  ( 18.66020833333329065, 0.000000000000000000, 0.000000000000000000 ) ) ;
#114 = CARTESIAN_POINT ( 'NONE',  ( 0.000000000000000000, 2.063529856563292216E-15, -16.85000000000001918 ) ) ;
#115 = AXIS2_PLACEMENT_3D ( 'NONE', #177, #88, #212 ) ;
#116 = DIRECTION ( 'NONE',  ( 0.000000000000000000, 0.000000000000000000, 1.000000000000000000 ) ) ;
#117 = CARTESIAN_POINT ( 'NONE',  ( 6.999999999999978684, 0.000000000000000000, 14.85000000000002274 ) ) ;
#118 = DIRECTION ( 'NONE',  ( 0.000000000000000000, 0.000000000000000000, 1.000000000000000000 ) ) ;
#119 = MANIFOLD_SOLID_BREP ( 'Rotation1', #24 ) ;
#120 = AXIS2_PLACEMENT_3D ( 'NONE', #367, #37, #403 ) ;
#121 = VERTEX_POINT ( 'NONE', #365 ) ;
#122 = EDGE_CURVE ( 'NONE', #34, #402, #178, .T. ) ;
#123 = DIRECTION ( 'NONE',  ( 0.000000000000000000, 0.000000000000000000, 1.000000000000000000 ) ) ;
#124 = ORIENTED_EDGE ( 'NONE', *, *, #196, .F. ) ;
#125 = DIRECTION ( 'NONE',  ( -1.000000000000000000, -0.000000000000000000, -0.000000000000000000 ) ) ;
#126 = VERTEX_POINT ( 'NONE', #331 ) ;
#127 = CARTESIAN_POINT ( 'NONE',  ( -154.8395502972293230, 0.000000000000000000, 0.000000000000000000 ) ) ;
#128 = EDGE_LOOP ( 'NONE', ( #373, #306, #78, #398 ) ) ;
#129 = ADVANCED_FACE ( 'NONE', ( #20, #172 ), #145, .F. ) ;
#130 = AXIS2_PLACEMENT_3D ( 'NONE', #164, #9, #135 ) ;
#131 = VERTEX_POINT ( 'NONE', #180 ) ;
#132 = APPROVAL_DATE_TIME ( #140, #283 ) ;
#133 = ORIENTED_EDGE ( 'NONE', *, *, #87, .T. ) ;
#134 = CALENDAR_DATE ( 2024, 23, 9 ) ;
#135 = DIRECTION ( 'NONE',  ( 0.000000000000000000, 0.000000000000000000, 1.000000000000000000 ) ) ;
#136 = CIRCLE ( 'NONE', #259, 16.85000000000001918 ) ;
#137 = EDGE_CURVE ( 'NONE', #276, #48, #84, .T. ) ;
#138 = COORDINATED_UNIVERSAL_TIME_OFFSET ( 1, 0, .AHEAD. ) ;
#139 = DIRECTION ( 'NONE',  ( -0.000000000000000000, 1.000000000000000000, 1.224646799147353207E-16 ) ) ;
#140 = DATE_AND_TIME ( #347, #208 ) ;
#141 = DIRECTION ( 'NONE',  ( -1.000000000000000000, -0.000000000000000000, -0.000000000000000000 ) ) ;
#142 = DIRECTION ( 'NONE',  ( -0.000000000000000000, 0.000000000000000000, -1.000000000000000000 ) ) ;
#143 = EDGE_CURVE ( 'NONE', #318, #99, #55, .T. ) ;
#144 = DIRECTION ( 'NONE',  ( -1.000000000000000000, -0.000000000000000000, -0.000000000000000000 ) ) ;
#145 = PLANE ( 'NONE',  #115 ) ;
#146 = CARTESIAN_POINT ( 'NONE',  ( -2.151516368423367354, 0.000000000000000000, 0.000000000000000000 ) ) ;
#147 = APPROVAL_PERSON_ORGANIZATION ( #8, #336, #255 ) ;
#148 = DIRECTION ( 'NONE',  ( 0.000000000000000000, 0.000000000000000000, 1.000000000000000000 ) ) ;
#149 = DIRECTION ( 'NONE',  ( -1.000000000000000000, -0.000000000000000000, -0.000000000000000000 ) ) ;
#150 = CARTESIAN_POINT ( 'NONE',  ( 7.999999999999979572, 0.000000000000000000, 0.000000000000000000 ) ) ;
#151 = ADVANCED_FACE ( 'NONE', ( #332 ), #60, .F. ) ;
#152 = CIRCLE ( 'NONE', #33, 0.5000000000000004441 ) ;
#153 = DIRECTION ( 'NONE',  ( 0.000000000000000000, 0.000000000000000000, 1.000000000000000000 ) ) ;
#154 = PRODUCT_DEFINITION_FORMATION_WITH_SPECIFIED_SOURCE ( 'ANY', '', #219, .NOT_KNOWN. ) ;
#155 = ORIENTED_EDGE ( 'NONE', *, *, #70, .F. ) ;
#156 = PRODUCT_DEFINITION_SHAPE ( 'NONE', 'NONE',  #326 ) ;
#157 = FACE_OUTER_BOUND ( 'NONE', #32, .T. ) ;
#158 = DIRECTION ( 'NONE',  ( -1.000000000000000000, -0.000000000000000000, -0.000000000000000000 ) ) ;
#159 = ORIENTED_EDGE ( 'NONE', *, *, #228, .T. ) ;
#160 = AXIS2_PLACEMENT_3D ( 'NONE', #211, #364, #83 ) ;
#161 = COORDINATED_UNIVERSAL_TIME_OFFSET ( 1, 0, .AHEAD. ) ;
#162 = ORIENTED_EDGE ( 'NONE', *, *, #270, .T. ) ;
#163 = PRODUCT_RELATED_PRODUCT_CATEGORY ( 'detail', '', ( #219 ) ) ;
#164 = CARTESIAN_POINT ( 'NONE',  ( 6.999999999999978684, 0.000000000000000000, 0.000000000000000000 ) ) ;
#165 = EDGE_CURVE ( 'NONE', #327, #356, #343, .T. ) ;
#166 = PERSON_AND_ORGANIZATION ( #363, #311 ) ;
#167 = CARTESIAN_POINT ( 'NONE',  ( -2.775557561562891351E-14, 0.000000000000000000, 0.000000000000000000 ) ) ;
#168 = AXIS2_PLACEMENT_3D ( 'NONE', #244, #58, #86 ) ;
#169 = APPLICATION_PROTOCOL_DEFINITION ( 'international standard', 'config_control_design', 1994, #287 ) ;
#170 = CARTESIAN_POINT ( 'NONE',  ( -2.151516368423367354, 0.000000000000000000, 0.000000000000000000 ) ) ;
#171 = ORIENTED_EDGE ( 'NONE', *, *, #245, .T. ) ;
#172 = FACE_BOUND ( 'NONE', #16, .T. ) ;
#173 = AXIS2_PLACEMENT_3D ( 'NONE', #80, #142, #265 ) ;
#174 = VECTOR ( 'NONE', #396, 1000.000000000000114 ) ;
#175 = DIRECTION ( 'NONE',  ( 0.000000000000000000, 1.000000000000000000, 1.224646799147353207E-16 ) ) ;
#176 = FACE_OUTER_BOUND ( 'NONE', #95, .T. ) ;
#177 = CARTESIAN_POINT ( 'NONE',  ( -9.264019234000653204E-15, 14.85000000000001918, 0.000000000000000000 ) ) ;
#178 = CIRCLE ( 'NONE', #160, 26.66020833333330842 ) ;
#179 = LOCAL_TIME ( 8, 25, 2.000000000000000000, #12 ) ;
#180 = CARTESIAN_POINT ( 'NONE',  ( -2.151516368423365577, -16.66249751132844992, -2.040567424304912188E-15 ) ) ;
#181 = DIRECTION ( 'NONE',  ( -1.000000000000000000, -0.000000000000000000, -0.000000000000000000 ) ) ;
#182 = VERTEX_POINT ( 'NONE', #114 ) ;
#183 = DIRECTION ( 'NONE',  ( -1.000000000000000000, -0.000000000000000000, -0.000000000000000000 ) ) ;
#184 = VECTOR ( 'NONE', #269, 1000.000000000000000 ) ;
#185 =( LENGTH_UNIT ( ) NAMED_UNIT ( * ) SI_UNIT ( .MILLI., .METRE. ) );
#186 = ORIENTED_EDGE ( 'NONE', *, *, #245, .F. ) ;
#187 = FACE_OUTER_BOUND ( 'NONE', #254, .T. ) ;
#188 = ORIENTED_EDGE ( 'NONE', *, *, #339, .T. ) ;
#189 =( NAMED_UNIT ( * ) PLANE_ANGLE_UNIT ( ) SI_UNIT ( $, .RADIAN. ) );
#190 = APPLICATION_PROTOCOL_DEFINITION ( 'international standard', 'config_control_design', 1994, #197 ) ;
#191 = CIRCLE ( 'NONE', #389, 0.5000000000000004441 ) ;
#192 = CARTESIAN_POINT ( 'NONE',  ( 7.999999999999979572, 0.000000000000000000, 13.85000000000002274 ) ) ;
#193 = LOCAL_TIME ( 8, 25, 2.000000000000000000, #232 ) ;
#194 = APPROVAL_DATE_TIME ( #295, #336 ) ;
#195 = VERTEX_POINT ( 'NONE', #117 ) ;
#196 = EDGE_CURVE ( 'NONE', #131, #402, #235, .T. ) ;
#197 = APPLICATION_CONTEXT ( 'configuration controlled 3d designs of mechanical parts and assemblies' ) ;
#198 = PERSON_AND_ORGANIZATION ( #363, #311 ) ;
#199 = ORIENTED_EDGE ( 'NONE', *, *, #143, .T. ) ;
#200 = DATE_AND_TIME ( #355, #193 ) ;
#201 = ORIENTED_EDGE ( 'NONE', *, *, #42, .T. ) ;
#202 = VECTOR ( 'NONE', #301, 1000.000000000000000 ) ;
#203 = ADVANCED_FACE ( 'NONE', ( #395 ), #241, .T. ) ;
#204 = ORIENTED_EDGE ( 'NONE', *, *, #210, .T. ) ;
#205 = CARTESIAN_POINT ( 'NONE',  ( -1.761202001004567697, 0.000000000000000000, 0.000000000000000000 ) ) ;
#206 = CARTESIAN_POINT ( 'NONE',  ( -154.8395502972293230, 0.000000000000000000, 14.85000000000002096 ) ) ;
#207 = CIRCLE ( 'NONE', #213, 16.66249751132844992 ) ;
#208 = LOCAL_TIME ( 8, 25, 2.000000000000000000, #226 ) ;
#209 = CARTESIAN_POINT ( 'NONE',  ( -1.761202001004574802, 0.000000000000000000, 0.000000000000000000 ) ) ;
#210 = EDGE_CURVE ( 'NONE', #356, #121, #191, .T. ) ;
#211 = CARTESIAN_POINT ( 'NONE',  ( 18.66020833333329065, 0.000000000000000000, 0.000000000000000000 ) ) ;
#212 = DIRECTION ( 'NONE',  ( -0.000000000000000000, 0.000000000000000000, 1.000000000000000000 ) ) ;
#213 = AXIS2_PLACEMENT_3D ( 'NONE', #146, #272, #116 ) ;
#214 = ADVANCED_FACE ( 'NONE', ( #57 ), #302, .T. ) ;
#215 = CC_DESIGN_SECURITY_CLASSIFICATION ( #381, ( #154 ) ) ;
#216 = DIRECTION ( 'NONE',  ( 0.000000000000000000, 0.000000000000000000, 1.000000000000000000 ) ) ;
#217 = CARTESIAN_POINT ( 'NONE',  ( 0.000000000000000000, 0.000000000000000000, 0.000000000000000000 ) ) ;
#218 = EDGE_LOOP ( 'NONE', ( #162, #171, #41, #224 ) ) ;
#219 = PRODUCT ( '3D_GR1184_33.7x2_183802872.SLDPRT', '3D_GR1184_33.7x2_183802872.SLDPRT', '', ( #71 ) ) ;
#220 = DIRECTION ( 'NONE',  ( -1.000000000000000000, -0.000000000000000000, -0.000000000000000000 ) ) ;
#221 = VERTEX_POINT ( 'NONE', #239 ) ;
#222 = CIRCLE ( 'NONE', #3, 16.66249751132844992 ) ;
#223 = LINE ( 'NONE', #98, #18 ) ;
#224 = ORIENTED_EDGE ( 'NONE', *, *, #122, .F. ) ;
#225 = ORIENTED_EDGE ( 'NONE', *, *, #15, .F. ) ;
#226 = COORDINATED_UNIVERSAL_TIME_OFFSET ( 1, 0, .AHEAD. ) ;
#227 = CARTESIAN_POINT ( 'NONE',  ( -2.151516368423365577, 16.66249751132844992, 0.000000000000000000 ) ) ;
#228 = EDGE_CURVE ( 'NONE', #195, #6, #362, .T. ) ;
#229 = CARTESIAN_POINT ( 'NONE',  ( 0.000000000000000000, 0.000000000000000000, 0.000000000000000000 ) ) ;
#230 = PERSON_AND_ORGANIZATION ( #363, #311 ) ;
#231 = DIRECTION ( 'NONE',  ( 0.000000000000000000, 0.000000000000000000, 1.000000000000000000 ) ) ;
#232 = COORDINATED_UNIVERSAL_TIME_OFFSET ( 1, 0, .AHEAD. ) ;
#233 = ADVANCED_BREP_SHAPE_REPRESENTATION ( '3D_GR1184_33.7x2_183802872.SLDPRT', ( #119, #54 ), #334 ) ;
#234 = DIRECTION ( 'NONE',  ( -1.000000000000000000, -0.000000000000000000, -0.000000000000000000 ) ) ;
#235 = CIRCLE ( 'NONE', #358, 26.66020833333330842 ) ;
#236 = AXIS2_PLACEMENT_3D ( 'NONE', #359, #391, #293 ) ;
#237 = CARTESIAN_POINT ( 'NONE',  ( -1.761202001004567697, 0.000000000000000000, 16.35000000000001563 ) ) ;
#238 = CC_DESIGN_DATE_AND_TIME_ASSIGNMENT ( #200, #75, ( #381 ) ) ;
#239 = CARTESIAN_POINT ( 'NONE',  ( -2.151516368423367354, 2.052048640434102399E-15, -16.66249751132844992 ) ) ;
#240 = DIRECTION ( 'NONE',  ( 0.000000000000000000, 1.224646799147353207E-16, -1.000000000000000000 ) ) ;
#241 = TOROIDAL_SURFACE ( 'NONE', #66, 16.35000000000001563, 0.5000000000000006661 ) ;
#242 = APPROVAL_PERSON_ORGANIZATION ( #47, #283, #49 ) ;
#243 = CARTESIAN_POINT ( 'NONE',  ( -154.8395502972293230, 0.000000000000000000, 0.000000000000000000 ) ) ;
#244 = CARTESIAN_POINT ( 'NONE',  ( -2.775557561562891351E-14, 0.000000000000000000, 0.000000000000000000 ) ) ;
#245 = EDGE_CURVE ( 'NONE', #221, #131, #207, .T. ) ;
#246 = CARTESIAN_POINT ( 'NONE',  ( -8.000000000000021316, 1.632466940000911566E-15, 0.000000000000000000 ) ) ;
#247 = VECTOR ( 'NONE', #31, 1000.000000000000114 ) ;
#248 = CARTESIAN_POINT ( 'NONE',  ( 7.999999999999979572, 1.757368156776454740E-15, -13.85000000000002274 ) ) ;
#249 = ORIENTED_EDGE ( 'NONE', *, *, #100, .T. ) ;
#250 = FACE_OUTER_BOUND ( 'NONE', #101, .T. ) ;
#251 = ORIENTED_EDGE ( 'NONE', *, *, #165, .F. ) ;
#252 = LINE ( 'NONE', #376, #247 ) ;
#253 = CC_DESIGN_APPROVAL ( #283, ( #381 ) ) ;
#254 = EDGE_LOOP ( 'NONE', ( #337, #63, #204, #285, #186 ) ) ;
#255 = APPROVAL_ROLE ( '' ) ;
#256 = EDGE_LOOP ( 'NONE', ( #36, #199, #264, #314 ) ) ;
#257 = DIRECTION ( 'NONE',  ( 0.000000000000000000, 0.000000000000000000, 1.000000000000000000 ) ) ;
#258 = CARTESIAN_POINT ( 'NONE',  ( -2.775557561562891351E-14, 0.000000000000000000, 14.85000000000001918 ) ) ;
#259 = AXIS2_PLACEMENT_3D ( 'NONE', #23, #149, #392 ) ;
#260 = ORIENTED_EDGE ( 'NONE', *, *, #380, .T. ) ;
#261 = CALENDAR_DATE ( 2024, 23, 9 ) ;
#262 = DIRECTION ( 'NONE',  ( 0.000000000000000000, -1.224646799147357151E-16, 1.000000000000000000 ) ) ;
#263 = PERSON_AND_ORGANIZATION ( #363, #311 ) ;
#264 = ORIENTED_EDGE ( 'NONE', *, *, #7, .F. ) ;
#265 = DIRECTION ( 'NONE',  ( 0.000000000000000000, 1.000000000000000000, 0.000000000000000000 ) ) ;
#266 = AXIS2_PLACEMENT_3D ( 'NONE', #109, #234, #85 ) ;
#267 = AXIS2_PLACEMENT_3D ( 'NONE', #64, #181, #338 ) ;
#268 = CC_DESIGN_PERSON_AND_ORGANIZATION_ASSIGNMENT ( #263, #108, ( #381 ) ) ;
#269 = DIRECTION ( 'NONE',  ( -1.000000000000000000, -0.000000000000000000, -0.000000000000000000 ) ) ;
#270 = EDGE_CURVE ( 'NONE', #34, #221, #222, .T. ) ;
#271 = DIRECTION ( 'NONE',  ( -1.000000000000000000, -0.000000000000000000, -0.000000000000000000 ) ) ;
#272 = DIRECTION ( 'NONE',  ( -1.000000000000000000, -0.000000000000000000, -0.000000000000000000 ) ) ;
#273 = DIRECTION ( 'NONE',  ( 0.000000000000000000, 0.000000000000000000, 1.000000000000000000 ) ) ;
#274 = ADVANCED_FACE ( 'NONE', ( #308 ), #372, .T. ) ;
#275 = CARTESIAN_POINT ( 'NONE',  ( 7.999999999999979572, 0.000000000000000000, 0.000000000000000000 ) ) ;
#276 = VERTEX_POINT ( 'NONE', #248 ) ;
#277 = AXIS2_PLACEMENT_3D ( 'NONE', #170, #141, #353 ) ;
#278 = TOROIDAL_SURFACE ( 'NONE', #267, 16.35000000000001563, 0.5000000000000006661 ) ;
#279 = CARTESIAN_POINT ( 'NONE',  ( -1.761202001004574802, 2.063529856563292611E-15, -16.85000000000001918 ) ) ;
#280 = EDGE_CURVE ( 'NONE', #182, #327, #223, .T. ) ;
#281 = DIRECTION ( 'NONE',  ( -1.000000000000000000, -0.000000000000000000, -0.000000000000000000 ) ) ;
#282 = CARTESIAN_POINT ( 'NONE',  ( 7.999999999999979572, 0.000000000000000000, 0.000000000000000000 ) ) ;
#283 = APPROVAL ( #14, 'UNSPECIFIED' ) ;
#284 = AXIS2_PLACEMENT_3D ( 'NONE', #243, #271, #273 ) ;
#285 = ORIENTED_EDGE ( 'NONE', *, *, #87, .F. ) ;
#286 = PERSON_AND_ORGANIZATION_ROLE ( 'creator' ) ;
#287 = APPLICATION_CONTEXT ( 'configuration controlled 3d designs of mechanical parts and assemblies' ) ;
#288 = ORIENTED_EDGE ( 'NONE', *, *, #42, .F. ) ;
#289 = PERSON_AND_ORGANIZATION ( #363, #311 ) ;
#290 = ORIENTED_EDGE ( 'NONE', *, *, #122, .T. ) ;
#291 = APPROVAL_STATUS ( 'not_yet_approved' ) ;
#292 = CIRCLE ( 'NONE', #53, 14.85000000000001918 ) ;
#293 = DIRECTION ( 'NONE',  ( 0.000000000000000000, 0.000000000000000000, 1.000000000000000000 ) ) ;
#294 = AXIS2_PLACEMENT_3D ( 'NONE', #150, #183, #118 ) ;
#295 = DATE_AND_TIME ( #261, #25 ) ;
#296 = ORIENTED_EDGE ( 'NONE', *, *, #56, .T. ) ;
#297 = ORIENTED_EDGE ( 'NONE', *, *, #56, .F. ) ;
#298 = CARTESIAN_POINT ( 'NONE',  ( -154.8395502972293230, 0.000000000000000000, 0.000000000000000000 ) ) ;
#299 = AXIS2_PLACEMENT_3D ( 'NONE', #275, #144, #329 ) ;
#300 = ADVANCED_FACE ( 'NONE', ( #157 ), #369, .T. ) ;
#301 = DIRECTION ( 'NONE',  ( -1.000000000000000000, -0.000000000000000000, -0.000000000000000000 ) ) ;
#302 = CYLINDRICAL_SURFACE ( 'NONE', #46, 14.85000000000002096 ) ;
#303 = CARTESIAN_POINT ( 'NONE',  ( 7.999999999999979572, 3.489664909124126842E-15, 0.000000000000000000 ) ) ;
#304 = LOCAL_TIME ( 8, 25, 2.000000000000000000, #161 ) ;
#305 = DIRECTION ( 'NONE',  ( -0.000000000000000000, 0.000000000000000000, -1.000000000000000000 ) ) ;
#306 = ORIENTED_EDGE ( 'NONE', *, *, #137, .T. ) ;
#307 = CC_DESIGN_PERSON_AND_ORGANIZATION_ASSIGNMENT ( #352, #384, ( #154 ) ) ;
#308 = FACE_OUTER_BOUND ( 'NONE', #256, .T. ) ;
#309 = ADVANCED_FACE ( 'NONE', ( #91 ), #73, .T. ) ;
#310 = AXIS2_PLACEMENT_3D ( 'NONE', #209, #394, #148 ) ;
#311 = ORGANIZATION ( 'UNSPECIFIED', 'UNSPECIFIED', '' ) ;
#312 = DIRECTION ( 'NONE',  ( 0.000000000000000000, 1.000000000000000000, 0.000000000000000000 ) ) ;
#313 = FACE_OUTER_BOUND ( 'NONE', #128, .T. ) ;
#314 = ORIENTED_EDGE ( 'NONE', *, *, #228, .F. ) ;
#315 = EDGE_CURVE ( 'NONE', #48, #195, #252, .T. ) ;
#316 = CIRCLE ( 'NONE', #130, 14.85000000000002274 ) ;
#317 = DATE_AND_TIME ( #322, #304 ) ;
#318 = VERTEX_POINT ( 'NONE', #94 ) ;
#319 = FACE_OUTER_BOUND ( 'NONE', #218, .T. ) ;
#320 = PERSON_AND_ORGANIZATION_ROLE ( 'creator' ) ;
#321 = ORIENTED_EDGE ( 'NONE', *, *, #137, .F. ) ;
#322 = CALENDAR_DATE ( 2024, 23, 9 ) ;
#323 = ORIENTED_EDGE ( 'NONE', *, *, #210, .F. ) ;
#324 = CIRCLE ( 'NONE', #294, 13.85000000000002274 ) ;
#325 = PERSON_AND_ORGANIZATION_ROLE ( 'design_owner' ) ;
#326 = PRODUCT_DEFINITION ( 'UNKNOWN', '', #154, #370 ) ;
#327 = VERTEX_POINT ( 'NONE', #279 ) ;
#328 = DIRECTION ( 'NONE',  ( 0.000000000000000000, 0.000000000000000000, -1.000000000000000000 ) ) ;
#329 = DIRECTION ( 'NONE',  ( 0.000000000000000000, 0.000000000000000000, 1.000000000000000000 ) ) ;
#330 = DIRECTION ( 'NONE',  ( -1.000000000000000000, -0.000000000000000000, -0.000000000000000000 ) ) ;
#331 = CARTESIAN_POINT ( 'NONE',  ( 0.000000000000000000, 0.000000000000000000, 16.85000000000001918 ) ) ;
#332 = FACE_OUTER_BOUND ( 'NONE', #1, .T. ) ;
#333 = CIRCLE ( 'NONE', #168, 14.85000000000001918 ) ;
#334 =( GEOMETRIC_REPRESENTATION_CONTEXT ( 3 ) GLOBAL_UNCERTAINTY_ASSIGNED_CONTEXT ( ( #29 ) ) GLOBAL_UNIT_ASSIGNED_CONTEXT ( ( #185, #189, #90 ) ) REPRESENTATION_CONTEXT ( 'NONE', 'WORKASPACE' ) );
#335 = DIRECTION ( 'NONE',  ( 0.000000000000000000, 0.000000000000000000, 1.000000000000000000 ) ) ;
#336 = APPROVAL ( #291, 'UNSPECIFIED' ) ;
#337 = ORIENTED_EDGE ( 'NONE', *, *, #82, .F. ) ;
#338 = DIRECTION ( 'NONE',  ( 0.000000000000000000, 0.000000000000000000, 1.000000000000000000 ) ) ;
#339 = EDGE_CURVE ( 'NONE', #182, #126, #349, .T. ) ;
#340 = ORIENTED_EDGE ( 'NONE', *, *, #112, .F. ) ;
#341 = DIRECTION ( 'NONE',  ( 0.000000000000000000, 0.000000000000000000, 1.000000000000000000 ) ) ;
#342 = ORIENTED_EDGE ( 'NONE', *, *, #143, .F. ) ;
#343 = CIRCLE ( 'NONE', #310, 16.85000000000001918 ) ;
#344 = CARTESIAN_POINT ( 'NONE',  ( -1.761202001004574802, 0.000000000000000000, 16.85000000000001918 ) ) ;
#345 = ORIENTED_EDGE ( 'NONE', *, *, #100, .F. ) ;
#346 = EDGE_LOOP ( 'NONE', ( #342, #30, #159, #345 ) ) ;
#347 = CALENDAR_DATE ( 2024, 23, 9 ) ;
#348 = LINE ( 'NONE', #103, #89 ) ;
#349 = CIRCLE ( 'NONE', #399, 16.85000000000001918 ) ;
#350 = APPROVAL_STATUS ( 'not_yet_approved' ) ;
#351 = DIRECTION ( 'NONE',  ( -1.000000000000000000, -0.000000000000000000, -0.000000000000000000 ) ) ;
#352 = PERSON_AND_ORGANIZATION ( #363, #311 ) ;
#353 = DIRECTION ( 'NONE',  ( 0.000000000000000000, 0.000000000000000000, 1.000000000000000000 ) ) ;
#354 = ADVANCED_FACE ( 'NONE', ( #250 ), #28, .T. ) ;
#355 = CALENDAR_DATE ( 2024, 23, 9 ) ;
#356 = VERTEX_POINT ( 'NONE', #344 ) ;
#357 = APPROVAL ( #350, 'UNSPECIFIED' ) ;
#358 = AXIS2_PLACEMENT_3D ( 'NONE', #113, #240, #175 ) ;
#359 = CARTESIAN_POINT ( 'NONE',  ( 6.999999999999978684, 0.000000000000000000, 0.000000000000000000 ) ) ;
#360 = ADVANCED_FACE ( 'NONE', ( #187 ), #278, .T. ) ;
#361 = DIRECTION ( 'NONE',  ( 0.000000000000000000, -1.000000000000000000, 0.000000000000000000 ) ) ;
#362 = LINE ( 'NONE', #206, #202 ) ;
#363 = PERSON ( 'UNSPECIFIED', 'UNSPECIFIED', 'UNSPECIFIED', ('UNSPECIFIED'), ('UNSPECIFIED'), ('UNSPECIFIED') ) ;
#364 = DIRECTION ( 'NONE',  ( -0.000000000000000000, 0.000000000000000000, 1.000000000000000000 ) ) ;
#365 = CARTESIAN_POINT ( 'NONE',  ( -2.151516368423367354, 0.000000000000000000, 16.66249751132844992 ) ) ;
#366 = CARTESIAN_POINT ( 'NONE',  ( -154.8395502972293230, 1.818600496733822314E-15, -14.85000000000002096 ) ) ;
#367 = CARTESIAN_POINT ( 'NONE',  ( 7.999999999999979572, 0.000000000000000000, 0.000000000000000000 ) ) ;
#368 = AXIS2_PLACEMENT_3D ( 'NONE', #374, #125, #153 ) ;
#369 = CYLINDRICAL_SURFACE ( 'NONE', #368, 16.85000000000001918 ) ;
#370 = DESIGN_CONTEXT ( 'detailed design', #287, 'design' ) ;
#371 = ORIENTED_EDGE ( 'NONE', *, *, #280, .T. ) ;
#372 = CYLINDRICAL_SURFACE ( 'NONE', #59, 14.85000000000002096 ) ;
#373 = ORIENTED_EDGE ( 'NONE', *, *, #380, .F. ) ;
#374 = CARTESIAN_POINT ( 'NONE',  ( -154.8395502972293230, 0.000000000000000000, 0.000000000000000000 ) ) ;
#375 = ORIENTED_EDGE ( 'NONE', *, *, #270, .F. ) ;
#376 = CARTESIAN_POINT ( 'NONE',  ( 7.999999999999979572, 0.000000000000000000, 13.85000000000002274 ) ) ;
#377 = ORIENTED_EDGE ( 'NONE', *, *, #15, .T. ) ;
#378 = DIRECTION ( 'NONE',  ( -1.000000000000000000, -0.000000000000000000, -0.000000000000000000 ) ) ;
#379 = CIRCLE ( 'NONE', #266, 16.66249751132844992 ) ;
#380 = EDGE_CURVE ( 'NONE', #276, #318, #67, .T. ) ;
#381 = SECURITY_CLASSIFICATION ( '', '', #40 ) ;
#382 = DATE_AND_TIME ( #134, #179 ) ;
#383 = ORIENTED_EDGE ( 'NONE', *, *, #280, .F. ) ;
#384 = PERSON_AND_ORGANIZATION_ROLE ( 'design_supplier' ) ;
#385 = ORIENTED_EDGE ( 'NONE', *, *, #388, .T. ) ;
#386 = SHAPE_DEFINITION_REPRESENTATION ( #156, #233 ) ;
#387 = EDGE_LOOP ( 'NONE', ( #297, #17 ) ) ;
#388 = EDGE_CURVE ( 'NONE', #48, #276, #324, .T. ) ;
#389 = AXIS2_PLACEMENT_3D ( 'NONE', #237, #361, #328 ) ;
#390 = AXIS2_PLACEMENT_3D ( 'NONE', #282, #158, #341 ) ;
#391 = DIRECTION ( 'NONE',  ( -1.000000000000000000, -0.000000000000000000, -0.000000000000000000 ) ) ;
#392 = DIRECTION ( 'NONE',  ( 0.000000000000000000, 0.000000000000000000, 1.000000000000000000 ) ) ;
#393 = CARTESIAN_POINT ( 'NONE',  ( -2.775557561562891351E-14, 1.818600496733822314E-15, -14.85000000000001918 ) ) ;
#394 = DIRECTION ( 'NONE',  ( -1.000000000000000000, -0.000000000000000000, -0.000000000000000000 ) ) ;
#395 = FACE_OUTER_BOUND ( 'NONE', #45, .T. ) ;
#396 = DIRECTION ( 'NONE',  ( -0.7071067811865474617, 8.659560562354932858E-17, -0.7071067811865474617 ) ) ;
#397 = ADVANCED_FACE ( 'NONE', ( #313 ), #105, .T. ) ;
#398 = ORIENTED_EDGE ( 'NONE', *, *, #27, .F. ) ;
#399 = AXIS2_PLACEMENT_3D ( 'NONE', #217, #400, #123 ) ;
#400 = DIRECTION ( 'NONE',  ( -1.000000000000000000, -0.000000000000000000, -0.000000000000000000 ) ) ;
#401 = CC_DESIGN_PERSON_AND_ORGANIZATION_ASSIGNMENT ( #230, #320, ( #154 ) ) ;
#402 = VERTEX_POINT ( 'NONE', #246 ) ;
#403 = DIRECTION ( 'NONE',  ( 0.000000000000000000, 0.000000000000000000, 1.000000000000000000 ) ) ;
ENDSEC;
END-ISO-10303-21;
