ISO-10303-21;
HEADER;
FILE_DESCRIPTION (( 'STEP AP203' ),
    '1' );
FILE_NAME ('3D_R1655_17.2x1.6_17362090.STEP',
    '2024-08-05T08:05:28',
    ( '' ),
    ( '' ),
    'SwSTEP 2.0',
    'SolidWorks 2024',
    '' );
FILE_SCHEMA (( 'CONFIG_CONTROL_DESIGN' ));
ENDSEC;

DATA;
#1 = APPLICATION_PROTOCOL_DEFINITION ( 'international standard', 'config_control_design', 1994, #128 ) ;
#2 = AXIS2_PLACEMENT_3D ( 'NONE', #94, #234, #238 ) ;
#3 = ADVANCED_FACE ( 'NONE', ( #188 ), #65, .F. ) ;
#4 =( NAMED_UNIT ( * ) PLANE_ANGLE_UNIT ( ) SI_UNIT ( $, .RADIAN. ) );
#5 = CARTESIAN_POINT ( 'NONE',  ( -1.047489009499787947E-13, 0.000000000000000000, -36.00000000000000000 ) ) ;
#6 = COORDINATED_UNIVERSAL_TIME_OFFSET ( 1, 0, .AHEAD. ) ;
#7 = AXIS2_PLACEMENT_3D ( 'NONE', #222, #17, #203 ) ;
#8 = PERSON_AND_ORGANIZATION_ROLE ( 'creator' ) ;
#9 = APPROVAL ( #205, 'UNSPECIFIED' ) ;
#10 = PERSON_AND_ORGANIZATION ( #167, #43 ) ;
#11 = APPROVAL_PERSON_ORGANIZATION ( #24, #133, #192 ) ;
#12 = CARTESIAN_POINT ( 'NONE',  ( 0.000000000000000000, -1.053196247266723300E-15, 0.000000000000000000 ) ) ;
#13 = CIRCLE ( 'NONE', #121, 6.999999999999999112 ) ;
#14 = ORIENTED_EDGE ( 'NONE', *, *, #241, .F. ) ;
#15 = DIRECTION ( 'NONE',  ( 2.909691693054966650E-15, 0.000000000000000000, 1.000000000000000000 ) ) ;
#16 = VERTEX_POINT ( 'NONE', #5 ) ;
#17 = DIRECTION ( 'NONE',  ( -1.000000000000000000, 0.000000000000000000, 2.909691693054966650E-15 ) ) ;
#18 = EDGE_CURVE ( 'NONE', #245, #135, #78, .T. ) ;
#19 = CARTESIAN_POINT ( 'NONE',  ( 0.000000000000000000, 0.000000000000000000, 0.000000000000000000 ) ) ;
#20 = PERSON_AND_ORGANIZATION_ROLE ( 'design_supplier' ) ;
#21 = AXIS2_PLACEMENT_3D ( 'NONE', #35, #166, #204 ) ;
#22 = APPROVAL_DATE_TIME ( #227, #133 ) ;
#23 = COORDINATED_UNIVERSAL_TIME_OFFSET ( 1, 0, .AHEAD. ) ;
#24 = PERSON_AND_ORGANIZATION ( #167, #43 ) ;
#25 = EDGE_LOOP ( 'NONE', ( #230, #42, #139, #173 ) ) ;
#26 = ORIENTED_EDGE ( 'NONE', *, *, #182, .F. ) ;
#27 = DIRECTION ( 'NONE',  ( 0.000000000000000000, 0.000000000000000000, 1.000000000000000000 ) ) ;
#28 = CIRCLE ( 'NONE', #180, 8.599999999999996092 ) ;
#29 = CARTESIAN_POINT ( 'NONE',  ( -43.00000000000000000, 0.000000000000000000, -1.118709998167210339E-14 ) ) ;
#30 = ORIENTED_EDGE ( 'NONE', *, *, #53, .F. ) ;
#31 =( GEOMETRIC_REPRESENTATION_CONTEXT ( 3 ) GLOBAL_UNCERTAINTY_ASSIGNED_CONTEXT ( ( #158 ) ) GLOBAL_UNIT_ASSIGNED_CONTEXT ( ( #179, #4, #122 ) ) REPRESENTATION_CONTEXT ( 'NONE', 'WORKASPACE' ) );
#32 = EDGE_LOOP ( 'NONE', ( #90, #30 ) ) ;
#33 = CC_DESIGN_PERSON_AND_ORGANIZATION_ASSIGNMENT ( #45, #20, ( #124 ) ) ;
#34 = CARTESIAN_POINT ( 'NONE',  ( -34.39999999999999858, 0.000000000000000000, -5.661551858166020990E-15 ) ) ;
#35 = CARTESIAN_POINT ( 'NONE',  ( 0.000000000000000000, 0.000000000000000000, 0.000000000000000000 ) ) ;
#36 = SECURITY_CLASSIFICATION ( '', '', #208 ) ;
#37 = DIRECTION ( 'NONE',  ( -2.601651158528396321E-16, 0.000000000000000000, 1.000000000000000000 ) ) ;
#38 = PERSON_AND_ORGANIZATION ( #167, #43 ) ;
#39 = APPROVAL_PERSON_ORGANIZATION ( #106, #70, #187 ) ;
#40 = CARTESIAN_POINT ( 'NONE',  ( 0.000000000000000000, 0.000000000000000000, 0.000000000000000000 ) ) ;
#41 = CIRCLE ( 'NONE', #195, 6.999999999999999112 ) ;
#42 = ORIENTED_EDGE ( 'NONE', *, *, #44, .F. ) ;
#43 = ORGANIZATION ( 'UNSPECIFIED', 'UNSPECIFIED', '' ) ;
#44 = EDGE_CURVE ( 'NONE', #16, #77, #13, .T. ) ;
#45 = PERSON_AND_ORGANIZATION ( #167, #43 ) ;
#46 = ORIENTED_EDGE ( 'NONE', *, *, #210, .T. ) ;
#47 = AXIS2_PLACEMENT_3D ( 'NONE', #40, #148, #105 ) ;
#48 = FACE_OUTER_BOUND ( 'NONE', #251, .T. ) ;
#49 = PLANE ( 'NONE',  #157 ) ;
#50 = DIRECTION ( 'NONE',  ( 0.000000000000000000, 1.000000000000000000, 0.000000000000000000 ) ) ;
#51 = DIRECTION ( 'NONE',  ( -2.601651158528396321E-16, 0.000000000000000000, 1.000000000000000000 ) ) ;
#52 = LOCAL_TIME ( 10, 5, 28.00000000000000000, #23 ) ;
#53 = EDGE_CURVE ( 'NONE', #107, #66, #172, .T. ) ;
#54 = DIRECTION ( 'NONE',  ( 2.909691693054965072E-15, 0.000000000000000000, 1.000000000000000000 ) ) ;
#55 = ORIENTED_EDGE ( 'NONE', *, *, #250, .F. ) ;
#56 = CIRCLE ( 'NONE', #7, 8.599999999999996092 ) ;
#57 = AXIS2_PLACEMENT_3D ( 'NONE', #58, #123, #99 ) ;
#58 = CARTESIAN_POINT ( 'NONE',  ( -1.284048709285352109E-13, 0.000000000000000000, -43.00000000000000000 ) ) ;
#59 = TOROIDAL_SURFACE ( 'NONE', #47, 43.00000000000000000, 8.599999999999996092 ) ;
#60 = PLANE ( 'NONE',  #57 ) ;
#61 = ORIENTED_EDGE ( 'NONE', *, *, #144, .T. ) ;
#62 = APPROVAL_STATUS ( 'not_yet_approved' ) ;
#63 = EDGE_LOOP ( 'NONE', ( #217, #61 ) ) ;
#64 = DATE_AND_TIME ( #151, #129 ) ;
#65 = TOROIDAL_SURFACE ( 'NONE', #127, 43.00000000000000000, 6.999999999999996447 ) ;
#66 = VERTEX_POINT ( 'NONE', #93 ) ;
#67 = EDGE_CURVE ( 'NONE', #16, #245, #88, .T. ) ;
#68 = DIRECTION ( 'NONE',  ( 0.000000000000000000, 1.000000000000000000, 0.000000000000000000 ) ) ;
#69 = DIRECTION ( 'NONE',  ( 0.000000000000000000, 0.000000000000000000, 1.000000000000000000 ) ) ;
#70 = APPROVAL ( #111, 'UNSPECIFIED' ) ;
#71 = ORIENTED_EDGE ( 'NONE', *, *, #144, .F. ) ;
#72 = DIRECTION ( 'NONE',  ( 1.000000000000000000, 0.000000000000000000, 2.601651158528396814E-16 ) ) ;
#73 = ORIENTED_EDGE ( 'NONE', *, *, #198, .T. ) ;
#74 = CIRCLE ( 'NONE', #185, 49.99999999999999289 ) ;
#75 = DIRECTION ( 'NONE',  ( -1.000000000000000000, 0.000000000000000000, 2.909691693054966650E-15 ) ) ;
#76 = CC_DESIGN_APPROVAL ( #70, ( #36 ) ) ;
#77 = VERTEX_POINT ( 'NONE', #199 ) ;
#78 = CIRCLE ( 'NONE', #102, 6.999999999999999112 ) ;
#79 = ADVANCED_FACE ( 'NONE', ( #48 ), #116, .F. ) ;
#80 = DIRECTION ( 'NONE',  ( 0.000000000000000000, 0.000000000000000000, 1.000000000000000000 ) ) ;
#81 = DIRECTION ( 'NONE',  ( 1.000000000000000000, 0.000000000000000000, 0.000000000000000000 ) ) ;
#82 = CARTESIAN_POINT ( 'NONE',  ( -36.00000000000000000, 0.000000000000000000, -9.365944170702226755E-15 ) ) ;
#83 = CC_DESIGN_PERSON_AND_ORGANIZATION_ASSIGNMENT ( #152, #8, ( #124 ) ) ;
#84 = DATE_AND_TIME ( #248, #193 ) ;
#85 = CALENDAR_DATE ( 2024, 5, 8 ) ;
#86 = CALENDAR_DATE ( 2024, 5, 8 ) ;
#87 = AXIS2_PLACEMENT_3D ( 'NONE', #226, #202, #181 ) ;
#88 = CIRCLE ( 'NONE', #236, 36.00000000000000000 ) ;
#89 = COORDINATED_UNIVERSAL_TIME_OFFSET ( 1, 0, .AHEAD. ) ;
#90 = ORIENTED_EDGE ( 'NONE', *, *, #210, .F. ) ;
#91 = ADVANCED_FACE ( 'NONE', ( #232, #141 ), #49, .T. ) ;
#92 = CLOSED_SHELL ( 'NONE', ( #79, #186, #235, #91, #196, #3 ) ) ;
#93 = CARTESIAN_POINT ( 'NONE',  ( -1.033815223682625236E-13, 0.000000000000000000, -34.39999999999999858 ) ) ;
#94 = CARTESIAN_POINT ( 'NONE',  ( 0.000000000000000000, 0.000000000000000000, 0.000000000000000000 ) ) ;
#95 = CARTESIAN_POINT ( 'NONE',  ( -43.00000000000000000, 0.000000000000000000, -7.898971854500442299E-15 ) ) ;
#96 = DESIGN_CONTEXT ( 'detailed design', #128, 'design' ) ;
#97 = CARTESIAN_POINT ( 'NONE',  ( -49.99999999999999289, 0.000000000000000000, -1.300825579264198160E-14 ) ) ;
#98 = DIRECTION ( 'NONE',  ( 1.000000000000000000, 0.000000000000000000, 2.601651158528396814E-16 ) ) ;
#99 = DIRECTION ( 'NONE',  ( 2.909691693054966650E-15, 0.000000000000000000, 1.000000000000000000 ) ) ;
#100 = PRODUCT_RELATED_PRODUCT_CATEGORY ( 'detail', '', ( #221 ) ) ;
#101 = CIRCLE ( 'NONE', #87, 6.999999999999999112 ) ;
#102 = AXIS2_PLACEMENT_3D ( 'NONE', #29, #138, #253 ) ;
#103 = DIRECTION ( 'NONE',  ( 0.000000000000000000, 0.000000000000000000, 1.000000000000000000 ) ) ;
#104 = CARTESIAN_POINT ( 'NONE',  ( -43.00000000000000000, 0.000000000000000000, -7.898971854500442299E-15 ) ) ;
#105 = DIRECTION ( 'NONE',  ( 0.000000000000000000, 0.000000000000000000, 1.000000000000000000 ) ) ;
#106 = PERSON_AND_ORGANIZATION ( #167, #43 ) ;
#107 = VERTEX_POINT ( 'NONE', #143 ) ;
#108 = DATE_TIME_ROLE ( 'creation_date' ) ;
#109 = CALENDAR_DATE ( 2024, 5, 8 ) ;
#110 = EDGE_LOOP ( 'NONE', ( #14, #162, #115, #55 ) ) ;
#111 = APPROVAL_STATUS ( 'not_yet_approved' ) ;
#112 = CC_DESIGN_DATE_AND_TIME_ASSIGNMENT ( #125, #247, ( #36 ) ) ;
#113 = ADVANCED_BREP_SHAPE_REPRESENTATION ( '3D_R1655_17.2x1.6_17362090', ( #114, #243 ), #31 ) ;
#114 = MANIFOLD_SOLID_BREP ( 'Wandung1', #92 ) ;
#115 = ORIENTED_EDGE ( 'NONE', *, *, #182, .T. ) ;
#116 = TOROIDAL_SURFACE ( 'NONE', #2, 43.00000000000000000, 6.999999999999996447 ) ;
#117 = APPLICATION_CONTEXT ( 'configuration controlled 3d designs of mechanical parts and assemblies' ) ;
#118 = CARTESIAN_POINT ( 'NONE',  ( -1.251167428013635498E-13, 0.000000000000000000, -43.00000000000000000 ) ) ;
#119 = CARTESIAN_POINT ( 'NONE',  ( -51.59999999999999432, 0.000000000000000000, -1.013639185083486361E-14 ) ) ;
#120 = DIRECTION ( 'NONE',  ( 0.000000000000000000, 1.000000000000000000, 0.000000000000000000 ) ) ;
#121 = AXIS2_PLACEMENT_3D ( 'NONE', #252, #216, #54 ) ;
#122 =( NAMED_UNIT ( * ) SI_UNIT ( $, .STERADIAN. ) SOLID_ANGLE_UNIT ( ) );
#123 = DIRECTION ( 'NONE',  ( -1.000000000000000000, 0.000000000000000000, 2.909691693054966650E-15 ) ) ;
#124 = PRODUCT_DEFINITION_FORMATION_WITH_SPECIFIED_SOURCE ( 'ANY', '', #221, .NOT_KNOWN. ) ;
#125 = DATE_AND_TIME ( #86, #201 ) ;
#126 = PERSON_AND_ORGANIZATION_ROLE ( 'creator' ) ;
#127 = AXIS2_PLACEMENT_3D ( 'NONE', #209, #68, #134 ) ;
#128 = APPLICATION_CONTEXT ( 'configuration controlled 3d designs of mechanical parts and assemblies' ) ;
#129 = LOCAL_TIME ( 10, 5, 28.00000000000000000, #244 ) ;
#130 = APPROVAL_ROLE ( '' ) ;
#131 = EDGE_LOOP ( 'NONE', ( #206, #246 ) ) ;
#132 = PERSON_AND_ORGANIZATION_ROLE ( 'classification_officer' ) ;
#133 = APPROVAL ( #62, 'UNSPECIFIED' ) ;
#134 = DIRECTION ( 'NONE',  ( 0.000000000000000000, 0.000000000000000000, 1.000000000000000000 ) ) ;
#135 = VERTEX_POINT ( 'NONE', #97 ) ;
#136 = FACE_OUTER_BOUND ( 'NONE', #214, .T. ) ;
#137 = ORIENTED_EDGE ( 'NONE', *, *, #155, .F. ) ;
#138 = DIRECTION ( 'NONE',  ( -2.601651158528396321E-16, 0.000000000000000000, 1.000000000000000000 ) ) ;
#139 = ORIENTED_EDGE ( 'NONE', *, *, #67, .T. ) ;
#140 = AXIS2_PLACEMENT_3D ( 'NONE', #12, #174, #69 ) ;
#141 = FACE_OUTER_BOUND ( 'NONE', #131, .T. ) ;
#142 = DIRECTION ( 'NONE',  ( -1.000000000000000000, 0.000000000000000000, 2.909691693054966650E-15 ) ) ;
#143 = CARTESIAN_POINT ( 'NONE',  ( -1.534282194888079107E-13, 0.000000000000000000, -51.59999999999999432 ) ) ;
#144 = EDGE_CURVE ( 'NONE', #77, #16, #41, .T. ) ;
#145 = FACE_OUTER_BOUND ( 'NONE', #32, .T. ) ;
#146 = APPLICATION_PROTOCOL_DEFINITION ( 'international standard', 'config_control_design', 1994, #117 ) ;
#147 = CIRCLE ( 'NONE', #189, 51.59999999999999432 ) ;
#148 = DIRECTION ( 'NONE',  ( 0.000000000000000000, 1.000000000000000000, 0.000000000000000000 ) ) ;
#149 = FACE_BOUND ( 'NONE', #63, .T. ) ;
#150 = PERSON_AND_ORGANIZATION_ROLE ( 'design_owner' ) ;
#151 = CALENDAR_DATE ( 2024, 5, 8 ) ;
#152 = PERSON_AND_ORGANIZATION ( #167, #43 ) ;
#153 = VERTEX_POINT ( 'NONE', #34 ) ;
#154 = COORDINATED_UNIVERSAL_TIME_OFFSET ( 1, 0, .AHEAD. ) ;
#155 = EDGE_CURVE ( 'NONE', #153, #249, #28, .T. ) ;
#156 = ORIENTED_EDGE ( 'NONE', *, *, #191, .T. ) ;
#157 = AXIS2_PLACEMENT_3D ( 'NONE', #95, #51, #160 ) ;
#158 = UNCERTAINTY_MEASURE_WITH_UNIT (LENGTH_MEASURE( 1.000000000000000082E-05 ), #179, 'distance_accuracy_value', 'NONE');
#159 = CC_DESIGN_APPROVAL ( #133, ( #124 ) ) ;
#160 = DIRECTION ( 'NONE',  ( 1.000000000000000000, 0.000000000000000000, 2.601651158528396321E-16 ) ) ;
#161 = CC_DESIGN_PERSON_AND_ORGANIZATION_ASSIGNMENT ( #171, #132, ( #36 ) ) ;
#162 = ORIENTED_EDGE ( 'NONE', *, *, #53, .T. ) ;
#163 = AXIS2_PLACEMENT_3D ( 'NONE', #194, #75, #15 ) ;
#164 = CARTESIAN_POINT ( 'NONE',  ( 0.000000000000000000, 0.000000000000000000, 0.000000000000000000 ) ) ;
#165 = APPROVAL_PERSON_ORGANIZATION ( #10, #9, #130 ) ;
#166 = DIRECTION ( 'NONE',  ( 0.000000000000000000, 1.000000000000000000, 0.000000000000000000 ) ) ;
#167 = PERSON ( 'UNSPECIFIED', 'UNSPECIFIED', 'UNSPECIFIED', ('UNSPECIFIED'), ('UNSPECIFIED'), ('UNSPECIFIED') ) ;
#168 = AXIS2_PLACEMENT_3D ( 'NONE', #104, #37, #98 ) ;
#169 = PRODUCT_DEFINITION ( 'UNKNOWN', '', #124, #96 ) ;
#170 = SHAPE_DEFINITION_REPRESENTATION ( #240, #113 ) ;
#171 = PERSON_AND_ORGANIZATION ( #167, #43 ) ;
#172 = CIRCLE ( 'NONE', #163, 8.599999999999996092 ) ;
#173 = ORIENTED_EDGE ( 'NONE', *, *, #18, .T. ) ;
#174 = DIRECTION ( 'NONE',  ( 0.000000000000000000, 1.000000000000000000, 0.000000000000000000 ) ) ;
#175 = ORIENTED_EDGE ( 'NONE', *, *, #67, .F. ) ;
#176 = CARTESIAN_POINT ( 'NONE',  ( 0.000000000000000000, -8.572527594031468259E-16, 0.000000000000000000 ) ) ;
#177 = DIRECTION ( 'NONE',  ( -2.601651158528396321E-16, 0.000000000000000000, 1.000000000000000000 ) ) ;
#178 = CC_DESIGN_DATE_AND_TIME_ASSIGNMENT ( #64, #108, ( #169 ) ) ;
#179 =( LENGTH_UNIT ( ) NAMED_UNIT ( * ) SI_UNIT ( .MILLI., .METRE. ) );
#180 = AXIS2_PLACEMENT_3D ( 'NONE', #219, #177, #72 ) ;
#181 = DIRECTION ( 'NONE',  ( 1.000000000000000000, 0.000000000000000000, 2.601651158528395335E-16 ) ) ;
#182 = EDGE_CURVE ( 'NONE', #66, #153, #218, .T. ) ;
#183 = DIRECTION ( 'NONE',  ( 0.000000000000000000, 1.000000000000000000, 0.000000000000000000 ) ) ;
#184 = DIRECTION ( 'NONE',  ( 0.000000000000000000, 0.000000000000000000, 1.000000000000000000 ) ) ;
#185 = AXIS2_PLACEMENT_3D ( 'NONE', #164, #120, #103 ) ;
#186 = ADVANCED_FACE ( 'NONE', ( #136 ), #59, .T. ) ;
#187 = APPROVAL_ROLE ( '' ) ;
#188 = FACE_OUTER_BOUND ( 'NONE', #25, .T. ) ;
#189 = AXIS2_PLACEMENT_3D ( 'NONE', #19, #183, #184 ) ;
#190 = PERSON_AND_ORGANIZATION ( #167, #43 ) ;
#191 = EDGE_CURVE ( 'NONE', #77, #135, #74, .T. ) ;
#192 = APPROVAL_ROLE ( '' ) ;
#193 = LOCAL_TIME ( 10, 5, 28.00000000000000000, #89 ) ;
#194 = CARTESIAN_POINT ( 'NONE',  ( -1.284048709285352109E-13, 0.000000000000000000, -43.00000000000000000 ) ) ;
#195 = AXIS2_PLACEMENT_3D ( 'NONE', #118, #142, #220 ) ;
#196 = ADVANCED_FACE ( 'NONE', ( #149, #145 ), #60, .F. ) ;
#197 = CIRCLE ( 'NONE', #168, 8.599999999999996092 ) ;
#198 = EDGE_CURVE ( 'NONE', #135, #245, #101, .T. ) ;
#199 = CARTESIAN_POINT ( 'NONE',  ( -1.454845846527483301E-13, 0.000000000000000000, -49.99999999999999289 ) ) ;
#200 = FACE_OUTER_BOUND ( 'NONE', #110, .T. ) ;
#201 = LOCAL_TIME ( 10, 5, 28.00000000000000000, #6 ) ;
#202 = DIRECTION ( 'NONE',  ( -2.601651158528396321E-16, 0.000000000000000000, 1.000000000000000000 ) ) ;
#203 = DIRECTION ( 'NONE',  ( 2.909691693054966650E-15, 0.000000000000000000, 1.000000000000000000 ) ) ;
#204 = DIRECTION ( 'NONE',  ( 0.000000000000000000, 0.000000000000000000, 1.000000000000000000 ) ) ;
#205 = APPROVAL_STATUS ( 'not_yet_approved' ) ;
#206 = ORIENTED_EDGE ( 'NONE', *, *, #155, .T. ) ;
#207 = TOROIDAL_SURFACE ( 'NONE', #21, 43.00000000000000000, 8.599999999999996092 ) ;
#208 = SECURITY_CLASSIFICATION_LEVEL ( 'unclassified' ) ;
#209 = CARTESIAN_POINT ( 'NONE',  ( 0.000000000000000000, 0.000000000000000000, 0.000000000000000000 ) ) ;
#210 = EDGE_CURVE ( 'NONE', #66, #107, #56, .T. ) ;
#211 = LOCAL_TIME ( 10, 5, 28.00000000000000000, #154 ) ;
#212 = DATE_AND_TIME ( #109, #52 ) ;
#213 = ORIENTED_EDGE ( 'NONE', *, *, #198, .F. ) ;
#214 = EDGE_LOOP ( 'NONE', ( #46, #229, #137, #26 ) ) ;
#215 = CC_DESIGN_PERSON_AND_ORGANIZATION_ASSIGNMENT ( #38, #150, ( #221 ) ) ;
#216 = DIRECTION ( 'NONE',  ( -1.000000000000000000, 0.000000000000000000, 2.909691693054966650E-15 ) ) ;
#217 = ORIENTED_EDGE ( 'NONE', *, *, #44, .T. ) ;
#218 = CIRCLE ( 'NONE', #140, 34.39999999999999858 ) ;
#219 = CARTESIAN_POINT ( 'NONE',  ( -43.00000000000000000, 0.000000000000000000, -7.898971854500442299E-15 ) ) ;
#220 = DIRECTION ( 'NONE',  ( 2.909691693054965072E-15, 0.000000000000000000, 1.000000000000000000 ) ) ;
#221 = PRODUCT ( '3D_R1655_17.2x1.6_17362090', '3D_R1655_17.2x1.6_17362090', '', ( #223 ) ) ;
#222 = CARTESIAN_POINT ( 'NONE',  ( -1.284048709285352109E-13, 0.000000000000000000, -43.00000000000000000 ) ) ;
#223 = MECHANICAL_CONTEXT ( 'NONE', #117, 'mechanical' ) ;
#224 = CC_DESIGN_PERSON_AND_ORGANIZATION_ASSIGNMENT ( #190, #126, ( #169 ) ) ;
#225 = CC_DESIGN_SECURITY_CLASSIFICATION ( #36, ( #124 ) ) ;
#226 = CARTESIAN_POINT ( 'NONE',  ( -43.00000000000000000, 0.000000000000000000, -1.118709998167210339E-14 ) ) ;
#227 = DATE_AND_TIME ( #85, #211 ) ;
#228 = APPROVAL_DATE_TIME ( #84, #70 ) ;
#229 = ORIENTED_EDGE ( 'NONE', *, *, #241, .T. ) ;
#230 = ORIENTED_EDGE ( 'NONE', *, *, #191, .F. ) ;
#231 = APPROVAL_DATE_TIME ( #212, #9 ) ;
#232 = FACE_BOUND ( 'NONE', #233, .T. ) ;
#233 = EDGE_LOOP ( 'NONE', ( #237, #213 ) ) ;
#234 = DIRECTION ( 'NONE',  ( 0.000000000000000000, 1.000000000000000000, 0.000000000000000000 ) ) ;
#235 = ADVANCED_FACE ( 'NONE', ( #200 ), #207, .T. ) ;
#236 = AXIS2_PLACEMENT_3D ( 'NONE', #176, #50, #27 ) ;
#237 = ORIENTED_EDGE ( 'NONE', *, *, #18, .F. ) ;
#238 = DIRECTION ( 'NONE',  ( 0.000000000000000000, 0.000000000000000000, 1.000000000000000000 ) ) ;
#239 = CC_DESIGN_APPROVAL ( #9, ( #169 ) ) ;
#240 = PRODUCT_DEFINITION_SHAPE ( 'NONE', 'NONE',  #169 ) ;
#241 = EDGE_CURVE ( 'NONE', #107, #249, #147, .T. ) ;
#242 = CARTESIAN_POINT ( 'NONE',  ( 0.000000000000000000, 0.000000000000000000, 0.000000000000000000 ) ) ;
#243 = AXIS2_PLACEMENT_3D ( 'NONE', #242, #80, #81 ) ;
#244 = COORDINATED_UNIVERSAL_TIME_OFFSET ( 1, 0, .AHEAD. ) ;
#245 = VERTEX_POINT ( 'NONE', #82 ) ;
#246 = ORIENTED_EDGE ( 'NONE', *, *, #250, .T. ) ;
#247 = DATE_TIME_ROLE ( 'classification_date' ) ;
#248 = CALENDAR_DATE ( 2024, 5, 8 ) ;
#249 = VERTEX_POINT ( 'NONE', #119 ) ;
#250 = EDGE_CURVE ( 'NONE', #249, #153, #197, .T. ) ;
#251 = EDGE_LOOP ( 'NONE', ( #71, #156, #73, #175 ) ) ;
#252 = CARTESIAN_POINT ( 'NONE',  ( -1.251167428013635498E-13, 0.000000000000000000, -43.00000000000000000 ) ) ;
#253 = DIRECTION ( 'NONE',  ( 1.000000000000000000, 0.000000000000000000, 2.601651158528395335E-16 ) ) ;
ENDSEC;
END-ISO-10303-21;
