ISO-10303-21;
HEADER;
FILE_DESCRIPTION (( 'STEP AP203' ),
    '1' );
FILE_NAME ('3D_R245_60.3x4_17386130.STEP',
    '2024-08-06T09:32:07',
    ( '' ),
    ( '' ),
    'SwSTEP 2.0',
    'SolidWorks 2024',
    '' );
FILE_SCHEMA (( 'CONFIG_CONTROL_DESIGN' ));
ENDSEC;

DATA;
#1 = DIRECTION ( 'NONE',  ( -0.000000000000000000, -1.000000000000000000, -0.000000000000000000 ) ) ;
#2 = APPROVAL_DATE_TIME ( #97, #105 ) ;
#3 = CARTESIAN_POINT ( 'NONE',  ( 0.000000000000000000, 0.000000000000000000, 0.000000000000000000 ) ) ;
#4 = CYLINDRICAL_SURFACE ( 'NONE', #119, 80.15000000000000568 ) ;
#5 = LOCAL_TIME ( 11, 32, 7.000000000000000000, #65 ) ;
#6 = CIRCLE ( 'NONE', #142, 30.15000000000000213 ) ;
#7 = CARTESIAN_POINT ( 'NONE',  ( 0.000000000000000000, 4.000000000000000000, 0.000000000000000000 ) ) ;
#8 = APPROVAL ( #66, 'UNSPECIFIED' ) ;
#9 = DIRECTION ( 'NONE',  ( 0.000000000000000000, 1.000000000000000000, 0.000000000000000000 ) ) ;
#10 = ORIENTED_EDGE ( 'NONE', *, *, #181, .T. ) ;
#11 = COORDINATED_UNIVERSAL_TIME_OFFSET ( 1, 0, .AHEAD. ) ;
#12 =( GEOMETRIC_REPRESENTATION_CONTEXT ( 3 ) GLOBAL_UNCERTAINTY_ASSIGNED_CONTEXT ( ( #234 ) ) GLOBAL_UNIT_ASSIGNED_CONTEXT ( ( #77, #211, #132 ) ) REPRESENTATION_CONTEXT ( 'NONE', 'WORKASPACE' ) );
#13 = DATE_AND_TIME ( #28, #207 ) ;
#14 = VERTEX_POINT ( 'NONE', #54 ) ;
#15 = VECTOR ( 'NONE', #1, 1000.000000000000000 ) ;
#16 = ORIENTED_EDGE ( 'NONE', *, *, #19, .F. ) ;
#17 = VECTOR ( 'NONE', #114, 1000.000000000000000 ) ;
#18 = CARTESIAN_POINT ( 'NONE',  ( 0.000000000000000000, 4.000000000000000000, 0.000000000000000000 ) ) ;
#19 = EDGE_CURVE ( 'NONE', #14, #148, #225, .T. ) ;
#20 = DIRECTION ( 'NONE',  ( 0.000000000000000000, 1.000000000000000000, 0.000000000000000000 ) ) ;
#21 = ORIENTED_EDGE ( 'NONE', *, *, #244, .T. ) ;
#22 = LINE ( 'NONE', #145, #25 ) ;
#23 = AXIS2_PLACEMENT_3D ( 'NONE', #7, #136, #156 ) ;
#24 = DIRECTION ( 'NONE',  ( 1.000000000000000000, 0.000000000000000000, 0.000000000000000000 ) ) ;
#25 = VECTOR ( 'NONE', #226, 1000.000000000000000 ) ;
#26 = CARTESIAN_POINT ( 'NONE',  ( 0.000000000000000000, 4.000000000000000000, 0.000000000000000000 ) ) ;
#27 = PRODUCT ( '3D_R245_60.3x4_17386130', '3D_R245_60.3x4_17386130', '', ( #157 ) ) ;
#28 = CALENDAR_DATE ( 2024, 6, 8 ) ;
#29 = CC_DESIGN_APPROVAL ( #95, ( #154 ) ) ;
#30 = APPROVAL_ROLE ( '' ) ;
#31 = ORIENTED_EDGE ( 'NONE', *, *, #218, .T. ) ;
#32 = DATE_TIME_ROLE ( 'creation_date' ) ;
#33 = ORIENTED_EDGE ( 'NONE', *, *, #146, .T. ) ;
#34 = SHAPE_DEFINITION_REPRESENTATION ( #118, #177 ) ;
#35 = ADVANCED_FACE ( 'NONE', ( #127 ), #209, .T. ) ;
#36 = ORIENTED_EDGE ( 'NONE', *, *, #38, .F. ) ;
#37 = CIRCLE ( 'NONE', #86, 30.15000000000000213 ) ;
#38 = EDGE_CURVE ( 'NONE', #148, #203, #22, .T. ) ;
#39 = CYLINDRICAL_SURFACE ( 'NONE', #195, 30.15000000000000213 ) ;
#40 = DIRECTION ( 'NONE',  ( 0.000000000000000000, -0.000000000000000000, 1.000000000000000000 ) ) ;
#41 = AXIS2_PLACEMENT_3D ( 'NONE', #99, #194, #24 ) ;
#42 = CLOSED_SHELL ( 'NONE', ( #48, #35, #81, #172, #192, #208 ) ) ;
#43 = CARTESIAN_POINT ( 'NONE',  ( 0.000000000000000000, 4.000000000000000000, 0.000000000000000000 ) ) ;
#44 = CARTESIAN_POINT ( 'NONE',  ( 0.000000000000000000, 0.000000000000000000, 0.000000000000000000 ) ) ;
#45 = EDGE_CURVE ( 'NONE', #123, #121, #162, .T. ) ;
#46 = LINE ( 'NONE', #134, #17 ) ;
#47 = LOCAL_TIME ( 11, 32, 7.000000000000000000, #11 ) ;
#48 = ADVANCED_FACE ( 'NONE', ( #147 ), #39, .F. ) ;
#49 = CARTESIAN_POINT ( 'NONE',  ( 3.692310099429270397E-15, 4.000000000000000000, 30.15000000000000213 ) ) ;
#50 = AXIS2_PLACEMENT_3D ( 'NONE', #171, #137, #100 ) ;
#51 = ORIENTED_EDGE ( 'NONE', *, *, #62, .F. ) ;
#52 = EDGE_LOOP ( 'NONE', ( #51, #33, #187, #84 ) ) ;
#53 = CC_DESIGN_PERSON_AND_ORGANIZATION_ASSIGNMENT ( #101, #82, ( #78 ) ) ;
#54 = CARTESIAN_POINT ( 'NONE',  ( 3.692310099429270397E-15, 4.000000000000000000, 30.15000000000000213 ) ) ;
#55 = DIRECTION ( 'NONE',  ( -0.000000000000000000, -1.000000000000000000, -0.000000000000000000 ) ) ;
#56 = DIRECTION ( 'NONE',  ( 0.000000000000000000, 0.000000000000000000, 1.000000000000000000 ) ) ;
#57 = ORIENTED_EDGE ( 'NONE', *, *, #146, .F. ) ;
#58 = AXIS2_PLACEMENT_3D ( 'NONE', #131, #221, #56 ) ;
#59 = CARTESIAN_POINT ( 'NONE',  ( 0.000000000000000000, 4.000000000000000000, -80.15000000000000568 ) ) ;
#60 = PERSON_AND_ORGANIZATION_ROLE ( 'creator' ) ;
#61 = CARTESIAN_POINT ( 'NONE',  ( 0.000000000000000000, 0.000000000000000000, -30.15000000000000213 ) ) ;
#62 = EDGE_CURVE ( 'NONE', #121, #123, #215, .T. ) ;
#63 = FACE_OUTER_BOUND ( 'NONE', #129, .T. ) ;
#64 = APPLICATION_CONTEXT ( 'configuration controlled 3d designs of mechanical parts and assemblies' ) ;
#65 = COORDINATED_UNIVERSAL_TIME_OFFSET ( 1, 0, .AHEAD. ) ;
#66 = APPROVAL_STATUS ( 'not_yet_approved' ) ;
#67 = EDGE_LOOP ( 'NONE', ( #140, #16 ) ) ;
#68 = CIRCLE ( 'NONE', #204, 30.15000000000000213 ) ;
#69 = VERTEX_POINT ( 'NONE', #144 ) ;
#70 = CARTESIAN_POINT ( 'NONE',  ( 0.000000000000000000, 4.000000000000000000, 0.000000000000000000 ) ) ;
#71 = PLANE ( 'NONE',  #74 ) ;
#72 = DIRECTION ( 'NONE',  ( 0.000000000000000000, 0.000000000000000000, 1.000000000000000000 ) ) ;
#73 = DIRECTION ( 'NONE',  ( 0.000000000000000000, 0.000000000000000000, 1.000000000000000000 ) ) ;
#74 = AXIS2_PLACEMENT_3D ( 'NONE', #166, #188, #40 ) ;
#75 = CARTESIAN_POINT ( 'NONE',  ( 0.000000000000000000, 4.000000000000000000, 0.000000000000000000 ) ) ;
#76 = CYLINDRICAL_SURFACE ( 'NONE', #23, 30.15000000000000213 ) ;
#77 =( LENGTH_UNIT ( ) NAMED_UNIT ( * ) SI_UNIT ( .MILLI., .METRE. ) );
#78 = SECURITY_CLASSIFICATION ( '', '', #197 ) ;
#79 = DIRECTION ( 'NONE',  ( 0.000000000000000000, 0.000000000000000000, 1.000000000000000000 ) ) ;
#80 = APPLICATION_PROTOCOL_DEFINITION ( 'international standard', 'config_control_design', 1994, #64 ) ;
#81 = ADVANCED_FACE ( 'NONE', ( #246, #247 ), #71, .T. ) ;
#82 = PERSON_AND_ORGANIZATION_ROLE ( 'classification_officer' ) ;
#83 = DATE_TIME_ROLE ( 'classification_date' ) ;
#84 = ORIENTED_EDGE ( 'NONE', *, *, #218, .F. ) ;
#85 = COORDINATED_UNIVERSAL_TIME_OFFSET ( 1, 0, .AHEAD. ) ;
#86 = AXIS2_PLACEMENT_3D ( 'NONE', #3, #9, #228 ) ;
#87 = PERSON_AND_ORGANIZATION ( #220, #133 ) ;
#88 = CALENDAR_DATE ( 2024, 6, 8 ) ;
#89 = AXIS2_PLACEMENT_3D ( 'NONE', #70, #205, #106 ) ;
#90 = CARTESIAN_POINT ( 'NONE',  ( 9.815544095166035693E-15, 4.000000000000000000, 80.15000000000000568 ) ) ;
#91 = DIRECTION ( 'NONE',  ( 0.000000000000000000, 0.000000000000000000, 1.000000000000000000 ) ) ;
#92 = APPROVAL_PERSON_ORGANIZATION ( #193, #105, #233 ) ;
#93 = ORIENTED_EDGE ( 'NONE', *, *, #45, .T. ) ;
#94 = CARTESIAN_POINT ( 'NONE',  ( 0.000000000000000000, 4.000000000000000000, 0.000000000000000000 ) ) ;
#95 = APPROVAL ( #238, 'UNSPECIFIED' ) ;
#96 = CARTESIAN_POINT ( 'NONE',  ( 0.000000000000000000, 4.000000000000000000, -30.15000000000000213 ) ) ;
#97 = DATE_AND_TIME ( #115, #5 ) ;
#98 = DIRECTION ( 'NONE',  ( 0.000000000000000000, 0.000000000000000000, 1.000000000000000000 ) ) ;
#99 = CARTESIAN_POINT ( 'NONE',  ( 0.000000000000000000, 0.000000000000000000, 0.000000000000000000 ) ) ;
#100 = DIRECTION ( 'NONE',  ( 0.000000000000000000, 0.000000000000000000, 1.000000000000000000 ) ) ;
#101 = PERSON_AND_ORGANIZATION ( #220, #133 ) ;
#102 = CC_DESIGN_PERSON_AND_ORGANIZATION_ASSIGNMENT ( #87, #120, ( #154 ) ) ;
#103 = DATE_AND_TIME ( #235, #219 ) ;
#104 = ORIENTED_EDGE ( 'NONE', *, *, #150, .F. ) ;
#105 = APPROVAL ( #174, 'UNSPECIFIED' ) ;
#106 = DIRECTION ( 'NONE',  ( 0.000000000000000000, 0.000000000000000000, -1.000000000000000000 ) ) ;
#107 = CC_DESIGN_APPROVAL ( #8, ( #78 ) ) ;
#108 = ORIENTED_EDGE ( 'NONE', *, *, #248, .F. ) ;
#109 = CC_DESIGN_DATE_AND_TIME_ASSIGNMENT ( #103, #83, ( #78 ) ) ;
#110 = DIRECTION ( 'NONE',  ( 0.000000000000000000, 1.000000000000000000, 0.000000000000000000 ) ) ;
#111 = AXIS2_PLACEMENT_3D ( 'NONE', #18, #20, #91 ) ;
#112 = DIRECTION ( 'NONE',  ( 0.000000000000000000, 0.000000000000000000, -1.000000000000000000 ) ) ;
#113 = EDGE_LOOP ( 'NONE', ( #10, #21, #222, #36 ) ) ;
#114 = DIRECTION ( 'NONE',  ( -0.000000000000000000, -1.000000000000000000, -0.000000000000000000 ) ) ;
#115 = CALENDAR_DATE ( 2024, 6, 8 ) ;
#116 = AXIS2_PLACEMENT_3D ( 'NONE', #44, #110, #190 ) ;
#117 = FACE_OUTER_BOUND ( 'NONE', #198, .T. ) ;
#118 = PRODUCT_DEFINITION_SHAPE ( 'NONE', 'NONE',  #189 ) ;
#119 = AXIS2_PLACEMENT_3D ( 'NONE', #26, #168, #212 ) ;
#120 = PERSON_AND_ORGANIZATION_ROLE ( 'design_supplier' ) ;
#121 = VERTEX_POINT ( 'NONE', #90 ) ;
#122 = CC_DESIGN_PERSON_AND_ORGANIZATION_ASSIGNMENT ( #227, #60, ( #189 ) ) ;
#123 = VERTEX_POINT ( 'NONE', #59 ) ;
#124 = ORIENTED_EDGE ( 'NONE', *, *, #19, .T. ) ;
#125 = FACE_BOUND ( 'NONE', #180, .T. ) ;
#126 = ORIENTED_EDGE ( 'NONE', *, *, #150, .T. ) ;
#127 = FACE_OUTER_BOUND ( 'NONE', #52, .T. ) ;
#128 = LOCAL_TIME ( 11, 32, 7.000000000000000000, #176 ) ;
#129 = EDGE_LOOP ( 'NONE', ( #57, #185, #31, #149 ) ) ;
#130 = AXIS2_PLACEMENT_3D ( 'NONE', #94, #164, #72 ) ;
#131 = CARTESIAN_POINT ( 'NONE',  ( 0.000000000000000000, 4.000000000000000000, 0.000000000000000000 ) ) ;
#132 =( NAMED_UNIT ( * ) SI_UNIT ( $, .STERADIAN. ) SOLID_ANGLE_UNIT ( ) );
#133 = ORGANIZATION ( 'UNSPECIFIED', 'UNSPECIFIED', '' ) ;
#134 = CARTESIAN_POINT ( 'NONE',  ( 0.000000000000000000, 4.000000000000000000, -80.15000000000000568 ) ) ;
#135 = CC_DESIGN_DATE_AND_TIME_ASSIGNMENT ( #13, #32, ( #189 ) ) ;
#136 = DIRECTION ( 'NONE',  ( -0.000000000000000000, -1.000000000000000000, -0.000000000000000000 ) ) ;
#137 = DIRECTION ( 'NONE',  ( 0.000000000000000000, 1.000000000000000000, 0.000000000000000000 ) ) ;
#138 = PERSON_AND_ORGANIZATION_ROLE ( 'creator' ) ;
#139 = CIRCLE ( 'NONE', #50, 80.15000000000000568 ) ;
#140 = ORIENTED_EDGE ( 'NONE', *, *, #181, .F. ) ;
#141 = DATE_AND_TIME ( #88, #128 ) ;
#142 = AXIS2_PLACEMENT_3D ( 'NONE', #245, #224, #73 ) ;
#143 = PERSON_AND_ORGANIZATION ( #220, #133 ) ;
#144 = CARTESIAN_POINT ( 'NONE',  ( 0.000000000000000000, 0.000000000000000000, -80.15000000000000568 ) ) ;
#145 = CARTESIAN_POINT ( 'NONE',  ( 0.000000000000000000, 4.000000000000000000, -30.15000000000000213 ) ) ;
#146 = EDGE_CURVE ( 'NONE', #121, #179, #223, .T. ) ;
#147 = FACE_OUTER_BOUND ( 'NONE', #113, .T. ) ;
#148 = VERTEX_POINT ( 'NONE', #96 ) ;
#149 = ORIENTED_EDGE ( 'NONE', *, *, #248, .T. ) ;
#150 = EDGE_CURVE ( 'NONE', #165, #203, #6, .T. ) ;
#151 = APPLICATION_PROTOCOL_DEFINITION ( 'international standard', 'config_control_design', 1994, #241 ) ;
#152 = DIRECTION ( 'NONE',  ( -0.000000000000000000, -1.000000000000000000, -0.000000000000000000 ) ) ;
#153 = PERSON_AND_ORGANIZATION ( #220, #133 ) ;
#154 = PRODUCT_DEFINITION_FORMATION_WITH_SPECIFIED_SOURCE ( 'ANY', '', #27, .NOT_KNOWN. ) ;
#155 = CC_DESIGN_PERSON_AND_ORGANIZATION_ASSIGNMENT ( #199, #138, ( #154 ) ) ;
#156 = DIRECTION ( 'NONE',  ( 0.000000000000000000, 0.000000000000000000, -1.000000000000000000 ) ) ;
#157 = MECHANICAL_CONTEXT ( 'NONE', #64, 'mechanical' ) ;
#158 = APPROVAL_DATE_TIME ( #141, #95 ) ;
#159 = EDGE_LOOP ( 'NONE', ( #93, #202 ) ) ;
#160 = CALENDAR_DATE ( 2024, 6, 8 ) ;
#161 = APPROVAL_DATE_TIME ( #242, #8 ) ;
#162 = CIRCLE ( 'NONE', #58, 80.15000000000000568 ) ;
#163 = CARTESIAN_POINT ( 'NONE',  ( 9.815544095166035693E-15, 0.000000000000000000, 80.15000000000000568 ) ) ;
#164 = DIRECTION ( 'NONE',  ( 0.000000000000000000, 1.000000000000000000, 0.000000000000000000 ) ) ;
#165 = VERTEX_POINT ( 'NONE', #249 ) ;
#166 = CARTESIAN_POINT ( 'NONE',  ( 0.000000000000000000, 4.000000000000000000, 0.000000000000000000 ) ) ;
#167 = PLANE ( 'NONE',  #116 ) ;
#168 = DIRECTION ( 'NONE',  ( -0.000000000000000000, -1.000000000000000000, -0.000000000000000000 ) ) ;
#169 = DIRECTION ( 'NONE',  ( 0.000000000000000000, 1.000000000000000000, 0.000000000000000000 ) ) ;
#170 = CC_DESIGN_SECURITY_CLASSIFICATION ( #78, ( #154 ) ) ;
#171 = CARTESIAN_POINT ( 'NONE',  ( 0.000000000000000000, 0.000000000000000000, 0.000000000000000000 ) ) ;
#172 = ADVANCED_FACE ( 'NONE', ( #210, #125 ), #167, .F. ) ;
#173 = MANIFOLD_SOLID_BREP ( 'Aufsatz-Linear austragen1', #42 ) ;
#174 = APPROVAL_STATUS ( 'not_yet_approved' ) ;
#175 = APPROVAL_PERSON_ORGANIZATION ( #143, #95, #243 ) ;
#176 = COORDINATED_UNIVERSAL_TIME_OFFSET ( 1, 0, .AHEAD. ) ;
#177 = ADVANCED_BREP_SHAPE_REPRESENTATION ( '3D_R245_60.3x4_17386130', ( #173, #41 ), #12 ) ;
#178 = COORDINATED_UNIVERSAL_TIME_OFFSET ( 1, 0, .AHEAD. ) ;
#179 = VERTEX_POINT ( 'NONE', #163 ) ;
#180 = EDGE_LOOP ( 'NONE', ( #201, #126 ) ) ;
#181 = EDGE_CURVE ( 'NONE', #148, #14, #68, .T. ) ;
#182 = EDGE_LOOP ( 'NONE', ( #108, #186 ) ) ;
#183 = ORIENTED_EDGE ( 'NONE', *, *, #244, .F. ) ;
#184 = AXIS2_PLACEMENT_3D ( 'NONE', #191, #214, #98 ) ;
#185 = ORIENTED_EDGE ( 'NONE', *, *, #45, .F. ) ;
#186 = ORIENTED_EDGE ( 'NONE', *, *, #200, .F. ) ;
#187 = ORIENTED_EDGE ( 'NONE', *, *, #200, .T. ) ;
#188 = DIRECTION ( 'NONE',  ( 0.000000000000000000, 1.000000000000000000, 0.000000000000000000 ) ) ;
#189 = PRODUCT_DEFINITION ( 'UNKNOWN', '', #154, #213 ) ;
#190 = DIRECTION ( 'NONE',  ( 0.000000000000000000, -0.000000000000000000, 1.000000000000000000 ) ) ;
#191 = CARTESIAN_POINT ( 'NONE',  ( 0.000000000000000000, 0.000000000000000000, 0.000000000000000000 ) ) ;
#192 = ADVANCED_FACE ( 'NONE', ( #63 ), #4, .T. ) ;
#193 = PERSON_AND_ORGANIZATION ( #220, #133 ) ;
#194 = DIRECTION ( 'NONE',  ( 0.000000000000000000, 0.000000000000000000, 1.000000000000000000 ) ) ;
#195 = AXIS2_PLACEMENT_3D ( 'NONE', #43, #55, #112 ) ;
#196 = CC_DESIGN_PERSON_AND_ORGANIZATION_ASSIGNMENT ( #153, #230, ( #27 ) ) ;
#197 = SECURITY_CLASSIFICATION_LEVEL ( 'unclassified' ) ;
#198 = EDGE_LOOP ( 'NONE', ( #183, #124, #237, #104 ) ) ;
#199 = PERSON_AND_ORGANIZATION ( #220, #133 ) ;
#200 = EDGE_CURVE ( 'NONE', #179, #69, #139, .T. ) ;
#201 = ORIENTED_EDGE ( 'NONE', *, *, #239, .T. ) ;
#202 = ORIENTED_EDGE ( 'NONE', *, *, #62, .T. ) ;
#203 = VERTEX_POINT ( 'NONE', #61 ) ;
#204 = AXIS2_PLACEMENT_3D ( 'NONE', #75, #169, #79 ) ;
#205 = DIRECTION ( 'NONE',  ( -0.000000000000000000, -1.000000000000000000, -0.000000000000000000 ) ) ;
#206 = CARTESIAN_POINT ( 'NONE',  ( 9.815544095166035693E-15, 4.000000000000000000, 80.15000000000000568 ) ) ;
#207 = LOCAL_TIME ( 11, 32, 7.000000000000000000, #85 ) ;
#208 = ADVANCED_FACE ( 'NONE', ( #117 ), #76, .F. ) ;
#209 = CYLINDRICAL_SURFACE ( 'NONE', #89, 80.15000000000000568 ) ;
#210 = FACE_OUTER_BOUND ( 'NONE', #182, .T. ) ;
#211 =( NAMED_UNIT ( * ) PLANE_ANGLE_UNIT ( ) SI_UNIT ( $, .RADIAN. ) );
#212 = DIRECTION ( 'NONE',  ( 0.000000000000000000, 0.000000000000000000, -1.000000000000000000 ) ) ;
#213 = DESIGN_CONTEXT ( 'detailed design', #241, 'design' ) ;
#214 = DIRECTION ( 'NONE',  ( 0.000000000000000000, 1.000000000000000000, 0.000000000000000000 ) ) ;
#215 = CIRCLE ( 'NONE', #111, 80.15000000000000568 ) ;
#216 = VECTOR ( 'NONE', #152, 1000.000000000000000 ) ;
#217 = PERSON_AND_ORGANIZATION ( #220, #133 ) ;
#218 = EDGE_CURVE ( 'NONE', #123, #69, #46, .T. ) ;
#219 = LOCAL_TIME ( 11, 32, 7.000000000000000000, #178 ) ;
#220 = PERSON ( 'UNSPECIFIED', 'UNSPECIFIED', 'UNSPECIFIED', ('UNSPECIFIED'), ('UNSPECIFIED'), ('UNSPECIFIED') ) ;
#221 = DIRECTION ( 'NONE',  ( 0.000000000000000000, 1.000000000000000000, 0.000000000000000000 ) ) ;
#222 = ORIENTED_EDGE ( 'NONE', *, *, #239, .F. ) ;
#223 = LINE ( 'NONE', #206, #15 ) ;
#224 = DIRECTION ( 'NONE',  ( 0.000000000000000000, 1.000000000000000000, 0.000000000000000000 ) ) ;
#225 = CIRCLE ( 'NONE', #130, 30.15000000000000213 ) ;
#226 = DIRECTION ( 'NONE',  ( -0.000000000000000000, -1.000000000000000000, -0.000000000000000000 ) ) ;
#227 = PERSON_AND_ORGANIZATION ( #220, #133 ) ;
#228 = DIRECTION ( 'NONE',  ( 0.000000000000000000, 0.000000000000000000, 1.000000000000000000 ) ) ;
#229 = CC_DESIGN_APPROVAL ( #105, ( #189 ) ) ;
#230 = PERSON_AND_ORGANIZATION_ROLE ( 'design_owner' ) ;
#231 = LINE ( 'NONE', #49, #216 ) ;
#232 = PRODUCT_RELATED_PRODUCT_CATEGORY ( 'detail', '', ( #27 ) ) ;
#233 = APPROVAL_ROLE ( '' ) ;
#234 = UNCERTAINTY_MEASURE_WITH_UNIT (LENGTH_MEASURE( 1.000000000000000082E-05 ), #77, 'distance_accuracy_value', 'NONE');
#235 = CALENDAR_DATE ( 2024, 6, 8 ) ;
#236 = APPROVAL_PERSON_ORGANIZATION ( #217, #8, #30 ) ;
#237 = ORIENTED_EDGE ( 'NONE', *, *, #38, .T. ) ;
#238 = APPROVAL_STATUS ( 'not_yet_approved' ) ;
#239 = EDGE_CURVE ( 'NONE', #203, #165, #37, .T. ) ;
#240 = CIRCLE ( 'NONE', #184, 80.15000000000000568 ) ;
#241 = APPLICATION_CONTEXT ( 'configuration controlled 3d designs of mechanical parts and assemblies' ) ;
#242 = DATE_AND_TIME ( #160, #47 ) ;
#243 = APPROVAL_ROLE ( '' ) ;
#244 = EDGE_CURVE ( 'NONE', #14, #165, #231, .T. ) ;
#245 = CARTESIAN_POINT ( 'NONE',  ( 0.000000000000000000, 0.000000000000000000, 0.000000000000000000 ) ) ;
#246 = FACE_OUTER_BOUND ( 'NONE', #159, .T. ) ;
#247 = FACE_BOUND ( 'NONE', #67, .T. ) ;
#248 = EDGE_CURVE ( 'NONE', #69, #179, #240, .T. ) ;
#249 = CARTESIAN_POINT ( 'NONE',  ( 3.692310099429270397E-15, 0.000000000000000000, 30.15000000000000213 ) ) ;
ENDSEC;
END-ISO-10303-21;
