ISO-10303-21;
HEADER;
/* Generated by software containing ST-Developer
 * from STEP Tools, Inc. (www.steptools.com) 
 */

FILE_DESCRIPTION(
/* description */ (''),
/* implementation_level */ '2;1');

FILE_NAME(
/* name */ 
'C:\\Users\\cad\\Desktop\\Zeichnungen neu von Ralph\\3D_Kupplung_R134-
SE\\3D_R134-SE-13.5-13.5_171011200.stp',
/* time_stamp */ '2021-06-14T15:21:26+02:00',
/* author */ ('cad'),
/* organization */ (''),
/* preprocessor_version */ 'ST-DEVELOPER v18.1',
/* originating_system */ 'Autodesk Inventor 2022',
/* authorisation */ '');

FILE_SCHEMA (('AUTOMOTIVE_DESIGN { 1 0 10303 214 3 1 1 }'));
ENDSEC;

DATA;
#10=MECHANICAL_DESIGN_GEOMETRIC_PRESENTATION_REPRESENTATION('',(#13),#575);
#11=SHAPE_REPRESENTATION_RELATIONSHIP('SRR','None',#582,#12);
#12=ADVANCED_BREP_SHAPE_REPRESENTATION('',(#14),#574);
#13=STYLED_ITEM('',(#591),#14);
#14=MANIFOLD_SOLID_BREP('Volumenk\X\F6rper1',#302);
#15=TOROIDAL_SURFACE('',#352,7.75000000000001,1.);
#16=TOROIDAL_SURFACE('',#358,9.4,0.4);
#17=TOROIDAL_SURFACE('',#360,10.2090093457251,0.4);
#18=TOROIDAL_SURFACE('',#367,8.78068750211136,0.2);
#19=CYLINDRICAL_SURFACE('',#328,9.);
#20=CYLINDRICAL_SURFACE('',#335,5.15000000000001);
#21=CYLINDRICAL_SURFACE('',#343,11.);
#22=CYLINDRICAL_SURFACE('',#356,6.75000000000001);
#23=FACE_BOUND('',#54,.T.);
#24=FACE_BOUND('',#59,.T.);
#25=FACE_BOUND('',#63,.T.);
#26=FACE_BOUND('',#66,.T.);
#27=FACE_BOUND('',#74,.T.);
#28=PLANE('',#326);
#29=PLANE('',#337);
#30=PLANE('',#346);
#31=PLANE('',#350);
#32=PLANE('',#370);
#33=FACE_OUTER_BOUND('',#52,.T.);
#34=FACE_OUTER_BOUND('',#53,.T.);
#35=FACE_OUTER_BOUND('',#55,.T.);
#36=FACE_OUTER_BOUND('',#56,.T.);
#37=FACE_OUTER_BOUND('',#57,.T.);
#38=FACE_OUTER_BOUND('',#58,.T.);
#39=FACE_OUTER_BOUND('',#60,.T.);
#40=FACE_OUTER_BOUND('',#61,.T.);
#41=FACE_OUTER_BOUND('',#62,.T.);
#42=FACE_OUTER_BOUND('',#64,.T.);
#43=FACE_OUTER_BOUND('',#65,.T.);
#44=FACE_OUTER_BOUND('',#67,.T.);
#45=FACE_OUTER_BOUND('',#68,.T.);
#46=FACE_OUTER_BOUND('',#69,.T.);
#47=FACE_OUTER_BOUND('',#70,.T.);
#48=FACE_OUTER_BOUND('',#71,.T.);
#49=FACE_OUTER_BOUND('',#72,.T.);
#50=FACE_OUTER_BOUND('',#73,.T.);
#51=FACE_OUTER_BOUND('',#75,.T.);
#52=EDGE_LOOP('',(#195,#196,#197,#198,#199));
#53=EDGE_LOOP('',(#200));
#54=EDGE_LOOP('',(#201));
#55=EDGE_LOOP('',(#202,#203,#204,#205,#206,#207));
#56=EDGE_LOOP('',(#208,#209,#210,#211,#212));
#57=EDGE_LOOP('',(#213,#214,#215,#216,#217));
#58=EDGE_LOOP('',(#218));
#59=EDGE_LOOP('',(#219));
#60=EDGE_LOOP('',(#220,#221,#222,#223,#224));
#61=EDGE_LOOP('',(#225,#226,#227,#228,#229,#230));
#62=EDGE_LOOP('',(#231));
#63=EDGE_LOOP('',(#232));
#64=EDGE_LOOP('',(#233,#234,#235,#236,#237));
#65=EDGE_LOOP('',(#238));
#66=EDGE_LOOP('',(#239));
#67=EDGE_LOOP('',(#240,#241,#242,#243,#244));
#68=EDGE_LOOP('',(#245,#246,#247,#248,#249));
#69=EDGE_LOOP('',(#250,#251,#252,#253,#254));
#70=EDGE_LOOP('',(#255,#256,#257,#258,#259));
#71=EDGE_LOOP('',(#260,#261,#262,#263,#264,#265));
#72=EDGE_LOOP('',(#266,#267,#268,#269,#270));
#73=EDGE_LOOP('',(#271));
#74=EDGE_LOOP('',(#272));
#75=EDGE_LOOP('',(#273,#274,#275,#276));
#76=LINE('',#491,#86);
#77=LINE('',#500,#87);
#78=LINE('',#506,#88);
#79=LINE('',#513,#89);
#80=LINE('',#523,#90);
#81=LINE('',#530,#91);
#82=LINE('',#537,#92);
#83=LINE('',#549,#93);
#84=LINE('',#563,#94);
#85=LINE('',#571,#95);
#86=VECTOR('',#380,8.84999999999999);
#87=VECTOR('',#391,9.);
#88=VECTOR('',#398,5.30000000000001);
#89=VECTOR('',#407,5.15000000000001);
#90=VECTOR('',#418,10.85);
#91=VECTOR('',#427,11.);
#92=VECTOR('',#436,10.85);
#93=VECTOR('',#451,6.75000000000001);
#94=VECTOR('',#470,9.4101921749739);
#95=VECTOR('',#483,6.35000000000002);
#96=CIRCLE('',#323,9.);
#97=CIRCLE('',#324,9.);
#98=CIRCLE('',#325,8.7);
#99=CIRCLE('',#327,7.75000000000001);
#100=CIRCLE('',#329,9.);
#101=CIRCLE('',#330,9.);
#102=CIRCLE('',#332,5.45000000000002);
#103=CIRCLE('',#333,5.15000000000001);
#104=CIRCLE('',#334,5.15000000000001);
#105=CIRCLE('',#336,5.15000000000001);
#106=CIRCLE('',#338,5.95000000000002);
#107=CIRCLE('',#340,11.);
#108=CIRCLE('',#341,11.);
#109=CIRCLE('',#342,10.7);
#110=CIRCLE('',#344,11.);
#111=CIRCLE('',#345,11.);
#112=CIRCLE('',#347,9.4);
#113=CIRCLE('',#349,10.7);
#114=CIRCLE('',#351,10.2090093457251);
#115=CIRCLE('',#353,6.75000000000001);
#116=CIRCLE('',#354,1.);
#117=CIRCLE('',#355,6.75000000000001);
#118=CIRCLE('',#357,6.75000000000002);
#119=CIRCLE('',#359,0.4);
#120=CIRCLE('',#361,0.4);
#121=CIRCLE('',#362,9.81449510511018);
#122=CIRCLE('',#363,9.81449510511018);
#123=CIRCLE('',#365,8.97794462241881);
#124=CIRCLE('',#366,8.97794462241881);
#125=CIRCLE('',#368,8.78068750211136);
#126=CIRCLE('',#369,0.2);
#127=VERTEX_POINT('',#486);
#128=VERTEX_POINT('',#487);
#129=VERTEX_POINT('',#490);
#130=VERTEX_POINT('',#494);
#131=VERTEX_POINT('',#497);
#132=VERTEX_POINT('',#498);
#133=VERTEX_POINT('',#503);
#134=VERTEX_POINT('',#505);
#135=VERTEX_POINT('',#507);
#136=VERTEX_POINT('',#511);
#137=VERTEX_POINT('',#515);
#138=VERTEX_POINT('',#518);
#139=VERTEX_POINT('',#519);
#140=VERTEX_POINT('',#522);
#141=VERTEX_POINT('',#526);
#142=VERTEX_POINT('',#527);
#143=VERTEX_POINT('',#532);
#144=VERTEX_POINT('',#535);
#145=VERTEX_POINT('',#539);
#146=VERTEX_POINT('',#542);
#147=VERTEX_POINT('',#543);
#148=VERTEX_POINT('',#548);
#149=VERTEX_POINT('',#554);
#150=VERTEX_POINT('',#556);
#151=VERTEX_POINT('',#560);
#152=VERTEX_POINT('',#561);
#153=VERTEX_POINT('',#566);
#154=EDGE_CURVE('',#127,#128,#96,.T.);
#155=EDGE_CURVE('',#128,#127,#97,.T.);
#156=EDGE_CURVE('',#127,#129,#76,.T.);
#157=EDGE_CURVE('',#129,#129,#98,.T.);
#158=EDGE_CURVE('',#130,#130,#99,.T.);
#159=EDGE_CURVE('',#131,#132,#100,.T.);
#160=EDGE_CURVE('',#131,#128,#77,.T.);
#161=EDGE_CURVE('',#132,#131,#101,.T.);
#162=EDGE_CURVE('',#133,#133,#102,.T.);
#163=EDGE_CURVE('',#133,#134,#78,.T.);
#164=EDGE_CURVE('',#134,#135,#103,.T.);
#165=EDGE_CURVE('',#135,#134,#104,.T.);
#166=EDGE_CURVE('',#136,#136,#105,.T.);
#167=EDGE_CURVE('',#136,#135,#79,.T.);
#168=EDGE_CURVE('',#137,#137,#106,.T.);
#169=EDGE_CURVE('',#138,#139,#107,.T.);
#170=EDGE_CURVE('',#139,#138,#108,.T.);
#171=EDGE_CURVE('',#138,#140,#80,.T.);
#172=EDGE_CURVE('',#140,#140,#109,.T.);
#173=EDGE_CURVE('',#141,#142,#110,.T.);
#174=EDGE_CURVE('',#142,#141,#111,.T.);
#175=EDGE_CURVE('',#142,#139,#81,.T.);
#176=EDGE_CURVE('',#143,#143,#112,.T.);
#177=EDGE_CURVE('',#144,#144,#113,.T.);
#178=EDGE_CURVE('',#144,#141,#82,.T.);
#179=EDGE_CURVE('',#145,#145,#114,.T.);
#180=EDGE_CURVE('',#146,#147,#115,.T.);
#181=EDGE_CURVE('',#147,#130,#116,.T.);
#182=EDGE_CURVE('',#147,#146,#117,.T.);
#183=EDGE_CURVE('',#146,#148,#83,.T.);
#184=EDGE_CURVE('',#148,#148,#118,.T.);
#185=EDGE_CURVE('',#132,#143,#119,.T.);
#186=EDGE_CURVE('',#145,#149,#120,.T.);
#187=EDGE_CURVE('',#149,#150,#121,.T.);
#188=EDGE_CURVE('',#150,#149,#122,.T.);
#189=EDGE_CURVE('',#151,#152,#123,.T.);
#190=EDGE_CURVE('',#151,#150,#84,.T.);
#191=EDGE_CURVE('',#152,#151,#124,.T.);
#192=EDGE_CURVE('',#153,#153,#125,.T.);
#193=EDGE_CURVE('',#153,#152,#126,.T.);
#194=EDGE_CURVE('',#148,#137,#85,.T.);
#195=ORIENTED_EDGE('',*,*,#154,.T.);
#196=ORIENTED_EDGE('',*,*,#155,.T.);
#197=ORIENTED_EDGE('',*,*,#156,.T.);
#198=ORIENTED_EDGE('',*,*,#157,.T.);
#199=ORIENTED_EDGE('',*,*,#156,.F.);
#200=ORIENTED_EDGE('',*,*,#157,.F.);
#201=ORIENTED_EDGE('',*,*,#158,.F.);
#202=ORIENTED_EDGE('',*,*,#159,.F.);
#203=ORIENTED_EDGE('',*,*,#160,.T.);
#204=ORIENTED_EDGE('',*,*,#154,.F.);
#205=ORIENTED_EDGE('',*,*,#155,.F.);
#206=ORIENTED_EDGE('',*,*,#160,.F.);
#207=ORIENTED_EDGE('',*,*,#161,.F.);
#208=ORIENTED_EDGE('',*,*,#162,.T.);
#209=ORIENTED_EDGE('',*,*,#163,.T.);
#210=ORIENTED_EDGE('',*,*,#164,.T.);
#211=ORIENTED_EDGE('',*,*,#165,.T.);
#212=ORIENTED_EDGE('',*,*,#163,.F.);
#213=ORIENTED_EDGE('',*,*,#166,.T.);
#214=ORIENTED_EDGE('',*,*,#167,.T.);
#215=ORIENTED_EDGE('',*,*,#164,.F.);
#216=ORIENTED_EDGE('',*,*,#165,.F.);
#217=ORIENTED_EDGE('',*,*,#167,.F.);
#218=ORIENTED_EDGE('',*,*,#168,.F.);
#219=ORIENTED_EDGE('',*,*,#162,.F.);
#220=ORIENTED_EDGE('',*,*,#169,.T.);
#221=ORIENTED_EDGE('',*,*,#170,.T.);
#222=ORIENTED_EDGE('',*,*,#171,.T.);
#223=ORIENTED_EDGE('',*,*,#172,.T.);
#224=ORIENTED_EDGE('',*,*,#171,.F.);
#225=ORIENTED_EDGE('',*,*,#173,.F.);
#226=ORIENTED_EDGE('',*,*,#174,.F.);
#227=ORIENTED_EDGE('',*,*,#175,.T.);
#228=ORIENTED_EDGE('',*,*,#169,.F.);
#229=ORIENTED_EDGE('',*,*,#170,.F.);
#230=ORIENTED_EDGE('',*,*,#175,.F.);
#231=ORIENTED_EDGE('',*,*,#172,.F.);
#232=ORIENTED_EDGE('',*,*,#176,.F.);
#233=ORIENTED_EDGE('',*,*,#177,.T.);
#234=ORIENTED_EDGE('',*,*,#178,.T.);
#235=ORIENTED_EDGE('',*,*,#173,.T.);
#236=ORIENTED_EDGE('',*,*,#174,.T.);
#237=ORIENTED_EDGE('',*,*,#178,.F.);
#238=ORIENTED_EDGE('',*,*,#177,.F.);
#239=ORIENTED_EDGE('',*,*,#179,.F.);
#240=ORIENTED_EDGE('',*,*,#180,.T.);
#241=ORIENTED_EDGE('',*,*,#181,.T.);
#242=ORIENTED_EDGE('',*,*,#158,.T.);
#243=ORIENTED_EDGE('',*,*,#181,.F.);
#244=ORIENTED_EDGE('',*,*,#182,.T.);
#245=ORIENTED_EDGE('',*,*,#180,.F.);
#246=ORIENTED_EDGE('',*,*,#183,.T.);
#247=ORIENTED_EDGE('',*,*,#184,.T.);
#248=ORIENTED_EDGE('',*,*,#183,.F.);
#249=ORIENTED_EDGE('',*,*,#182,.F.);
#250=ORIENTED_EDGE('',*,*,#159,.T.);
#251=ORIENTED_EDGE('',*,*,#185,.T.);
#252=ORIENTED_EDGE('',*,*,#176,.T.);
#253=ORIENTED_EDGE('',*,*,#185,.F.);
#254=ORIENTED_EDGE('',*,*,#161,.T.);
#255=ORIENTED_EDGE('',*,*,#179,.T.);
#256=ORIENTED_EDGE('',*,*,#186,.T.);
#257=ORIENTED_EDGE('',*,*,#187,.T.);
#258=ORIENTED_EDGE('',*,*,#188,.T.);
#259=ORIENTED_EDGE('',*,*,#186,.F.);
#260=ORIENTED_EDGE('',*,*,#189,.F.);
#261=ORIENTED_EDGE('',*,*,#190,.T.);
#262=ORIENTED_EDGE('',*,*,#187,.F.);
#263=ORIENTED_EDGE('',*,*,#188,.F.);
#264=ORIENTED_EDGE('',*,*,#190,.F.);
#265=ORIENTED_EDGE('',*,*,#191,.F.);
#266=ORIENTED_EDGE('',*,*,#192,.T.);
#267=ORIENTED_EDGE('',*,*,#193,.T.);
#268=ORIENTED_EDGE('',*,*,#191,.T.);
#269=ORIENTED_EDGE('',*,*,#189,.T.);
#270=ORIENTED_EDGE('',*,*,#193,.F.);
#271=ORIENTED_EDGE('',*,*,#192,.F.);
#272=ORIENTED_EDGE('',*,*,#166,.F.);
#273=ORIENTED_EDGE('',*,*,#184,.F.);
#274=ORIENTED_EDGE('',*,*,#194,.T.);
#275=ORIENTED_EDGE('',*,*,#168,.T.);
#276=ORIENTED_EDGE('',*,*,#194,.F.);
#277=CONICAL_SURFACE('',#322,8.85,0.785398163397446);
#278=CONICAL_SURFACE('',#331,5.30000000000002,0.785398163397469);
#279=CONICAL_SURFACE('',#339,10.85,0.785398163397444);
#280=CONICAL_SURFACE('',#348,10.85,0.785398163397455);
#281=CONICAL_SURFACE('',#364,9.4101921749739,0.165806278939461);
#282=CONICAL_SURFACE('',#371,6.35000000000002,1.0471975511966);
#283=ADVANCED_FACE('',(#33),#277,.T.);
#284=ADVANCED_FACE('',(#34,#23),#28,.T.);
#285=ADVANCED_FACE('',(#35),#19,.T.);
#286=ADVANCED_FACE('',(#36),#278,.F.);
#287=ADVANCED_FACE('',(#37),#20,.F.);
#288=ADVANCED_FACE('',(#38,#24),#29,.T.);
#289=ADVANCED_FACE('',(#39),#279,.T.);
#290=ADVANCED_FACE('',(#40),#21,.T.);
#291=ADVANCED_FACE('',(#41,#25),#30,.T.);
#292=ADVANCED_FACE('',(#42),#280,.T.);
#293=ADVANCED_FACE('',(#43,#26),#31,.T.);
#294=ADVANCED_FACE('',(#44),#15,.F.);
#295=ADVANCED_FACE('',(#45),#22,.T.);
#296=ADVANCED_FACE('',(#46),#16,.F.);
#297=ADVANCED_FACE('',(#47),#17,.F.);
#298=ADVANCED_FACE('',(#48),#281,.T.);
#299=ADVANCED_FACE('',(#49),#18,.T.);
#300=ADVANCED_FACE('',(#50,#27),#32,.T.);
#301=ADVANCED_FACE('',(#51),#282,.T.);
#302=CLOSED_SHELL('',(#283,#284,#285,#286,#287,#288,#289,#290,#291,#292,
#293,#294,#295,#296,#297,#298,#299,#300,#301));
#303=DERIVED_UNIT_ELEMENT(#305,1.);
#304=DERIVED_UNIT_ELEMENT(#577,-3.);
#305=(
MASS_UNIT()
NAMED_UNIT(*)
SI_UNIT($,.GRAM.)
);
#306=DERIVED_UNIT((#303,#304));
#307=MEASURE_REPRESENTATION_ITEM('density measure',
POSITIVE_RATIO_MEASURE(1.),#306);
#308=PROPERTY_DEFINITION_REPRESENTATION(#313,#310);
#309=PROPERTY_DEFINITION_REPRESENTATION(#314,#311);
#310=REPRESENTATION('material name',(#312),#574);
#311=REPRESENTATION('density',(#307),#574);
#312=DESCRIPTIVE_REPRESENTATION_ITEM('Generisch','Generisch');
#313=PROPERTY_DEFINITION('material property','material name',#584);
#314=PROPERTY_DEFINITION('material property','density of part',#584);
#315=DATE_TIME_ROLE('creation_date');
#316=APPLIED_DATE_AND_TIME_ASSIGNMENT(#317,#315,(#584));
#317=DATE_AND_TIME(#318,#319);
#318=CALENDAR_DATE(2021,14,6);
#319=LOCAL_TIME(0,0,0.,#320);
#320=COORDINATED_UNIVERSAL_TIME_OFFSET(0,0,.BEHIND.);
#321=AXIS2_PLACEMENT_3D('placement',#484,#372,#373);
#322=AXIS2_PLACEMENT_3D('',#485,#374,#375);
#323=AXIS2_PLACEMENT_3D('',#488,#376,#377);
#324=AXIS2_PLACEMENT_3D('',#489,#378,#379);
#325=AXIS2_PLACEMENT_3D('',#492,#381,#382);
#326=AXIS2_PLACEMENT_3D('',#493,#383,#384);
#327=AXIS2_PLACEMENT_3D('',#495,#385,#386);
#328=AXIS2_PLACEMENT_3D('',#496,#387,#388);
#329=AXIS2_PLACEMENT_3D('',#499,#389,#390);
#330=AXIS2_PLACEMENT_3D('',#501,#392,#393);
#331=AXIS2_PLACEMENT_3D('',#502,#394,#395);
#332=AXIS2_PLACEMENT_3D('',#504,#396,#397);
#333=AXIS2_PLACEMENT_3D('',#508,#399,#400);
#334=AXIS2_PLACEMENT_3D('',#509,#401,#402);
#335=AXIS2_PLACEMENT_3D('',#510,#403,#404);
#336=AXIS2_PLACEMENT_3D('',#512,#405,#406);
#337=AXIS2_PLACEMENT_3D('',#514,#408,#409);
#338=AXIS2_PLACEMENT_3D('',#516,#410,#411);
#339=AXIS2_PLACEMENT_3D('',#517,#412,#413);
#340=AXIS2_PLACEMENT_3D('',#520,#414,#415);
#341=AXIS2_PLACEMENT_3D('',#521,#416,#417);
#342=AXIS2_PLACEMENT_3D('',#524,#419,#420);
#343=AXIS2_PLACEMENT_3D('',#525,#421,#422);
#344=AXIS2_PLACEMENT_3D('',#528,#423,#424);
#345=AXIS2_PLACEMENT_3D('',#529,#425,#426);
#346=AXIS2_PLACEMENT_3D('',#531,#428,#429);
#347=AXIS2_PLACEMENT_3D('',#533,#430,#431);
#348=AXIS2_PLACEMENT_3D('',#534,#432,#433);
#349=AXIS2_PLACEMENT_3D('',#536,#434,#435);
#350=AXIS2_PLACEMENT_3D('',#538,#437,#438);
#351=AXIS2_PLACEMENT_3D('',#540,#439,#440);
#352=AXIS2_PLACEMENT_3D('',#541,#441,#442);
#353=AXIS2_PLACEMENT_3D('',#544,#443,#444);
#354=AXIS2_PLACEMENT_3D('',#545,#445,#446);
#355=AXIS2_PLACEMENT_3D('',#546,#447,#448);
#356=AXIS2_PLACEMENT_3D('',#547,#449,#450);
#357=AXIS2_PLACEMENT_3D('',#550,#452,#453);
#358=AXIS2_PLACEMENT_3D('',#551,#454,#455);
#359=AXIS2_PLACEMENT_3D('',#552,#456,#457);
#360=AXIS2_PLACEMENT_3D('',#553,#458,#459);
#361=AXIS2_PLACEMENT_3D('',#555,#460,#461);
#362=AXIS2_PLACEMENT_3D('',#557,#462,#463);
#363=AXIS2_PLACEMENT_3D('',#558,#464,#465);
#364=AXIS2_PLACEMENT_3D('',#559,#466,#467);
#365=AXIS2_PLACEMENT_3D('',#562,#468,#469);
#366=AXIS2_PLACEMENT_3D('',#564,#471,#472);
#367=AXIS2_PLACEMENT_3D('',#565,#473,#474);
#368=AXIS2_PLACEMENT_3D('',#567,#475,#476);
#369=AXIS2_PLACEMENT_3D('',#568,#477,#478);
#370=AXIS2_PLACEMENT_3D('',#569,#479,#480);
#371=AXIS2_PLACEMENT_3D('',#570,#481,#482);
#372=DIRECTION('axis',(0.,0.,1.));
#373=DIRECTION('refdir',(1.,0.,0.));
#374=DIRECTION('center_axis',(1.,1.04094977927525E-15,0.));
#375=DIRECTION('ref_axis',(9.94677471123472E-16,-1.,0.));
#376=DIRECTION('center_axis',(-1.,-1.04094977927525E-15,0.));
#377=DIRECTION('ref_axis',(9.4994757324342E-16,-1.,0.));
#378=DIRECTION('center_axis',(-1.,-1.04094977927525E-15,0.));
#379=DIRECTION('ref_axis',(9.4994757324342E-16,-1.,0.));
#380=DIRECTION('',(-0.707106781186548,-0.707106781186547,-8.65956056235492E-17));
#381=DIRECTION('center_axis',(1.,1.04094977927525E-15,0.));
#382=DIRECTION('ref_axis',(1.04094977927525E-15,-1.,0.));
#383=DIRECTION('center_axis',(-1.,-1.04094977927525E-15,0.));
#384=DIRECTION('ref_axis',(0.,0.,1.));
#385=DIRECTION('center_axis',(-1.,-1.04094977927525E-15,0.));
#386=DIRECTION('ref_axis',(1.04094977927525E-15,-1.,1.83697019872103E-16));
#387=DIRECTION('center_axis',(1.,1.04094977927525E-15,0.));
#388=DIRECTION('ref_axis',(-9.4994757324342E-16,1.,0.));
#389=DIRECTION('center_axis',(1.,1.04094977927525E-15,0.));
#390=DIRECTION('ref_axis',(1.04083408558608E-15,-1.,1.83697019872103E-16));
#391=DIRECTION('',(-1.,-1.04094977927525E-15,0.));
#392=DIRECTION('center_axis',(1.,1.04094977927525E-15,0.));
#393=DIRECTION('ref_axis',(1.04083408558608E-15,-1.,1.83697019872103E-16));
#394=DIRECTION('center_axis',(-1.,-1.04094977927525E-15,0.));
#395=DIRECTION('ref_axis',(9.96736443325823E-16,-1.,0.));
#396=DIRECTION('center_axis',(-1.,-1.04094977927525E-15,0.));
#397=DIRECTION('ref_axis',(1.04094977927525E-15,-1.,0.));
#398=DIRECTION('',(0.707106781186533,-0.707106781186562,8.65956056235512E-17));
#399=DIRECTION('center_axis',(1.,1.04094977927525E-15,0.));
#400=DIRECTION('ref_axis',(9.49947573243419E-16,-1.,0.));
#401=DIRECTION('center_axis',(1.,1.04094977927525E-15,0.));
#402=DIRECTION('ref_axis',(9.49947573243419E-16,-1.,0.));
#403=DIRECTION('center_axis',(1.,1.04094977927525E-15,0.));
#404=DIRECTION('ref_axis',(-9.49947573243419E-16,1.,0.));
#405=DIRECTION('center_axis',(1.,1.04094977927525E-15,0.));
#406=DIRECTION('ref_axis',(0.,0.,-1.));
#407=DIRECTION('',(-1.,-1.04094977927525E-15,0.));
#408=DIRECTION('center_axis',(-1.,-1.04094977927525E-15,0.));
#409=DIRECTION('ref_axis',(0.,0.,1.));
#410=DIRECTION('center_axis',(1.,1.04094977927525E-15,0.));
#411=DIRECTION('ref_axis',(0.,0.,-1.));
#412=DIRECTION('center_axis',(1.,1.04094977927525E-15,0.));
#413=DIRECTION('ref_axis',(9.94819628752202E-16,-1.,0.));
#414=DIRECTION('center_axis',(-1.,-1.04094977927525E-15,0.));
#415=DIRECTION('ref_axis',(9.4994757324342E-16,-1.,0.));
#416=DIRECTION('center_axis',(-1.,-1.04094977927525E-15,0.));
#417=DIRECTION('ref_axis',(9.4994757324342E-16,-1.,0.));
#418=DIRECTION('',(-0.707106781186549,-0.707106781186546,-8.65956056235491E-17));
#419=DIRECTION('center_axis',(1.,1.04094977927525E-15,0.));
#420=DIRECTION('ref_axis',(1.04094977927525E-15,-1.,0.));
#421=DIRECTION('center_axis',(1.,1.04094977927525E-15,0.));
#422=DIRECTION('ref_axis',(-9.4994757324342E-16,1.,0.));
#423=DIRECTION('center_axis',(1.,1.04094977927525E-15,0.));
#424=DIRECTION('ref_axis',(9.4994757324342E-16,-1.,0.));
#425=DIRECTION('center_axis',(1.,1.04094977927525E-15,0.));
#426=DIRECTION('ref_axis',(9.4994757324342E-16,-1.,0.));
#427=DIRECTION('',(-1.,-1.04094977927525E-15,0.));
#428=DIRECTION('center_axis',(-1.,-1.04094977927525E-15,0.));
#429=DIRECTION('ref_axis',(0.,0.,1.));
#430=DIRECTION('center_axis',(-1.,-1.04094977927525E-15,0.));
#431=DIRECTION('ref_axis',(1.04094977927525E-15,-1.,1.83697019872103E-16));
#432=DIRECTION('center_axis',(-1.,-1.04094977927525E-15,0.));
#433=DIRECTION('ref_axis',(9.94819628752202E-16,-1.,0.));
#434=DIRECTION('center_axis',(-1.,-1.04094977927525E-15,0.));
#435=DIRECTION('ref_axis',(1.04094977927525E-15,-1.,0.));
#436=DIRECTION('',(-0.707106781186545,0.70710678118655,8.65956056235498E-17));
#437=DIRECTION('center_axis',(1.,1.04094977927525E-15,0.));
#438=DIRECTION('ref_axis',(0.,0.,-1.));
#439=DIRECTION('center_axis',(1.,1.04094977927525E-15,0.));
#440=DIRECTION('ref_axis',(1.04094977927525E-15,-1.,1.83697019872103E-16));
#441=DIRECTION('center_axis',(1.,1.04094977927525E-15,0.));
#442=DIRECTION('ref_axis',(0.,0.,-1.));
#443=DIRECTION('center_axis',(1.,1.04094977927525E-15,0.));
#444=DIRECTION('ref_axis',(1.04854396770154E-15,-1.,1.83697019872103E-16));
#445=DIRECTION('center_axis',(1.04094977927525E-15,-1.,-1.22464679914735E-16));
#446=DIRECTION('ref_axis',(0.,-1.22464679914735E-16,1.));
#447=DIRECTION('center_axis',(1.,1.04094977927525E-15,0.));
#448=DIRECTION('ref_axis',(1.04854396770154E-15,-1.,1.83697019872103E-16));
#449=DIRECTION('center_axis',(1.,1.04094977927525E-15,0.));
#450=DIRECTION('ref_axis',(-9.49947573243419E-16,1.,0.));
#451=DIRECTION('',(-1.,-1.04094977927525E-15,0.));
#452=DIRECTION('center_axis',(1.,1.04094977927525E-15,0.));
#453=DIRECTION('ref_axis',(0.,0.,-1.));
#454=DIRECTION('center_axis',(1.,1.04094977927525E-15,0.));
#455=DIRECTION('ref_axis',(0.,0.,-1.));
#456=DIRECTION('center_axis',(1.04094977927525E-15,-1.,-1.22464679914735E-16));
#457=DIRECTION('ref_axis',(0.,-1.22464679914735E-16,1.));
#458=DIRECTION('center_axis',(1.,1.04094977927525E-15,0.));
#459=DIRECTION('ref_axis',(0.,0.,-1.));
#460=DIRECTION('center_axis',(1.04094977927525E-15,-1.,-1.22464679914735E-16));
#461=DIRECTION('ref_axis',(0.,-1.22464679914735E-16,1.));
#462=DIRECTION('center_axis',(-1.,-1.1312074770378E-15,1.61909007169862E-31));
#463=DIRECTION('ref_axis',(1.1312074770378E-15,-1.,3.06161699786838E-17));
#464=DIRECTION('center_axis',(-1.,-1.1312074770378E-15,1.61909007169862E-31));
#465=DIRECTION('ref_axis',(1.1312074770378E-15,-1.,3.06161699786838E-17));
#466=DIRECTION('center_axis',(-1.,-1.04094977927525E-15,0.));
#467=DIRECTION('ref_axis',(-9.49947573243419E-16,1.,0.));
#468=DIRECTION('center_axis',(1.,1.11295041814753E-15,-6.18305787859742E-17));
#469=DIRECTION('ref_axis',(1.11295041814753E-15,-1.,3.06161699786838E-17));
#470=DIRECTION('',(-0.986285601537231,-0.165047605860678,-2.02125022224212E-17));
#471=DIRECTION('center_axis',(1.,1.11295041814753E-15,-6.18305787859742E-17));
#472=DIRECTION('ref_axis',(1.11295041814753E-15,-1.,3.06161699786838E-17));
#473=DIRECTION('center_axis',(1.,1.04094977927525E-15,0.));
#474=DIRECTION('ref_axis',(0.,0.,-1.));
#475=DIRECTION('center_axis',(-1.,-1.04094977927525E-15,0.));
#476=DIRECTION('ref_axis',(1.04094977927525E-15,-1.,1.83697019872103E-16));
#477=DIRECTION('center_axis',(1.04094977927525E-15,-1.,-1.22464679914735E-16));
#478=DIRECTION('ref_axis',(0.,-1.22464679914735E-16,1.));
#479=DIRECTION('center_axis',(1.,1.04094977927525E-15,0.));
#480=DIRECTION('ref_axis',(0.,0.,-1.));
#481=DIRECTION('center_axis',(1.,1.04094977927525E-15,0.));
#482=DIRECTION('ref_axis',(-9.49947573243419E-16,1.,0.));
#483=DIRECTION('',(-0.500000000000002,0.866025403784437,1.06057523872491E-16));
#484=CARTESIAN_POINT('',(0.,0.,0.));
#485=CARTESIAN_POINT('Origin',(-11.85,-1.23352548844117E-14,0.));
#486=CARTESIAN_POINT('',(-11.7,8.99999999999999,-1.10218211923262E-15));
#487=CARTESIAN_POINT('',(-11.7,-9.00000000000001,-1.10218211923262E-15));
#488=CARTESIAN_POINT('Origin',(-11.7,-1.21791124175204E-14,0.));
#489=CARTESIAN_POINT('Origin',(-11.7,-1.21791124175204E-14,0.));
#490=CARTESIAN_POINT('',(-12.,8.69999999999999,1.0654427152582E-15));
#491=CARTESIAN_POINT('',(-11.85,8.84999999999999,1.08381241724541E-15));
#492=CARTESIAN_POINT('Origin',(-12.,-1.2491397351303E-14,0.));
#493=CARTESIAN_POINT('Origin',(-12.,8.99999999999999,0.));
#494=CARTESIAN_POINT('',(-12.,-1.34404986206422E-14,7.75000000000001));
#495=CARTESIAN_POINT('Origin',(-12.,-1.2491397351303E-14,0.));
#496=CARTESIAN_POINT('Origin',(-10.,-1.04094977927525E-14,0.));
#497=CARTESIAN_POINT('',(-8.39999999999998,-9.00000000000001,-1.10218211923262E-15));
#498=CARTESIAN_POINT('',(-8.4,-9.84616026514471E-15,9.));
#499=CARTESIAN_POINT('Origin',(-8.4,-8.7439781459121E-15,0.));
#500=CARTESIAN_POINT('',(-9.99999999999999,-9.00000000000001,-1.10218211923262E-15));
#501=CARTESIAN_POINT('Origin',(-8.4,-8.7439781459121E-15,0.));
#502=CARTESIAN_POINT('Origin',(-20.85,-2.1703802897889E-14,0.));
#503=CARTESIAN_POINT('',(-21.,5.45,-6.6743250553531E-16));
#504=CARTESIAN_POINT('Origin',(-21.,-2.18599453647802E-14,0.));
#505=CARTESIAN_POINT('',(-20.7,5.14999999999999,6.30693101560889E-16));
#506=CARTESIAN_POINT('',(-20.85,5.3,-6.49062803548099E-16));
#507=CARTESIAN_POINT('',(-20.7,-5.15000000000004,-6.30693101560889E-16));
#508=CARTESIAN_POINT('Origin',(-20.7,-2.15476604309977E-14,0.));
#509=CARTESIAN_POINT('Origin',(-20.7,-2.15476604309977E-14,0.));
#510=CARTESIAN_POINT('Origin',(-10.5,-1.09299726823901E-14,0.));
#511=CARTESIAN_POINT('',(1.11022302462516E-14,-5.15000000000001,-6.30693101560889E-16));
#512=CARTESIAN_POINT('Origin',(5.27355936696949E-15,4.93038065763132E-30,
0.));
#513=CARTESIAN_POINT('',(-10.5,-5.15000000000003,-6.30693101560889E-16));
#514=CARTESIAN_POINT('Origin',(-21.,5.94999999999999,0.));
#515=CARTESIAN_POINT('',(-21.,-5.95000000000003,-7.28664845492677E-16));
#516=CARTESIAN_POINT('Origin',(-21.,-2.18599453647802E-14,0.));
#517=CARTESIAN_POINT('Origin',(-7.84999999999999,-8.17145576731071E-15,
0.));
#518=CARTESIAN_POINT('',(-7.7,11.,-1.34711147906209E-15));
#519=CARTESIAN_POINT('',(-7.69999999999999,-11.,-1.34711147906209E-15));
#520=CARTESIAN_POINT('Origin',(-7.69999999999999,-8.01531330041942E-15,
0.));
#521=CARTESIAN_POINT('Origin',(-7.69999999999999,-8.01531330041942E-15,
0.));
#522=CARTESIAN_POINT('',(-8.00000000000001,10.7,1.31037207508767E-15));
#523=CARTESIAN_POINT('',(-7.85000000000001,10.85,1.32874177707488E-15));
#524=CARTESIAN_POINT('Origin',(-7.99999999999999,-8.32759823420199E-15,
0.));
#525=CARTESIAN_POINT('Origin',(-6.74999999999999,-7.02641101010793E-15,
0.));
#526=CARTESIAN_POINT('',(-5.8,11.,1.34711147906209E-15));
#527=CARTESIAN_POINT('',(-5.79999999999998,-11.,-1.34711147906209E-15));
#528=CARTESIAN_POINT('Origin',(-5.79999999999999,-6.03750871979644E-15,
0.));
#529=CARTESIAN_POINT('Origin',(-5.79999999999999,-6.03750871979644E-15,
0.));
#530=CARTESIAN_POINT('',(-6.74999999999998,-11.,-1.34711147906209E-15));
#531=CARTESIAN_POINT('Origin',(-8.00000000000001,11.,0.));
#532=CARTESIAN_POINT('',(-7.99999999999999,-9.47876622540051E-15,9.4));
#533=CARTESIAN_POINT('Origin',(-7.99999999999999,-8.327598234202E-15,0.));
#534=CARTESIAN_POINT('Origin',(-5.64999999999999,-5.88136625290515E-15,
0.));
#535=CARTESIAN_POINT('',(-5.5,10.7,-1.31037207508767E-15));
#536=CARTESIAN_POINT('Origin',(-5.49999999999999,-5.72522378601386E-15,
0.));
#537=CARTESIAN_POINT('',(-5.65,10.85,1.32874177707488E-15));
#538=CARTESIAN_POINT('Origin',(-5.5,9.8703843499478,0.));
#539=CARTESIAN_POINT('',(-5.49999999999999,-6.97546684778463E-15,10.2090093457251));
#540=CARTESIAN_POINT('Origin',(-5.49999999999999,-5.72522378601387E-15,
0.));
#541=CARTESIAN_POINT('Origin',(-13.,-1.35323471305782E-14,0.));
#542=CARTESIAN_POINT('',(-13.,-6.75000000000002,-8.26636589424465E-16));
#543=CARTESIAN_POINT('',(-13.,-1.43589837200027E-14,6.75000000000001));
#544=CARTESIAN_POINT('Origin',(-13.,-1.35323471305782E-14,0.));
#545=CARTESIAN_POINT('Origin',(-13.,-1.44814483999174E-14,7.75000000000001));
#546=CARTESIAN_POINT('Origin',(-13.,-1.35323471305782E-14,0.));
#547=CARTESIAN_POINT('Origin',(-16.2690598923241,-1.69352743039306E-14,
0.));
#548=CARTESIAN_POINT('',(-20.5381197846483,-6.75000000000003,-8.26636589424465E-16));
#549=CARTESIAN_POINT('',(-16.2690598923241,-6.75000000000003,-8.26636589424465E-16));
#550=CARTESIAN_POINT('Origin',(-20.5381197846483,-2.13791512565583E-14,
0.));
#551=CARTESIAN_POINT('Origin',(-8.4,-8.7439781459121E-15,0.));
#552=CARTESIAN_POINT('Origin',(-8.4,-9.89514613711061E-15,9.4));
#553=CARTESIAN_POINT('Origin',(-5.09999999999999,-5.30884387430377E-15,
0.));
#554=CARTESIAN_POINT('',(-5.16601904234426,-6.57949538343205E-15,9.81449510511018));
#555=CARTESIAN_POINT('Origin',(-5.09999999999999,-6.55908693607453E-15,
10.2090093457251));
#556=CARTESIAN_POINT('',(-5.16601904234425,-9.81449510511019,-1.20192900157206E-15));
#557=CARTESIAN_POINT('Origin',(-5.16601904234426,-5.55111512312578E-15,
-1.50241125196507E-15));
#558=CARTESIAN_POINT('Origin',(-5.16601904234426,-5.55111512312578E-15,
-1.50241125196507E-15));
#559=CARTESIAN_POINT('Origin',(-2.74999999999999,-2.86261189300693E-15,
0.));
#560=CARTESIAN_POINT('',(-0.166990478827849,-8.97794462241881,-1.09948111447674E-15));
#561=CARTESIAN_POINT('',(-0.166990478827859,-1.27330981655367E-15,8.97794462241881));
#562=CARTESIAN_POINT('Origin',(-0.166990478827859,-5.55111512312578E-16,
-1.37435139309592E-15));
#563=CARTESIAN_POINT('',(-2.74999999999998,-9.41019217497391,-1.15241617264433E-15));
#564=CARTESIAN_POINT('Origin',(-0.166990478827859,-5.55111512312578E-16,
-1.37435139309592E-15));
#565=CARTESIAN_POINT('Origin',(-0.199999999999995,-2.08189955855045E-16,
0.));
#566=CARTESIAN_POINT('',(5.3776427755281E-15,-1.07532408437738E-15,8.78068750211136));
#567=CARTESIAN_POINT('Origin',(5.3776427755281E-15,5.14608481140269E-30,
0.));
#568=CARTESIAN_POINT('Origin',(-0.199999999999995,-1.28351404023243E-15,
8.78068750211136));
#569=CARTESIAN_POINT('Origin',(0.,5.15000000000001,0.));
#570=CARTESIAN_POINT('Origin',(-20.7690598923241,-2.16195483106693E-14,
0.));
#571=CARTESIAN_POINT('',(-20.7690598923241,-6.35000000000004,-7.77650717458571E-16));
#572=UNCERTAINTY_MEASURE_WITH_UNIT(LENGTH_MEASURE(0.01),#576,
'DISTANCE_ACCURACY_VALUE',
'Maximum model space distance between geometric entities at asserted c
onnectivities');
#573=UNCERTAINTY_MEASURE_WITH_UNIT(LENGTH_MEASURE(0.01),#576,
'DISTANCE_ACCURACY_VALUE',
'Maximum model space distance between geometric entities at asserted c
onnectivities');
#574=(
GEOMETRIC_REPRESENTATION_CONTEXT(3)
GLOBAL_UNCERTAINTY_ASSIGNED_CONTEXT((#572))
GLOBAL_UNIT_ASSIGNED_CONTEXT((#576,#578,#579))
REPRESENTATION_CONTEXT('','3D')
);
#575=(
GEOMETRIC_REPRESENTATION_CONTEXT(3)
GLOBAL_UNCERTAINTY_ASSIGNED_CONTEXT((#573))
GLOBAL_UNIT_ASSIGNED_CONTEXT((#576,#578,#579))
REPRESENTATION_CONTEXT('','3D')
);
#576=(
LENGTH_UNIT()
NAMED_UNIT(*)
SI_UNIT(.MILLI.,.METRE.)
);
#577=(
LENGTH_UNIT()
NAMED_UNIT(*)
SI_UNIT(.CENTI.,.METRE.)
);
#578=(
NAMED_UNIT(*)
PLANE_ANGLE_UNIT()
SI_UNIT($,.RADIAN.)
);
#579=(
NAMED_UNIT(*)
SI_UNIT($,.STERADIAN.)
SOLID_ANGLE_UNIT()
);
#580=SHAPE_DEFINITION_REPRESENTATION(#581,#582);
#581=PRODUCT_DEFINITION_SHAPE('',$,#584);
#582=SHAPE_REPRESENTATION('',(#321),#574);
#583=PRODUCT_DEFINITION_CONTEXT('part definition',#588,'design');
#584=PRODUCT_DEFINITION('3D_R134-SE-13.5-13.5_171011200',
'3D_R134-SE-13.5-13.5_171011200',#585,#583);
#585=PRODUCT_DEFINITION_FORMATION('',$,#590);
#586=PRODUCT_RELATED_PRODUCT_CATEGORY('3D_R134-SE-13.5-13.5_171011200',
'3D_R134-SE-13.5-13.5_171011200',(#590));
#587=APPLICATION_PROTOCOL_DEFINITION('international standard',
'automotive_design',2009,#588);
#588=APPLICATION_CONTEXT(
'Core Data for Automotive Mechanical Design Process');
#589=PRODUCT_CONTEXT('part definition',#588,'mechanical');
#590=PRODUCT('3D_R134-SE-13.5-13.5_171011200',
'3D_R134-SE-13.5-13.5_171011200',$,(#589));
#591=PRESENTATION_STYLE_ASSIGNMENT((#592));
#592=SURFACE_STYLE_USAGE(.BOTH.,#595);
#593=SURFACE_STYLE_RENDERING_WITH_PROPERTIES($,#599,(#594));
#594=SURFACE_STYLE_TRANSPARENT(0.);
#595=SURFACE_SIDE_STYLE('',(#596,#593));
#596=SURFACE_STYLE_FILL_AREA(#597);
#597=FILL_AREA_STYLE('',(#598));
#598=FILL_AREA_STYLE_COLOUR('',#599);
#599=COLOUR_RGB('',0.749019607843137,0.749019607843137,0.749019607843137);
ENDSEC;
END-ISO-10303-21;
