ISO-10303-21;
HEADER;
FILE_DESCRIPTION (( 'STEP AP203' ),
    '1' );
FILE_NAME ('3D_R169-K_33-17_17325165.STEP',
    '2024-07-11T10:18:16',
    ( '' ),
    ( '' ),
    'SwSTEP 2.0',
    'SolidWorks 2024',
    '' );
FILE_SCHEMA (( 'CONFIG_CONTROL_DESIGN' ));
ENDSEC;

DATA;
#1 = COORDINATED_UNIVERSAL_TIME_OFFSET ( 1, 0, .AHEAD. ) ;
#2 = DATE_AND_TIME ( #53, #151 ) ;
#3 = DIRECTION ( 'NONE',  ( 1.000000000000000000, 0.000000000000000000, 0.000000000000000000 ) ) ;
#4 = ORGANIZATION ( 'UNSPECIFIED', 'UNSPECIFIED', '' ) ;
#5 = APPROVAL_ROLE ( '' ) ;
#6 = APPROVAL_DATE_TIME ( #197, #100 ) ;
#7 = ADVANCED_FACE ( 'NONE', ( #228 ), #223, .T. ) ;
#8 = VECTOR ( 'NONE', #143, 1000.000000000000000 ) ;
#9 = EDGE_LOOP ( 'NONE', ( #129, #173 ) ) ;
#10 = SECURITY_CLASSIFICATION ( '', '', #48 ) ;
#11 = AXIS2_PLACEMENT_3D ( 'NONE', #212, #39, #194 ) ;
#12 = MANIFOLD_SOLID_BREP ( 'Wandung2', #31 ) ;
#13 = VERTEX_POINT ( 'NONE', #171 ) ;
#14 = DIRECTION ( 'NONE',  ( -1.000000000000000000, -0.000000000000000000, -0.000000000000000000 ) ) ;
#15 = ADVANCED_FACE ( 'NONE', ( #210 ), #239, .F. ) ;
#16 = COORDINATED_UNIVERSAL_TIME_OFFSET ( 1, 0, .AHEAD. ) ;
#17 = VERTEX_POINT ( 'NONE', #87 ) ;
#18 = DIRECTION ( 'NONE',  ( 1.000000000000000000, 0.000000000000000000, 0.000000000000000000 ) ) ;
#19 = CC_DESIGN_DATE_AND_TIME_ASSIGNMENT ( #2, #28, ( #10 ) ) ;
#20 = AXIS2_PLACEMENT_3D ( 'NONE', #190, #240, #97 ) ;
#21 = VERTEX_POINT ( 'NONE', #242 ) ;
#22 = CARTESIAN_POINT ( 'NONE',  ( 29.46968703395791422, 8.170340376631680375E-16, -6.671589214392419365 ) ) ;
#23 = CALENDAR_DATE ( 2024, 11, 7 ) ;
#24 =( NAMED_UNIT ( * ) PLANE_ANGLE_UNIT ( ) SI_UNIT ( $, .RADIAN. ) );
#25 = COORDINATED_UNIVERSAL_TIME_OFFSET ( 1, 0, .AHEAD. ) ;
#26 = LINE ( 'NONE', #22, #8 ) ;
#27 = CARTESIAN_POINT ( 'NONE',  ( 0.000000000000000000, -1.031764928281645122E-15, 16.85000000000000142 ) ) ;
#28 = DATE_TIME_ROLE ( 'classification_date' ) ;
#29 = VERTEX_POINT ( 'NONE', #161 ) ;
#30 = CONICAL_SURFACE ( 'NONE', #70, 6.671589214392419365, 0.2683662109059068990 ) ;
#31 = CLOSED_SHELL ( 'NONE', ( #208, #7, #165, #65, #69, #15 ) ) ;
#32 = ORIENTED_EDGE ( 'NONE', *, *, #56, .F. ) ;
#33 = CC_DESIGN_PERSON_AND_ORGANIZATION_ASSIGNMENT ( #71, #232, ( #187 ) ) ;
#34 = AXIS2_PLACEMENT_3D ( 'NONE', #163, #182, #72 ) ;
#35 = ORIENTED_EDGE ( 'NONE', *, *, #202, .T. ) ;
#36 = FACE_OUTER_BOUND ( 'NONE', #128, .T. ) ;
#37 = ORIENTED_EDGE ( 'NONE', *, *, #154, .F. ) ;
#38 = LOCAL_TIME ( 12, 18, 16.00000000000000000, #25 ) ;
#39 = DIRECTION ( 'NONE',  ( 1.000000000000000000, 0.000000000000000000, 0.000000000000000000 ) ) ;
#40 = AXIS2_PLACEMENT_3D ( 'NONE', #41, #14, #192 ) ;
#41 = CARTESIAN_POINT ( 'NONE',  ( 30.00000000000000000, 0.000000000000000000, 0.000000000000000000 ) ) ;
#42 = DIRECTION ( 'NONE',  ( 0.000000000000000000, 0.000000000000000000, -1.000000000000000000 ) ) ;
#43 = CARTESIAN_POINT ( 'NONE',  ( 0.000000000000000000, 0.000000000000000000, 0.000000000000000000 ) ) ;
#44 = COORDINATED_UNIVERSAL_TIME_OFFSET ( 1, 0, .AHEAD. ) ;
#45 = CIRCLE ( 'NONE', #185, 6.525753148730845332 ) ;
#46 =( NAMED_UNIT ( * ) SI_UNIT ( $, .STERADIAN. ) SOLID_ANGLE_UNIT ( ) );
#47 = DIRECTION ( 'NONE',  ( -0.9642053928037903621, 0.000000000000000000, 0.2651564830210423884 ) ) ;
#48 = SECURITY_CLASSIFICATION_LEVEL ( 'unclassified' ) ;
#49 = SHAPE_DEFINITION_REPRESENTATION ( #80, #88 ) ;
#50 = CONICAL_SURFACE ( 'NONE', #122, 8.599999999999999645, 0.2683662109059068990 ) ;
#51 = CIRCLE ( 'NONE', #204, 14.77575314873084622 ) ;
#52 = DIRECTION ( 'NONE',  ( 0.000000000000000000, 0.000000000000000000, 1.000000000000000000 ) ) ;
#53 = CALENDAR_DATE ( 2024, 11, 7 ) ;
#54 = EDGE_CURVE ( 'NONE', #29, #134, #167, .T. ) ;
#55 = ORIENTED_EDGE ( 'NONE', *, *, #198, .T. ) ;
#56 = EDGE_CURVE ( 'NONE', #29, #13, #82, .T. ) ;
#57 = ORIENTED_EDGE ( 'NONE', *, *, #243, .F. ) ;
#58 = AXIS2_PLACEMENT_3D ( 'NONE', #215, #224, #172 ) ;
#59 = DIRECTION ( 'NONE',  ( -0.9642053928037903621, 0.000000000000000000, 0.2651564830210423884 ) ) ;
#60 = DIRECTION ( 'NONE',  ( 0.000000000000000000, 0.000000000000000000, -1.000000000000000000 ) ) ;
#61 = CARTESIAN_POINT ( 'NONE',  ( 0.000000000000000000, 0.000000000000000000, 0.000000000000000000 ) ) ;
#62 = PERSON_AND_ORGANIZATION ( #96, #4 ) ;
#63 = CC_DESIGN_APPROVAL ( #235, ( #10 ) ) ;
#64 = AXIS2_PLACEMENT_3D ( 'NONE', #61, #18, #42 ) ;
#65 = ADVANCED_FACE ( 'NONE', ( #140, #118 ), #155, .F. ) ;
#66 = CARTESIAN_POINT ( 'NONE',  ( 29.46968703395791422, 0.000000000000000000, 0.000000000000000000 ) ) ;
#67 = PLANE ( 'NONE',  #148 ) ;
#68 = CARTESIAN_POINT ( 'NONE',  ( 29.46968703395791422, 0.000000000000000000, 6.671589214392419365 ) ) ;
#69 = ADVANCED_FACE ( 'NONE', ( #36 ), #50, .T. ) ;
#70 = AXIS2_PLACEMENT_3D ( 'NONE', #149, #220, #104 ) ;
#71 = PERSON_AND_ORGANIZATION ( #96, #4 ) ;
#72 = DIRECTION ( 'NONE',  ( 0.000000000000000000, 0.000000000000000000, -1.000000000000000000 ) ) ;
#73 = CC_DESIGN_PERSON_AND_ORGANIZATION_ASSIGNMENT ( #85, #158, ( #111 ) ) ;
#74 = AXIS2_PLACEMENT_3D ( 'NONE', #66, #98, #138 ) ;
#75 = CC_DESIGN_APPROVAL ( #112, ( #111 ) ) ;
#76 = PERSON_AND_ORGANIZATION_ROLE ( 'creator' ) ;
#77 = ORIENTED_EDGE ( 'NONE', *, *, #243, .T. ) ;
#78 = APPROVAL_PERSON_ORGANIZATION ( #91, #235, #184 ) ;
#79 = ORIENTED_EDGE ( 'NONE', *, *, #214, .T. ) ;
#80 = PRODUCT_DEFINITION_SHAPE ( 'NONE', 'NONE',  #111 ) ;
#81 = ORIENTED_EDGE ( 'NONE', *, *, #54, .T. ) ;
#82 = LINE ( 'NONE', #213, #166 ) ;
#83 = EDGE_LOOP ( 'NONE', ( #157, #57 ) ) ;
#84 = ORIENTED_EDGE ( 'NONE', *, *, #216, .T. ) ;
#85 = PERSON_AND_ORGANIZATION ( #96, #4 ) ;
#86 = EDGE_CURVE ( 'NONE', #134, #29, #200, .T. ) ;
#87 = CARTESIAN_POINT ( 'NONE',  ( 30.00000000000000000, 1.304341075210182338E-15, -6.525753148730845332 ) ) ;
#88 = ADVANCED_BREP_SHAPE_REPRESENTATION ( '3D_R169-K_33-17_17325165', ( #12, #89 ), #222 ) ;
#89 = AXIS2_PLACEMENT_3D ( 'NONE', #43, #52, #124 ) ;
#90 = CARTESIAN_POINT ( 'NONE',  ( 0.000000000000000000, 0.000000000000000000, 0.000000000000000000 ) ) ;
#91 = PERSON_AND_ORGANIZATION ( #96, #4 ) ;
#92 = DIRECTION ( 'NONE',  ( 1.000000000000000000, 0.000000000000000000, 0.000000000000000000 ) ) ;
#93 = VERTEX_POINT ( 'NONE', #114 ) ;
#94 = EDGE_LOOP ( 'NONE', ( #186, #81 ) ) ;
#95 = EDGE_LOOP ( 'NONE', ( #79, #55 ) ) ;
#96 = PERSON ( 'UNSPECIFIED', 'UNSPECIFIED', 'UNSPECIFIED', ('UNSPECIFIED'), ('UNSPECIFIED'), ('UNSPECIFIED') ) ;
#97 = DIRECTION ( 'NONE',  ( 0.000000000000000000, 0.000000000000000000, -1.000000000000000000 ) ) ;
#98 = DIRECTION ( 'NONE',  ( -1.000000000000000000, -0.000000000000000000, -0.000000000000000000 ) ) ;
#99 = DATE_AND_TIME ( #193, #178 ) ;
#100 = APPROVAL ( #164, 'UNSPECIFIED' ) ;
#101 = FACE_BOUND ( 'NONE', #83, .T. ) ;
#102 = CARTESIAN_POINT ( 'NONE',  ( 30.00000000000000000, 0.000000000000000000, 0.000000000000000000 ) ) ;
#103 = APPLICATION_PROTOCOL_DEFINITION ( 'international standard', 'config_control_design', 1994, #110 ) ;
#104 = DIRECTION ( 'NONE',  ( 0.000000000000000000, 0.000000000000000000, 1.000000000000000000 ) ) ;
#105 = DATE_AND_TIME ( #23, #211 ) ;
#106 = APPLICATION_CONTEXT ( 'configuration controlled 3d designs of mechanical parts and assemblies' ) ;
#107 = DIRECTION ( 'NONE',  ( 1.000000000000000000, 0.000000000000000000, 0.000000000000000000 ) ) ;
#108 = CC_DESIGN_SECURITY_CLASSIFICATION ( #10, ( #187 ) ) ;
#109 = CALENDAR_DATE ( 2024, 11, 7 ) ;
#110 = APPLICATION_CONTEXT ( 'configuration controlled 3d designs of mechanical parts and assemblies' ) ;
#111 = PRODUCT_DEFINITION ( 'UNKNOWN', '', #187, #168 ) ;
#112 = APPROVAL ( #177, 'UNSPECIFIED' ) ;
#113 = ORIENTED_EDGE ( 'NONE', *, *, #56, .T. ) ;
#114 = CARTESIAN_POINT ( 'NONE',  ( 0.000000000000000000, 1.809507879858465810E-15, -14.77575314873084800 ) ) ;
#115 = EDGE_LOOP ( 'NONE', ( #126, #77, #84, #133 ) ) ;
#116 = DATE_AND_TIME ( #241, #121 ) ;
#117 = CARTESIAN_POINT ( 'NONE',  ( 30.00000000000000000, 0.000000000000000000, 8.599999999999999645 ) ) ;
#118 = FACE_OUTER_BOUND ( 'NONE', #9, .T. ) ;
#119 = LINE ( 'NONE', #117, #246 ) ;
#120 = CARTESIAN_POINT ( 'NONE',  ( 30.00000000000000000, 0.000000000000000000, 0.000000000000000000 ) ) ;
#121 = LOCAL_TIME ( 12, 18, 16.00000000000000000, #44 ) ;
#122 = AXIS2_PLACEMENT_3D ( 'NONE', #153, #226, #189 ) ;
#123 = CARTESIAN_POINT ( 'NONE',  ( 0.000000000000000000, 0.000000000000000000, 0.000000000000000000 ) ) ;
#124 = DIRECTION ( 'NONE',  ( 1.000000000000000000, 0.000000000000000000, 0.000000000000000000 ) ) ;
#125 = APPROVAL_STATUS ( 'not_yet_approved' ) ;
#126 = ORIENTED_EDGE ( 'NONE', *, *, #202, .F. ) ;
#127 = VECTOR ( 'NONE', #47, 1000.000000000000000 ) ;
#128 = EDGE_LOOP ( 'NONE', ( #32, #209, #249, #206 ) ) ;
#129 = ORIENTED_EDGE ( 'NONE', *, *, #130, .F. ) ;
#130 = EDGE_CURVE ( 'NONE', #247, #13, #207, .T. ) ;
#131 = EDGE_LOOP ( 'NONE', ( #221, #113, #152, #37 ) ) ;
#132 = AXIS2_PLACEMENT_3D ( 'NONE', #90, #92, #236 ) ;
#133 = ORIENTED_EDGE ( 'NONE', *, *, #198, .F. ) ;
#134 = VERTEX_POINT ( 'NONE', #136 ) ;
#135 = EDGE_CURVE ( 'NONE', #205, #17, #219, .T. ) ;
#136 = CARTESIAN_POINT ( 'NONE',  ( 30.00000000000000000, 5.265981236333618470E-16, 8.599999999999999645 ) ) ;
#137 = PERSON_AND_ORGANIZATION ( #96, #4 ) ;
#138 = DIRECTION ( 'NONE',  ( 0.000000000000000000, 0.000000000000000000, 1.000000000000000000 ) ) ;
#139 = PRODUCT ( '3D_R169-K_33-17_17325165', '3D_R169-K_33-17_17325165', '', ( #234 ) ) ;
#140 = FACE_BOUND ( 'NONE', #95, .T. ) ;
#141 = PERSON_AND_ORGANIZATION_ROLE ( 'design_owner' ) ;
#142 = CC_DESIGN_PERSON_AND_ORGANIZATION_ASSIGNMENT ( #201, #150, ( #10 ) ) ;
#143 = DIRECTION ( 'NONE',  ( -0.9642053928037903621, 3.247230382048890525E-17, -0.2651564830210423884 ) ) ;
#144 = APPROVAL_ROLE ( '' ) ;
#145 =( LENGTH_UNIT ( ) NAMED_UNIT ( * ) SI_UNIT ( .MILLI., .METRE. ) );
#146 = CC_DESIGN_DATE_AND_TIME_ASSIGNMENT ( #116, #191, ( #111 ) ) ;
#147 = PERSON_AND_ORGANIZATION ( #96, #4 ) ;
#148 = AXIS2_PLACEMENT_3D ( 'NONE', #102, #176, #180 ) ;
#149 = CARTESIAN_POINT ( 'NONE',  ( 29.46968703395791422, 0.000000000000000000, 0.000000000000000000 ) ) ;
#150 = PERSON_AND_ORGANIZATION_ROLE ( 'classification_officer' ) ;
#151 = LOCAL_TIME ( 12, 18, 16.00000000000000000, #1 ) ;
#152 = ORIENTED_EDGE ( 'NONE', *, *, #188, .T. ) ;
#153 = CARTESIAN_POINT ( 'NONE',  ( 30.00000000000000000, 0.000000000000000000, 0.000000000000000000 ) ) ;
#154 = EDGE_CURVE ( 'NONE', #134, #247, #119, .T. ) ;
#155 = PLANE ( 'NONE',  #58 ) ;
#156 = CC_DESIGN_APPROVAL ( #100, ( #187 ) ) ;
#157 = ORIENTED_EDGE ( 'NONE', *, *, #135, .F. ) ;
#158 = PERSON_AND_ORGANIZATION_ROLE ( 'creator' ) ;
#159 = CIRCLE ( 'NONE', #34, 16.85000000000000142 ) ;
#160 = CC_DESIGN_PERSON_AND_ORGANIZATION_ASSIGNMENT ( #245, #141, ( #139 ) ) ;
#161 = CARTESIAN_POINT ( 'NONE',  ( 30.00000000000000000, 5.265981236333618470E-16, -8.599999999999999645 ) ) ;
#162 = DIRECTION ( 'NONE',  ( 0.000000000000000000, 0.000000000000000000, -1.000000000000000000 ) ) ;
#163 = CARTESIAN_POINT ( 'NONE',  ( 0.000000000000000000, 0.000000000000000000, 0.000000000000000000 ) ) ;
#164 = APPROVAL_STATUS ( 'not_yet_approved' ) ;
#165 = ADVANCED_FACE ( 'NONE', ( #101, #195 ), #67, .T. ) ;
#166 = VECTOR ( 'NONE', #175, 1000.000000000000000 ) ;
#167 = CIRCLE ( 'NONE', #20, 8.599999999999999645 ) ;
#168 = DESIGN_CONTEXT ( 'detailed design', #110, 'design' ) ;
#169 = CC_DESIGN_PERSON_AND_ORGANIZATION_ASSIGNMENT ( #147, #76, ( #187 ) ) ;
#170 = ORIENTED_EDGE ( 'NONE', *, *, #216, .F. ) ;
#171 = CARTESIAN_POINT ( 'NONE',  ( 0.000000000000000000, 3.095294784844934972E-15, -16.85000000000000142 ) ) ;
#172 = DIRECTION ( 'NONE',  ( 0.000000000000000000, 0.000000000000000000, -1.000000000000000000 ) ) ;
#173 = ORIENTED_EDGE ( 'NONE', *, *, #188, .F. ) ;
#174 = APPROVAL_DATE_TIME ( #99, #112 ) ;
#175 = DIRECTION ( 'NONE',  ( -0.9642053928037903621, 3.247230382048890525E-17, -0.2651564830210423884 ) ) ;
#176 = DIRECTION ( 'NONE',  ( 1.000000000000000000, 0.000000000000000000, 0.000000000000000000 ) ) ;
#177 = APPROVAL_STATUS ( 'not_yet_approved' ) ;
#178 = LOCAL_TIME ( 12, 18, 16.00000000000000000, #16 ) ;
#179 = COORDINATED_UNIVERSAL_TIME_OFFSET ( 1, 0, .AHEAD. ) ;
#180 = DIRECTION ( 'NONE',  ( 0.000000000000000000, 0.000000000000000000, -1.000000000000000000 ) ) ;
#181 = APPROVAL_PERSON_ORGANIZATION ( #137, #100, #5 ) ;
#182 = DIRECTION ( 'NONE',  ( 1.000000000000000000, 0.000000000000000000, 0.000000000000000000 ) ) ;
#183 = PRODUCT_RELATED_PRODUCT_CATEGORY ( 'detail', '', ( #139 ) ) ;
#184 = APPROVAL_ROLE ( '' ) ;
#185 = AXIS2_PLACEMENT_3D ( 'NONE', #120, #3, #199 ) ;
#186 = ORIENTED_EDGE ( 'NONE', *, *, #86, .T. ) ;
#187 = PRODUCT_DEFINITION_FORMATION_WITH_SPECIFIED_SOURCE ( 'ANY', '', #139, .NOT_KNOWN. ) ;
#188 = EDGE_CURVE ( 'NONE', #13, #247, #159, .T. ) ;
#189 = DIRECTION ( 'NONE',  ( 0.000000000000000000, 0.000000000000000000, 1.000000000000000000 ) ) ;
#190 = CARTESIAN_POINT ( 'NONE',  ( 30.00000000000000000, 0.000000000000000000, 0.000000000000000000 ) ) ;
#191 = DATE_TIME_ROLE ( 'creation_date' ) ;
#192 = DIRECTION ( 'NONE',  ( 0.000000000000000000, 0.000000000000000000, 1.000000000000000000 ) ) ;
#193 = CALENDAR_DATE ( 2024, 11, 7 ) ;
#194 = DIRECTION ( 'NONE',  ( 0.000000000000000000, 0.000000000000000000, -1.000000000000000000 ) ) ;
#195 = FACE_OUTER_BOUND ( 'NONE', #94, .T. ) ;
#196 = APPLICATION_PROTOCOL_DEFINITION ( 'international standard', 'config_control_design', 1994, #106 ) ;
#197 = DATE_AND_TIME ( #109, #38 ) ;
#198 = EDGE_CURVE ( 'NONE', #93, #21, #237, .T. ) ;
#199 = DIRECTION ( 'NONE',  ( 0.000000000000000000, 0.000000000000000000, -1.000000000000000000 ) ) ;
#200 = CIRCLE ( 'NONE', #227, 8.599999999999999645 ) ;
#201 = PERSON_AND_ORGANIZATION ( #96, #4 ) ;
#202 = EDGE_CURVE ( 'NONE', #17, #93, #26, .T. ) ;
#203 = EDGE_LOOP ( 'NONE', ( #244, #35, #238, #170 ) ) ;
#204 = AXIS2_PLACEMENT_3D ( 'NONE', #123, #107, #162 ) ;
#205 = VERTEX_POINT ( 'NONE', #231 ) ;
#206 = ORIENTED_EDGE ( 'NONE', *, *, #130, .T. ) ;
#207 = CIRCLE ( 'NONE', #64, 16.85000000000000142 ) ;
#208 = ADVANCED_FACE ( 'NONE', ( #217 ), #30, .F. ) ;
#209 = ORIENTED_EDGE ( 'NONE', *, *, #86, .F. ) ;
#210 = FACE_OUTER_BOUND ( 'NONE', #115, .T. ) ;
#211 = LOCAL_TIME ( 12, 18, 16.00000000000000000, #179 ) ;
#212 = CARTESIAN_POINT ( 'NONE',  ( 30.00000000000000000, 0.000000000000000000, 0.000000000000000000 ) ) ;
#213 = CARTESIAN_POINT ( 'NONE',  ( 30.00000000000000000, 1.053196247266723694E-15, -8.599999999999999645 ) ) ;
#214 = EDGE_CURVE ( 'NONE', #21, #93, #51, .T. ) ;
#215 = CARTESIAN_POINT ( 'NONE',  ( 0.000000000000000000, 0.000000000000000000, 0.000000000000000000 ) ) ;
#216 = EDGE_CURVE ( 'NONE', #205, #21, #230, .T. ) ;
#217 = FACE_OUTER_BOUND ( 'NONE', #203, .T. ) ;
#218 = UNCERTAINTY_MEASURE_WITH_UNIT (LENGTH_MEASURE( 1.000000000000000082E-05 ), #145, 'distance_accuracy_value', 'NONE');
#219 = CIRCLE ( 'NONE', #11, 6.525753148730845332 ) ;
#220 = DIRECTION ( 'NONE',  ( -1.000000000000000000, -0.000000000000000000, -0.000000000000000000 ) ) ;
#221 = ORIENTED_EDGE ( 'NONE', *, *, #54, .F. ) ;
#222 =( GEOMETRIC_REPRESENTATION_CONTEXT ( 3 ) GLOBAL_UNCERTAINTY_ASSIGNED_CONTEXT ( ( #218 ) ) GLOBAL_UNIT_ASSIGNED_CONTEXT ( ( #145, #24, #46 ) ) REPRESENTATION_CONTEXT ( 'NONE', 'WORKASPACE' ) );
#223 = CONICAL_SURFACE ( 'NONE', #40, 8.599999999999999645, 0.2683662109059068990 ) ;
#224 = DIRECTION ( 'NONE',  ( 1.000000000000000000, 0.000000000000000000, 0.000000000000000000 ) ) ;
#225 = DIRECTION ( 'NONE',  ( 1.000000000000000000, 0.000000000000000000, 0.000000000000000000 ) ) ;
#226 = DIRECTION ( 'NONE',  ( -1.000000000000000000, -0.000000000000000000, -0.000000000000000000 ) ) ;
#227 = AXIS2_PLACEMENT_3D ( 'NONE', #229, #225, #60 ) ;
#228 = FACE_OUTER_BOUND ( 'NONE', #131, .T. ) ;
#229 = CARTESIAN_POINT ( 'NONE',  ( 30.00000000000000000, 0.000000000000000000, 0.000000000000000000 ) ) ;
#230 = LINE ( 'NONE', #68, #127 ) ;
#231 = CARTESIAN_POINT ( 'NONE',  ( 30.00000000000000000, 0.000000000000000000, 6.525753148730845332 ) ) ;
#232 = PERSON_AND_ORGANIZATION_ROLE ( 'design_supplier' ) ;
#233 = APPROVAL_DATE_TIME ( #105, #235 ) ;
#234 = MECHANICAL_CONTEXT ( 'NONE', #106, 'mechanical' ) ;
#235 = APPROVAL ( #125, 'UNSPECIFIED' ) ;
#236 = DIRECTION ( 'NONE',  ( 0.000000000000000000, 0.000000000000000000, -1.000000000000000000 ) ) ;
#237 = CIRCLE ( 'NONE', #132, 14.77575314873084622 ) ;
#238 = ORIENTED_EDGE ( 'NONE', *, *, #214, .F. ) ;
#239 = CONICAL_SURFACE ( 'NONE', #74, 6.671589214392419365, 0.2683662109059068990 ) ;
#240 = DIRECTION ( 'NONE',  ( 1.000000000000000000, 0.000000000000000000, 0.000000000000000000 ) ) ;
#241 = CALENDAR_DATE ( 2024, 11, 7 ) ;
#242 = CARTESIAN_POINT ( 'NONE',  ( 0.000000000000000000, 0.000000000000000000, 14.77575314873084800 ) ) ;
#243 = EDGE_CURVE ( 'NONE', #17, #205, #45, .T. ) ;
#244 = ORIENTED_EDGE ( 'NONE', *, *, #135, .T. ) ;
#245 = PERSON_AND_ORGANIZATION ( #96, #4 ) ;
#246 = VECTOR ( 'NONE', #59, 1000.000000000000000 ) ;
#247 = VERTEX_POINT ( 'NONE', #27 ) ;
#248 = APPROVAL_PERSON_ORGANIZATION ( #62, #112, #144 ) ;
#249 = ORIENTED_EDGE ( 'NONE', *, *, #154, .T. ) ;
ENDSEC;
END-ISO-10303-21;
