ISO-10303-21;
HEADER;
FILE_DESCRIPTION (( 'STEP AP203' ),
    '1' );
FILE_NAME ('3D_GR1002_42.4x2_188701910.STEP',
    '2024-10-08T15:10:32',
    ( '' ),
    ( '' ),
    'SwSTEP 2.0',
    'SolidWorks 2024',
    '' );
FILE_SCHEMA (( 'CONFIG_CONTROL_DESIGN' ));
ENDSEC;

DATA;
#1 = SHAPE_DEFINITION_REPRESENTATION ( #22, #306 ) ;
#2 = DIRECTION ( 'NONE',  ( -1.000000000000000000, -0.000000000000000000, -0.000000000000000000 ) ) ;
#3 = DIRECTION ( 'NONE',  ( 1.000000000000000000, 0.000000000000000000, 0.000000000000000000 ) ) ;
#4 = TOROIDAL_SURFACE ( 'NONE', #56, 20.89999999999999858, 0.2999999999999999889 ) ;
#5 = AXIS2_PLACEMENT_3D ( 'NONE', #293, #53, #131 ) ;
#6 = DIRECTION ( 'NONE',  ( -1.000000000000000000, -0.000000000000000000, -0.000000000000000000 ) ) ;
#7 = ADVANCED_FACE ( 'NONE', ( #261 ), #17, .T. ) ;
#8 = DIRECTION ( 'NONE',  ( -1.000000000000000000, -0.000000000000000000, -0.000000000000000000 ) ) ;
#9 = ORIENTED_EDGE ( 'NONE', *, *, #150, .F. ) ;
#10 = PRODUCT_RELATED_PRODUCT_CATEGORY ( 'detail', '', ( #168 ) ) ;
#11 = DIRECTION ( 'NONE',  ( 0.000000000000000000, 0.000000000000000000, -1.000000000000000000 ) ) ;
#12 = ORIENTED_EDGE ( 'NONE', *, *, #260, .T. ) ;
#13 = EDGE_CURVE ( 'NONE', #254, #14, #204, .T. ) ;
#14 = VERTEX_POINT ( 'NONE', #34 ) ;
#15 = EDGE_LOOP ( 'NONE', ( #153, #146, #177, #9 ) ) ;
#16 = PERSON_AND_ORGANIZATION_ROLE ( 'classification_officer' ) ;
#17 = CYLINDRICAL_SURFACE ( 'NONE', #84, 21.19999999999999929 ) ;
#18 = DATE_AND_TIME ( #184, #124 ) ;
#19 = EDGE_CURVE ( 'NONE', #231, #99, #250, .T. ) ;
#20 = CIRCLE ( 'NONE', #326, 21.19999999999999929 ) ;
#21 = CC_DESIGN_DATE_AND_TIME_ASSIGNMENT ( #74, #48, ( #172 ) ) ;
#22 = PRODUCT_DEFINITION_SHAPE ( 'NONE', 'NONE',  #244 ) ;
#23 = DIRECTION ( 'NONE',  ( 0.000000000000000000, 0.000000000000000000, -1.000000000000000000 ) ) ;
#24 = CIRCLE ( 'NONE', #69, 0.3000000000000016542 ) ;
#25 = CIRCLE ( 'NONE', #331, 20.89999999999999858 ) ;
#26 = DIRECTION ( 'NONE',  ( 0.000000000000000000, 0.000000000000000000, -1.000000000000000000 ) ) ;
#27 = DATE_AND_TIME ( #291, #79 ) ;
#28 = DIRECTION ( 'NONE',  ( 0.000000000000000000, 0.000000000000000000, -1.000000000000000000 ) ) ;
#29 = LINE ( 'NONE', #86, #240 ) ;
#30 = FACE_OUTER_BOUND ( 'NONE', #345, .T. ) ;
#31 = CARTESIAN_POINT ( 'NONE',  ( 60.00000000000000000, 0.000000000000000000, 0.000000000000000000 ) ) ;
#32 = CC_DESIGN_APPROVAL ( #301, ( #244 ) ) ;
#33 = CARTESIAN_POINT ( 'NONE',  ( 59.69999999999999574, 2.596251214192388770E-15, -21.19999999999999929 ) ) ;
#34 = CARTESIAN_POINT ( 'NONE',  ( 60.00000000000000000, 0.000000000000000000, -20.89999999999999858 ) ) ;
#35 = CC_DESIGN_DATE_AND_TIME_ASSIGNMENT ( #18, #123, ( #244 ) ) ;
#36 = CYLINDRICAL_SURFACE ( 'NONE', #89, 21.19999999999999929 ) ;
#37 = CIRCLE ( 'NONE', #58, 0.3000000000000016542 ) ;
#38 = UNCERTAINTY_MEASURE_WITH_UNIT (LENGTH_MEASURE( 1.000000000000000082E-05 ), #311, 'distance_accuracy_value', 'NONE');
#39 = ORIENTED_EDGE ( 'NONE', *, *, #116, .F. ) ;
#40 = PERSON_AND_ORGANIZATION_ROLE ( 'creator' ) ;
#41 = ORIENTED_EDGE ( 'NONE', *, *, #237, .F. ) ;
#42 = AXIS2_PLACEMENT_3D ( 'NONE', #247, #333, #141 ) ;
#43 = PERSON_AND_ORGANIZATION ( #284, #195 ) ;
#44 = ORIENTED_EDGE ( 'NONE', *, *, #61, .F. ) ;
#45 = LOCAL_TIME ( 17, 10, 32.00000000000000000, #287 ) ;
#46 = DATE_AND_TIME ( #98, #332 ) ;
#47 = ORIENTED_EDGE ( 'NONE', *, *, #61, .T. ) ;
#48 = DATE_TIME_ROLE ( 'classification_date' ) ;
#49 = ADVANCED_FACE ( 'NONE', ( #30 ), #87, .F. ) ;
#50 = ORIENTED_EDGE ( 'NONE', *, *, #127, .F. ) ;
#51 = DIRECTION ( 'NONE',  ( 0.000000000000000000, 0.000000000000000000, -1.000000000000000000 ) ) ;
#52 = CIRCLE ( 'NONE', #263, 21.19999999999999929 ) ;
#53 = DIRECTION ( 'NONE',  ( 1.000000000000000000, 0.000000000000000000, 0.000000000000000000 ) ) ;
#54 = EDGE_CURVE ( 'NONE', #254, #309, #20, .T. ) ;
#55 = DIRECTION ( 'NONE',  ( 1.000000000000000000, 0.000000000000000000, 0.000000000000000000 ) ) ;
#56 = AXIS2_PLACEMENT_3D ( 'NONE', #349, #193, #28 ) ;
#57 = DIRECTION ( 'NONE',  ( 0.000000000000000000, 0.000000000000000000, -1.000000000000000000 ) ) ;
#58 = AXIS2_PLACEMENT_3D ( 'NONE', #228, #202, #200 ) ;
#59 = CARTESIAN_POINT ( 'NONE',  ( -59.70000000000000284, 0.000000000000000000, 0.000000000000000000 ) ) ;
#60 = DIRECTION ( 'NONE',  ( 0.000000000000000000, 0.000000000000000000, -1.000000000000000000 ) ) ;
#61 = EDGE_CURVE ( 'NONE', #100, #149, #52, .T. ) ;
#62 = DIRECTION ( 'NONE',  ( 0.000000000000000000, 0.000000000000000000, -1.000000000000000000 ) ) ;
#63 = DIRECTION ( 'NONE',  ( 0.000000000000000000, 0.000000000000000000, 1.000000000000000000 ) ) ;
#64 = AXIS2_PLACEMENT_3D ( 'NONE', #110, #297, #225 ) ;
#65 = ORIENTED_EDGE ( 'NONE', *, *, #78, .F. ) ;
#66 = APPLICATION_PROTOCOL_DEFINITION ( 'international standard', 'config_control_design', 1994, #167 ) ;
#67 = ORIENTED_EDGE ( 'NONE', *, *, #90, .T. ) ;
#68 = EDGE_LOOP ( 'NONE', ( #320, #122, #337, #286 ) ) ;
#69 = AXIS2_PLACEMENT_3D ( 'NONE', #160, #136, #294 ) ;
#70 = APPROVAL_ROLE ( '' ) ;
#71 = AXIS2_PLACEMENT_3D ( 'NONE', #198, #299, #60 ) ;
#72 = EDGE_LOOP ( 'NONE', ( #318, #343, #65, #203 ) ) ;
#73 = EDGE_CURVE ( 'NONE', #288, #99, #190, .T. ) ;
#74 = DATE_AND_TIME ( #319, #185 ) ;
#75 = VERTEX_POINT ( 'NONE', #265 ) ;
#76 = PERSON_AND_ORGANIZATION ( #284, #195 ) ;
#77 = DIRECTION ( 'NONE',  ( 1.000000000000000000, 0.000000000000000000, 0.000000000000000000 ) ) ;
#78 = EDGE_CURVE ( 'NONE', #14, #214, #222, .T. ) ;
#79 = LOCAL_TIME ( 17, 10, 32.00000000000000000, #159 ) ;
#80 = APPROVAL_DATE_TIME ( #27, #133 ) ;
#81 = CARTESIAN_POINT ( 'NONE',  ( -59.70000000000000284, 0.000000000000000000, 0.000000000000000000 ) ) ;
#82 = APPROVAL_ROLE ( '' ) ;
#83 = DIRECTION ( 'NONE',  ( 0.000000000000000000, 0.000000000000000000, -1.000000000000000000 ) ) ;
#84 = AXIS2_PLACEMENT_3D ( 'NONE', #95, #236, #104 ) ;
#85 = EDGE_CURVE ( 'NONE', #149, #100, #96, .T. ) ;
#86 = CARTESIAN_POINT ( 'NONE',  ( 60.00000000000000000, 2.596251214192388770E-15, -21.19999999999999929 ) ) ;
#87 = CYLINDRICAL_SURFACE ( 'NONE', #64, 19.20000000000000284 ) ;
#88 = CARTESIAN_POINT ( 'NONE',  ( 60.00000000000000000, 2.577881512205178734E-15, 20.89999999999999858 ) ) ;
#89 = AXIS2_PLACEMENT_3D ( 'NONE', #174, #274, #63 ) ;
#90 = EDGE_CURVE ( 'NONE', #314, #75, #292, .T. ) ;
#91 = CIRCLE ( 'NONE', #212, 19.20000000000000284 ) ;
#92 = PRODUCT_DEFINITION_FORMATION_WITH_SPECIFIED_SOURCE ( 'ANY', '', #168, .NOT_KNOWN. ) ;
#93 = CARTESIAN_POINT ( 'NONE',  ( -60.00000000000000000, 0.000000000000000000, 0.000000000000000000 ) ) ;
#94 = CARTESIAN_POINT ( 'NONE',  ( 59.69999999999999574, 0.000000000000000000, 21.19999999999999929 ) ) ;
#95 = CARTESIAN_POINT ( 'NONE',  ( 60.00000000000000000, 0.000000000000000000, 0.000000000000000000 ) ) ;
#96 = CIRCLE ( 'NONE', #310, 21.19999999999999929 ) ;
#97 = ORIENTED_EDGE ( 'NONE', *, *, #248, .T. ) ;
#98 = CALENDAR_DATE ( 2024, 8, 10 ) ;
#99 = VERTEX_POINT ( 'NONE', #137 ) ;
#100 = VERTEX_POINT ( 'NONE', #218 ) ;
#101 = CC_DESIGN_PERSON_AND_ORGANIZATION_ASSIGNMENT ( #289, #154, ( #92 ) ) ;
#102 = CIRCLE ( 'NONE', #302, 20.89999999999999858 ) ;
#103 = PERSON_AND_ORGANIZATION_ROLE ( 'design_supplier' ) ;
#104 = DIRECTION ( 'NONE',  ( 0.000000000000000000, 0.000000000000000000, 1.000000000000000000 ) ) ;
#105 = APPROVAL_DATE_TIME ( #156, #301 ) ;
#106 = AXIS2_PLACEMENT_3D ( 'NONE', #353, #325, #269 ) ;
#107 = PLANE ( 'NONE',  #256 ) ;
#108 = DIRECTION ( 'NONE',  ( 0.000000000000000000, 0.000000000000000000, -1.000000000000000000 ) ) ;
#109 = ADVANCED_FACE ( 'NONE', ( #169 ), #4, .T. ) ;
#110 = CARTESIAN_POINT ( 'NONE',  ( 60.00000000000000000, 0.000000000000000000, 0.000000000000000000 ) ) ;
#111 = ORIENTED_EDGE ( 'NONE', *, *, #150, .T. ) ;
#112 = AXIS2_PLACEMENT_3D ( 'NONE', #245, #3, #323 ) ;
#113 = CARTESIAN_POINT ( 'NONE',  ( -60.00000000000000000, 0.000000000000000000, 0.000000000000000000 ) ) ;
#114 = CARTESIAN_POINT ( 'NONE',  ( 59.69999999999999574, 0.000000000000000000, -20.89999999999999858 ) ) ;
#115 = CARTESIAN_POINT ( 'NONE',  ( -60.00000000000000000, 0.000000000000000000, 19.20000000000000284 ) ) ;
#116 = EDGE_CURVE ( 'NONE', #309, #214, #24, .T. ) ;
#117 = CIRCLE ( 'NONE', #317, 19.20000000000000284 ) ;
#118 = CARTESIAN_POINT ( 'NONE',  ( -60.00000000000000000, 2.577881512205178734E-15, 20.89999999999999858 ) ) ;
#119 = CARTESIAN_POINT ( 'NONE',  ( -59.70000000000000284, 0.000000000000000000, 0.000000000000000000 ) ) ;
#120 = ORIENTED_EDGE ( 'NONE', *, *, #180, .T. ) ;
#121 = CARTESIAN_POINT ( 'NONE',  ( 59.69999999999999574, 0.000000000000000000, 0.000000000000000000 ) ) ;
#122 = ORIENTED_EDGE ( 'NONE', *, *, #315, .T. ) ;
#123 = DATE_TIME_ROLE ( 'creation_date' ) ;
#124 = LOCAL_TIME ( 17, 10, 32.00000000000000000, #279 ) ;
#125 = EDGE_LOOP ( 'NONE', ( #183, #67 ) ) ;
#126 = PERSON_AND_ORGANIZATION ( #284, #195 ) ;
#127 = EDGE_CURVE ( 'NONE', #99, #288, #117, .T. ) ;
#128 = ORIENTED_EDGE ( 'NONE', *, *, #215, .F. ) ;
#129 = ORIENTED_EDGE ( 'NONE', *, *, #85, .T. ) ;
#130 =( NAMED_UNIT ( * ) PLANE_ANGLE_UNIT ( ) SI_UNIT ( $, .RADIAN. ) );
#131 = DIRECTION ( 'NONE',  ( 0.000000000000000000, 0.000000000000000000, -1.000000000000000000 ) ) ;
#132 = AXIS2_PLACEMENT_3D ( 'NONE', #230, #8, #173 ) ;
#133 = APPROVAL ( #162, 'UNSPECIFIED' ) ;
#134 = DIRECTION ( 'NONE',  ( 1.000000000000000000, 0.000000000000000000, 0.000000000000000000 ) ) ;
#135 = TOROIDAL_SURFACE ( 'NONE', #71, 20.89999999999999858, 0.2999999999999999889 ) ;
#136 = DIRECTION ( 'NONE',  ( 0.000000000000000000, 1.000000000000000000, -1.224646799147353207E-16 ) ) ;
#137 = CARTESIAN_POINT ( 'NONE',  ( -60.00000000000000000, 2.351321854362918079E-15, -19.20000000000000284 ) ) ;
#138 = FACE_OUTER_BOUND ( 'NONE', #125, .T. ) ;
#139 = AXIS2_PLACEMENT_3D ( 'NONE', #351, #239, #83 ) ;
#140 = ADVANCED_FACE ( 'NONE', ( #138, #322 ), #107, .F. ) ;
#141 = DIRECTION ( 'NONE',  ( 0.000000000000000000, 0.000000000000000000, -1.000000000000000000 ) ) ;
#142 = CARTESIAN_POINT ( 'NONE',  ( 60.00000000000000000, 0.000000000000000000, 21.19999999999999929 ) ) ;
#143 = ADVANCED_FACE ( 'NONE', ( #241 ), #182, .T. ) ;
#144 = ORIENTED_EDGE ( 'NONE', *, *, #73, .T. ) ;
#145 = DIRECTION ( 'NONE',  ( 0.000000000000000000, 0.000000000000000000, -1.000000000000000000 ) ) ;
#146 = ORIENTED_EDGE ( 'NONE', *, *, #19, .T. ) ;
#147 = APPROVAL_STATUS ( 'not_yet_approved' ) ;
#148 = VECTOR ( 'NONE', #252, 1000.000000000000000 ) ;
#149 = VERTEX_POINT ( 'NONE', #221 ) ;
#150 = EDGE_CURVE ( 'NONE', #298, #288, #164, .T. ) ;
#151 = FACE_OUTER_BOUND ( 'NONE', #257, .T. ) ;
#152 = APPROVAL_PERSON_ORGANIZATION ( #181, #133, #82 ) ;
#153 = ORIENTED_EDGE ( 'NONE', *, *, #295, .T. ) ;
#154 = PERSON_AND_ORGANIZATION_ROLE ( 'creator' ) ;
#155 = EDGE_LOOP ( 'NONE', ( #144, #234 ) ) ;
#156 = DATE_AND_TIME ( #178, #45 ) ;
#157 = ORIENTED_EDGE ( 'NONE', *, *, #13, .T. ) ;
#158 = VECTOR ( 'NONE', #270, 1000.000000000000000 ) ;
#159 = COORDINATED_UNIVERSAL_TIME_OFFSET ( 1, 0, .AHEAD. ) ;
#160 = CARTESIAN_POINT ( 'NONE',  ( 59.69999999999999574, 2.559511810217968304E-15, 20.89999999999999858 ) ) ;
#161 = CC_DESIGN_PERSON_AND_ORGANIZATION_ASSIGNMENT ( #43, #16, ( #172 ) ) ;
#162 = APPROVAL_STATUS ( 'not_yet_approved' ) ;
#163 = CC_DESIGN_PERSON_AND_ORGANIZATION_ASSIGNMENT ( #216, #40, ( #244 ) ) ;
#164 = LINE ( 'NONE', #220, #210 ) ;
#165 =( GEOMETRIC_REPRESENTATION_CONTEXT ( 3 ) GLOBAL_UNCERTAINTY_ASSIGNED_CONTEXT ( ( #38 ) ) GLOBAL_UNIT_ASSIGNED_CONTEXT ( ( #311, #130, #347 ) ) REPRESENTATION_CONTEXT ( 'NONE', 'WORKASPACE' ) );
#166 = CARTESIAN_POINT ( 'NONE',  ( -60.00000000000000000, 0.000000000000000000, 0.000000000000000000 ) ) ;
#167 = APPLICATION_CONTEXT ( 'configuration controlled 3d designs of mechanical parts and assemblies' ) ;
#168 = PRODUCT ( '3D_GR1002_42.4x2_188701910', '3D_GR1002_42.4x2_188701910', '', ( #188 ) ) ;
#169 = FACE_OUTER_BOUND ( 'NONE', #72, .T. ) ;
#170 = CARTESIAN_POINT ( 'NONE',  ( 60.00000000000000000, 0.000000000000000000, 0.000000000000000000 ) ) ;
#171 = CARTESIAN_POINT ( 'NONE',  ( 59.69999999999999574, 0.000000000000000000, 0.000000000000000000 ) ) ;
#172 = SECURITY_CLASSIFICATION ( '', '', #259 ) ;
#173 = DIRECTION ( 'NONE',  ( 0.000000000000000000, 0.000000000000000000, -1.000000000000000000 ) ) ;
#174 = CARTESIAN_POINT ( 'NONE',  ( 60.00000000000000000, 0.000000000000000000, 0.000000000000000000 ) ) ;
#175 = CARTESIAN_POINT ( 'NONE',  ( 60.00000000000000000, 2.351321854362918079E-15, -19.20000000000000284 ) ) ;
#176 = ADVANCED_FACE ( 'NONE', ( #268 ), #264, .F. ) ;
#177 = ORIENTED_EDGE ( 'NONE', *, *, #73, .F. ) ;
#178 = CALENDAR_DATE ( 2024, 8, 10 ) ;
#179 = ORIENTED_EDGE ( 'NONE', *, *, #308, .F. ) ;
#180 = EDGE_CURVE ( 'NONE', #254, #149, #29, .T. ) ;
#181 = PERSON_AND_ORGANIZATION ( #284, #195 ) ;
#182 = TOROIDAL_SURFACE ( 'NONE', #266, 20.89999999999999858, 0.2999999999999999889 ) ;
#183 = ORIENTED_EDGE ( 'NONE', *, *, #308, .T. ) ;
#184 = CALENDAR_DATE ( 2024, 8, 10 ) ;
#185 = LOCAL_TIME ( 17, 10, 32.00000000000000000, #213 ) ;
#186 = ORIENTED_EDGE ( 'NONE', *, *, #180, .F. ) ;
#187 = EDGE_LOOP ( 'NONE', ( #280, #327 ) ) ;
#188 = MECHANICAL_CONTEXT ( 'NONE', #167, 'mechanical' ) ;
#189 = FACE_OUTER_BOUND ( 'NONE', #187, .T. ) ;
#190 = CIRCLE ( 'NONE', #246, 19.20000000000000284 ) ;
#191 = DIRECTION ( 'NONE',  ( 1.000000000000000000, 0.000000000000000000, 0.000000000000000000 ) ) ;
#192 = ADVANCED_FACE ( 'NONE', ( #189, #197 ), #296, .T. ) ;
#193 = DIRECTION ( 'NONE',  ( 1.000000000000000000, 0.000000000000000000, 0.000000000000000000 ) ) ;
#194 = DIRECTION ( 'NONE',  ( 1.000000000000000000, 0.000000000000000000, 0.000000000000000000 ) ) ;
#195 = ORGANIZATION ( 'UNSPECIFIED', 'UNSPECIFIED', '' ) ;
#196 = CLOSED_SHELL ( 'NONE', ( #143, #109, #176, #7, #192, #140, #206, #49, #352, #335 ) ) ;
#197 = FACE_BOUND ( 'NONE', #312, .T. ) ;
#198 = CARTESIAN_POINT ( 'NONE',  ( -59.70000000000000284, 0.000000000000000000, 0.000000000000000000 ) ) ;
#199 = CIRCLE ( 'NONE', #42, 0.3000000000000016542 ) ;
#200 = DIRECTION ( 'NONE',  ( 0.000000000000000000, 1.224646799147346305E-16, 1.000000000000000000 ) ) ;
#201 = DIRECTION ( 'NONE',  ( 0.000000000000000000, 0.000000000000000000, -1.000000000000000000 ) ) ;
#202 = DIRECTION ( 'NONE',  ( 0.000000000000000000, 1.000000000000000000, -1.224646799147353207E-16 ) ) ;
#203 = ORIENTED_EDGE ( 'NONE', *, *, #13, .F. ) ;
#204 = CIRCLE ( 'NONE', #277, 0.3000000000000016542 ) ;
#205 = APPLICATION_PROTOCOL_DEFINITION ( 'international standard', 'config_control_design', 1994, #290 ) ;
#206 = ADVANCED_FACE ( 'NONE', ( #226 ), #36, .T. ) ;
#207 = EDGE_LOOP ( 'NONE', ( #186, #283, #278, #47 ) ) ;
#208 = APPROVAL_DATE_TIME ( #46, #219 ) ;
#209 = ORIENTED_EDGE ( 'NONE', *, *, #19, .F. ) ;
#210 = VECTOR ( 'NONE', #242, 1000.000000000000000 ) ;
#211 = ORIENTED_EDGE ( 'NONE', *, *, #315, .F. ) ;
#212 = AXIS2_PLACEMENT_3D ( 'NONE', #170, #271, #51 ) ;
#213 = COORDINATED_UNIVERSAL_TIME_OFFSET ( 1, 0, .AHEAD. ) ;
#214 = VERTEX_POINT ( 'NONE', #88 ) ;
#215 = EDGE_CURVE ( 'NONE', #309, #100, #329, .T. ) ;
#216 = PERSON_AND_ORGANIZATION ( #284, #195 ) ;
#217 = CARTESIAN_POINT ( 'NONE',  ( -60.00000000000000000, 0.000000000000000000, 0.000000000000000000 ) ) ;
#218 = CARTESIAN_POINT ( 'NONE',  ( -59.70000000000000284, 0.000000000000000000, 21.19999999999999929 ) ) ;
#219 = APPROVAL ( #339, 'UNSPECIFIED' ) ;
#220 = CARTESIAN_POINT ( 'NONE',  ( 60.00000000000000000, 0.000000000000000000, 19.20000000000000284 ) ) ;
#221 = CARTESIAN_POINT ( 'NONE',  ( -59.70000000000000284, 2.596251214192388770E-15, -21.19999999999999929 ) ) ;
#222 = CIRCLE ( 'NONE', #112, 20.89999999999999858 ) ;
#223 = EDGE_LOOP ( 'NONE', ( #97, #120, #129, #128 ) ) ;
#224 = DIRECTION ( 'NONE',  ( 0.000000000000000000, 0.000000000000000000, -1.000000000000000000 ) ) ;
#225 = DIRECTION ( 'NONE',  ( 0.000000000000000000, 0.000000000000000000, 1.000000000000000000 ) ) ;
#226 = FACE_OUTER_BOUND ( 'NONE', #207, .T. ) ;
#227 = TOROIDAL_SURFACE ( 'NONE', #267, 20.89999999999999858, 0.2999999999999999889 ) ;
#228 = CARTESIAN_POINT ( 'NONE',  ( -59.70000000000000284, 2.559511810217968304E-15, 20.89999999999999858 ) ) ;
#229 = DIRECTION ( 'NONE',  ( -1.000000000000000000, -0.000000000000000000, -0.000000000000000000 ) ) ;
#230 = CARTESIAN_POINT ( 'NONE',  ( 59.69999999999999574, 0.000000000000000000, 0.000000000000000000 ) ) ;
#231 = VERTEX_POINT ( 'NONE', #175 ) ;
#232 = ORIENTED_EDGE ( 'NONE', *, *, #295, .F. ) ;
#233 = CC_DESIGN_APPROVAL ( #219, ( #92 ) ) ;
#234 = ORIENTED_EDGE ( 'NONE', *, *, #127, .T. ) ;
#235 = EDGE_LOOP ( 'NONE', ( #211, #179, #12, #44 ) ) ;
#236 = DIRECTION ( 'NONE',  ( -1.000000000000000000, -0.000000000000000000, -0.000000000000000000 ) ) ;
#237 = EDGE_CURVE ( 'NONE', #214, #14, #102, .T. ) ;
#238 = APPROVAL_PERSON_ORGANIZATION ( #321, #301, #316 ) ;
#239 = DIRECTION ( 'NONE',  ( -1.000000000000000000, -0.000000000000000000, -0.000000000000000000 ) ) ;
#240 = VECTOR ( 'NONE', #2, 1000.000000000000000 ) ;
#241 = FACE_OUTER_BOUND ( 'NONE', #68, .T. ) ;
#242 = DIRECTION ( 'NONE',  ( -1.000000000000000000, -0.000000000000000000, -0.000000000000000000 ) ) ;
#243 = DIRECTION ( 'NONE',  ( 0.000000000000000000, 0.000000000000000000, -1.000000000000000000 ) ) ;
#244 = PRODUCT_DEFINITION ( 'UNKNOWN', '', #92, #253 ) ;
#245 = CARTESIAN_POINT ( 'NONE',  ( 60.00000000000000000, 0.000000000000000000, 0.000000000000000000 ) ) ;
#246 = AXIS2_PLACEMENT_3D ( 'NONE', #93, #77, #26 ) ;
#247 = CARTESIAN_POINT ( 'NONE',  ( -59.70000000000000284, 0.000000000000000000, -20.89999999999999858 ) ) ;
#248 = EDGE_CURVE ( 'NONE', #309, #254, #348, .T. ) ;
#249 = CARTESIAN_POINT ( 'NONE',  ( 60.00000000000000000, 0.000000000000000000, 19.20000000000000284 ) ) ;
#250 = LINE ( 'NONE', #300, #158 ) ;
#251 = DIRECTION ( 'NONE',  ( 0.000000000000000000, 0.000000000000000000, -1.000000000000000000 ) ) ;
#252 = DIRECTION ( 'NONE',  ( -1.000000000000000000, -0.000000000000000000, -0.000000000000000000 ) ) ;
#253 = DESIGN_CONTEXT ( 'detailed design', #290, 'design' ) ;
#254 = VERTEX_POINT ( 'NONE', #33 ) ;
#255 = DIRECTION ( 'NONE',  ( 1.000000000000000000, 0.000000000000000000, 0.000000000000000000 ) ) ;
#256 = AXIS2_PLACEMENT_3D ( 'NONE', #166, #134, #23 ) ;
#257 = EDGE_LOOP ( 'NONE', ( #39, #338, #157, #41 ) ) ;
#258 = ORIENTED_EDGE ( 'NONE', *, *, #340, .T. ) ;
#259 = SECURITY_CLASSIFICATION_LEVEL ( 'unclassified' ) ;
#260 = EDGE_CURVE ( 'NONE', #75, #149, #199, .T. ) ;
#261 = FACE_OUTER_BOUND ( 'NONE', #223, .T. ) ;
#262 = PERSON_AND_ORGANIZATION_ROLE ( 'design_owner' ) ;
#263 = AXIS2_PLACEMENT_3D ( 'NONE', #119, #334, #201 ) ;
#264 = CYLINDRICAL_SURFACE ( 'NONE', #106, 19.20000000000000284 ) ;
#265 = CARTESIAN_POINT ( 'NONE',  ( -60.00000000000000000, 0.000000000000000000, -20.89999999999999858 ) ) ;
#266 = AXIS2_PLACEMENT_3D ( 'NONE', #81, #55, #108 ) ;
#267 = AXIS2_PLACEMENT_3D ( 'NONE', #121, #255, #11 ) ;
#268 = FACE_OUTER_BOUND ( 'NONE', #15, .T. ) ;
#269 = DIRECTION ( 'NONE',  ( 0.000000000000000000, 0.000000000000000000, 1.000000000000000000 ) ) ;
#270 = DIRECTION ( 'NONE',  ( -1.000000000000000000, -0.000000000000000000, -0.000000000000000000 ) ) ;
#271 = DIRECTION ( 'NONE',  ( 1.000000000000000000, 0.000000000000000000, 0.000000000000000000 ) ) ;
#272 = CC_DESIGN_APPROVAL ( #133, ( #172 ) ) ;
#273 = CC_DESIGN_PERSON_AND_ORGANIZATION_ASSIGNMENT ( #126, #262, ( #168 ) ) ;
#274 = DIRECTION ( 'NONE',  ( -1.000000000000000000, -0.000000000000000000, -0.000000000000000000 ) ) ;
#275 = DIRECTION ( 'NONE',  ( 0.000000000000000000, -1.000000000000000000, 0.000000000000000000 ) ) ;
#276 = CARTESIAN_POINT ( 'NONE',  ( 60.00000000000000000, 0.000000000000000000, 0.000000000000000000 ) ) ;
#277 = AXIS2_PLACEMENT_3D ( 'NONE', #114, #275, #62 ) ;
#278 = ORIENTED_EDGE ( 'NONE', *, *, #215, .T. ) ;
#279 = COORDINATED_UNIVERSAL_TIME_OFFSET ( 1, 0, .AHEAD. ) ;
#280 = ORIENTED_EDGE ( 'NONE', *, *, #78, .T. ) ;
#281 = COORDINATED_UNIVERSAL_TIME_OFFSET ( 1, 0, .AHEAD. ) ;
#282 = CIRCLE ( 'NONE', #330, 19.20000000000000284 ) ;
#283 = ORIENTED_EDGE ( 'NONE', *, *, #54, .T. ) ;
#284 = PERSON ( 'UNSPECIFIED', 'UNSPECIFIED', 'UNSPECIFIED', ('UNSPECIFIED'), ('UNSPECIFIED'), ('UNSPECIFIED') ) ;
#285 = DIRECTION ( 'NONE',  ( 0.000000000000000000, 0.000000000000000000, 1.000000000000000000 ) ) ;
#286 = ORIENTED_EDGE ( 'NONE', *, *, #260, .F. ) ;
#287 = COORDINATED_UNIVERSAL_TIME_OFFSET ( 1, 0, .AHEAD. ) ;
#288 = VERTEX_POINT ( 'NONE', #115 ) ;
#289 = PERSON_AND_ORGANIZATION ( #284, #195 ) ;
#290 = APPLICATION_CONTEXT ( 'configuration controlled 3d designs of mechanical parts and assemblies' ) ;
#291 = CALENDAR_DATE ( 2024, 8, 10 ) ;
#292 = CIRCLE ( 'NONE', #139, 20.89999999999999858 ) ;
#293 = CARTESIAN_POINT ( 'NONE',  ( 60.00000000000000000, 0.000000000000000000, 0.000000000000000000 ) ) ;
#294 = DIRECTION ( 'NONE',  ( 0.000000000000000000, 1.224646799147346305E-16, 1.000000000000000000 ) ) ;
#295 = EDGE_CURVE ( 'NONE', #298, #231, #282, .T. ) ;
#296 = PLANE ( 'NONE',  #5 ) ;
#297 = DIRECTION ( 'NONE',  ( -1.000000000000000000, -0.000000000000000000, -0.000000000000000000 ) ) ;
#298 = VERTEX_POINT ( 'NONE', #249 ) ;
#299 = DIRECTION ( 'NONE',  ( 1.000000000000000000, 0.000000000000000000, 0.000000000000000000 ) ) ;
#300 = CARTESIAN_POINT ( 'NONE',  ( 60.00000000000000000, 2.351321854362918079E-15, -19.20000000000000284 ) ) ;
#301 = APPROVAL ( #147, 'UNSPECIFIED' ) ;
#302 = AXIS2_PLACEMENT_3D ( 'NONE', #276, #303, #251 ) ;
#303 = DIRECTION ( 'NONE',  ( 1.000000000000000000, 0.000000000000000000, 0.000000000000000000 ) ) ;
#304 = APPROVAL_PERSON_ORGANIZATION ( #76, #219, #70 ) ;
#305 = MANIFOLD_SOLID_BREP ( 'Verrundung1', #196 ) ;
#306 = ADVANCED_BREP_SHAPE_REPRESENTATION ( '3D_GR1002_42.4x2_188701910', ( #305, #346 ), #165 ) ;
#307 = DIRECTION ( 'NONE',  ( 0.000000000000000000, 0.000000000000000000, -1.000000000000000000 ) ) ;
#308 = EDGE_CURVE ( 'NONE', #75, #314, #25, .T. ) ;
#309 = VERTEX_POINT ( 'NONE', #94 ) ;
#310 = AXIS2_PLACEMENT_3D ( 'NONE', #59, #191, #243 ) ;
#311 =( LENGTH_UNIT ( ) NAMED_UNIT ( * ) SI_UNIT ( .MILLI., .METRE. ) );
#312 = EDGE_LOOP ( 'NONE', ( #232, #341 ) ) ;
#313 = PERSON_AND_ORGANIZATION ( #284, #195 ) ;
#314 = VERTEX_POINT ( 'NONE', #118 ) ;
#315 = EDGE_CURVE ( 'NONE', #314, #100, #37, .T. ) ;
#316 = APPROVAL_ROLE ( '' ) ;
#317 = AXIS2_PLACEMENT_3D ( 'NONE', #217, #194, #57 ) ;
#318 = ORIENTED_EDGE ( 'NONE', *, *, #248, .F. ) ;
#319 = CALENDAR_DATE ( 2024, 8, 10 ) ;
#320 = ORIENTED_EDGE ( 'NONE', *, *, #90, .F. ) ;
#321 = PERSON_AND_ORGANIZATION ( #284, #195 ) ;
#322 = FACE_BOUND ( 'NONE', #155, .T. ) ;
#323 = DIRECTION ( 'NONE',  ( 0.000000000000000000, 0.000000000000000000, -1.000000000000000000 ) ) ;
#324 = CC_DESIGN_PERSON_AND_ORGANIZATION_ASSIGNMENT ( #313, #103, ( #92 ) ) ;
#325 = DIRECTION ( 'NONE',  ( -1.000000000000000000, -0.000000000000000000, -0.000000000000000000 ) ) ;
#326 = AXIS2_PLACEMENT_3D ( 'NONE', #171, #229, #307 ) ;
#327 = ORIENTED_EDGE ( 'NONE', *, *, #237, .T. ) ;
#328 = FACE_OUTER_BOUND ( 'NONE', #235, .T. ) ;
#329 = LINE ( 'NONE', #142, #148 ) ;
#330 = AXIS2_PLACEMENT_3D ( 'NONE', #31, #336, #145 ) ;
#331 = AXIS2_PLACEMENT_3D ( 'NONE', #113, #6, #224 ) ;
#332 = LOCAL_TIME ( 17, 10, 32.00000000000000000, #281 ) ;
#333 = DIRECTION ( 'NONE',  ( 0.000000000000000000, -1.000000000000000000, 0.000000000000000000 ) ) ;
#334 = DIRECTION ( 'NONE',  ( 1.000000000000000000, 0.000000000000000000, 0.000000000000000000 ) ) ;
#335 = ADVANCED_FACE ( 'NONE', ( #328 ), #135, .T. ) ;
#336 = DIRECTION ( 'NONE',  ( 1.000000000000000000, 0.000000000000000000, 0.000000000000000000 ) ) ;
#337 = ORIENTED_EDGE ( 'NONE', *, *, #85, .F. ) ;
#338 = ORIENTED_EDGE ( 'NONE', *, *, #54, .F. ) ;
#339 = APPROVAL_STATUS ( 'not_yet_approved' ) ;
#340 = EDGE_CURVE ( 'NONE', #231, #298, #91, .T. ) ;
#341 = ORIENTED_EDGE ( 'NONE', *, *, #340, .F. ) ;
#342 = DIRECTION ( 'NONE',  ( 1.000000000000000000, 0.000000000000000000, 0.000000000000000000 ) ) ;
#343 = ORIENTED_EDGE ( 'NONE', *, *, #116, .T. ) ;
#344 = CARTESIAN_POINT ( 'NONE',  ( 0.000000000000000000, 0.000000000000000000, 0.000000000000000000 ) ) ;
#345 = EDGE_LOOP ( 'NONE', ( #209, #258, #111, #50 ) ) ;
#346 = AXIS2_PLACEMENT_3D ( 'NONE', #344, #285, #342 ) ;
#347 =( NAMED_UNIT ( * ) SI_UNIT ( $, .STERADIAN. ) SOLID_ANGLE_UNIT ( ) );
#348 = CIRCLE ( 'NONE', #132, 21.19999999999999929 ) ;
#349 = CARTESIAN_POINT ( 'NONE',  ( 59.69999999999999574, 0.000000000000000000, 0.000000000000000000 ) ) ;
#350 = CC_DESIGN_SECURITY_CLASSIFICATION ( #172, ( #92 ) ) ;
#351 = CARTESIAN_POINT ( 'NONE',  ( -60.00000000000000000, 0.000000000000000000, 0.000000000000000000 ) ) ;
#352 = ADVANCED_FACE ( 'NONE', ( #151 ), #227, .T. ) ;
#353 = CARTESIAN_POINT ( 'NONE',  ( 60.00000000000000000, 0.000000000000000000, 0.000000000000000000 ) ) ;
ENDSEC;
END-ISO-10303-21;
