ISO-10303-21;
HEADER;
FILE_DESCRIPTION (( 'STEP AP203' ),
    '1' );
FILE_NAME ('3D_M-7012G_DN15_174731015.STEP',
    '2024-10-04T13:18:22',
    ( '' ),
    ( '' ),
    'SwSTEP 2.0',
    'SolidWorks 2024',
    '' );
FILE_SCHEMA (( 'CONFIG_CONTROL_DESIGN' ));
ENDSEC;

DATA;
#1 = LINE ( 'NONE', #189, #181 ) ;
#2 = CARTESIAN_POINT ( 'NONE',  ( 0.000000000000000000, 0.000000000000000000, 0.000000000000000000 ) ) ;
#3 = LOCAL_TIME ( 15, 18, 22.00000000000000000, #31 ) ;
#4 = DIRECTION ( 'NONE',  ( 0.000000000000000000, 0.000000000000000000, 1.000000000000000000 ) ) ;
#5 = ADVANCED_FACE ( 'NONE', ( #113, #130 ), #12, .T. ) ;
#6 = DIRECTION ( 'NONE',  ( 0.000000000000000000, 1.000000000000000000, 0.000000000000000000 ) ) ;
#7 = PERSON_AND_ORGANIZATION ( #199, #66 ) ;
#8 = PERSON_AND_ORGANIZATION ( #199, #66 ) ;
#9 = ORIENTED_EDGE ( 'NONE', *, *, #137, .F. ) ;
#10 = ORIENTED_EDGE ( 'NONE', *, *, #70, .F. ) ;
#11 = AXIS2_PLACEMENT_3D ( 'NONE', #174, #41, #249 ) ;
#12 = PLANE ( 'NONE',  #81 ) ;
#13 = CC_DESIGN_APPROVAL ( #176, ( #109 ) ) ;
#14 = LINE ( 'NONE', #92, #65 ) ;
#15 = CC_DESIGN_PERSON_AND_ORGANIZATION_ASSIGNMENT ( #228, #35, ( #109 ) ) ;
#16 = DIRECTION ( 'NONE',  ( 0.000000000000000000, 1.000000000000000000, 0.000000000000000000 ) ) ;
#17 = DIRECTION ( 'NONE',  ( 0.000000000000000000, 1.000000000000000000, 0.000000000000000000 ) ) ;
#18 = CARTESIAN_POINT ( 'NONE',  ( 1.347111479062088405E-15, 0.000000000000000000, 11.00000000000000000 ) ) ;
#19 =( NAMED_UNIT ( * ) PLANE_ANGLE_UNIT ( ) SI_UNIT ( $, .RADIAN. ) );
#20 = CARTESIAN_POINT ( 'NONE',  ( 0.000000000000000000, 0.000000000000000000, 0.000000000000000000 ) ) ;
#21 = UNCERTAINTY_MEASURE_WITH_UNIT (LENGTH_MEASURE( 1.000000000000000082E-05 ), #45, 'distance_accuracy_value', 'NONE');
#22 = CIRCLE ( 'NONE', #165, 11.00000000000000000 ) ;
#23 = PERSON_AND_ORGANIZATION_ROLE ( 'design_owner' ) ;
#24 = MANIFOLD_SOLID_BREP ( 'Aufsatz-Linear austragen1', #169 ) ;
#25 = APPROVAL ( #154, 'UNSPECIFIED' ) ;
#26 = DIRECTION ( 'NONE',  ( -0.000000000000000000, -1.000000000000000000, -0.000000000000000000 ) ) ;
#27 = CARTESIAN_POINT ( 'NONE',  ( 1.347111479062088405E-15, 65.00000000000000000, 11.00000000000000000 ) ) ;
#28 = APPROVAL_DATE_TIME ( #147, #176 ) ;
#29 = AXIS2_PLACEMENT_3D ( 'NONE', #68, #157, #101 ) ;
#30 = CC_DESIGN_APPROVAL ( #55, ( #158 ) ) ;
#31 = COORDINATED_UNIVERSAL_TIME_OFFSET ( 1, 0, .AHEAD. ) ;
#32 = VERTEX_POINT ( 'NONE', #246 ) ;
#33 = CALENDAR_DATE ( 2024, 4, 10 ) ;
#34 = CC_DESIGN_PERSON_AND_ORGANIZATION_ASSIGNMENT ( #87, #103, ( #158 ) ) ;
#35 = PERSON_AND_ORGANIZATION_ROLE ( 'design_supplier' ) ;
#36 = APPLICATION_CONTEXT ( 'configuration controlled 3d designs of mechanical parts and assemblies' ) ;
#37 = ORIENTED_EDGE ( 'NONE', *, *, #248, .F. ) ;
#38 = CARTESIAN_POINT ( 'NONE',  ( 0.000000000000000000, 65.00000000000000000, 0.000000000000000000 ) ) ;
#39 = AXIS2_PLACEMENT_3D ( 'NONE', #75, #239, #4 ) ;
#40 = PLANE ( 'NONE',  #237 ) ;
#41 = DIRECTION ( 'NONE',  ( -0.000000000000000000, -1.000000000000000000, -0.000000000000000000 ) ) ;
#42 = CARTESIAN_POINT ( 'NONE',  ( 0.000000000000000000, 0.000000000000000000, 0.000000000000000000 ) ) ;
#43 = ADVANCED_FACE ( 'NONE', ( #217, #89 ), #40, .F. ) ;
#44 = CALENDAR_DATE ( 2024, 4, 10 ) ;
#45 =( LENGTH_UNIT ( ) NAMED_UNIT ( * ) SI_UNIT ( .MILLI., .METRE. ) );
#46 = DIRECTION ( 'NONE',  ( 0.000000000000000000, 0.000000000000000000, 1.000000000000000000 ) ) ;
#47 = EDGE_LOOP ( 'NONE', ( #143, #110 ) ) ;
#48 = AXIS2_PLACEMENT_3D ( 'NONE', #38, #234, #172 ) ;
#49 = ADVANCED_FACE ( 'NONE', ( #173 ), #93, .T. ) ;
#50 = EDGE_LOOP ( 'NONE', ( #135, #223, #146, #57 ) ) ;
#51 = LOCAL_TIME ( 15, 18, 22.00000000000000000, #56 ) ;
#52 = APPROVAL_DATE_TIME ( #105, #55 ) ;
#53 = APPROVAL_DATE_TIME ( #119, #25 ) ;
#54 = ORIENTED_EDGE ( 'NONE', *, *, #117, .T. ) ;
#55 = APPROVAL ( #183, 'UNSPECIFIED' ) ;
#56 = COORDINATED_UNIVERSAL_TIME_OFFSET ( 1, 0, .AHEAD. ) ;
#57 = ORIENTED_EDGE ( 'NONE', *, *, #94, .F. ) ;
#58 = ORIENTED_EDGE ( 'NONE', *, *, #128, .T. ) ;
#59 = ORIENTED_EDGE ( 'NONE', *, *, #94, .T. ) ;
#60 = VERTEX_POINT ( 'NONE', #18 ) ;
#61 = CYLINDRICAL_SURFACE ( 'NONE', #108, 8.499999999999998224 ) ;
#62 = CARTESIAN_POINT ( 'NONE',  ( 0.000000000000000000, 65.00000000000000000, 0.000000000000000000 ) ) ;
#63 = EDGE_CURVE ( 'NONE', #232, #164, #156, .T. ) ;
#64 = APPROVAL_ROLE ( '' ) ;
#65 = VECTOR ( 'NONE', #247, 1000.000000000000000 ) ;
#66 = ORGANIZATION ( 'UNSPECIFIED', 'UNSPECIFIED', '' ) ;
#67 = CARTESIAN_POINT ( 'NONE',  ( 1.347111479062088405E-15, 65.00000000000000000, 11.00000000000000000 ) ) ;
#68 = CARTESIAN_POINT ( 'NONE',  ( 0.000000000000000000, 65.00000000000000000, 0.000000000000000000 ) ) ;
#69 = AXIS2_PLACEMENT_3D ( 'NONE', #74, #150, #231 ) ;
#70 = EDGE_CURVE ( 'NONE', #229, #193, #120, .T. ) ;
#71 = DATE_AND_TIME ( #202, #91 ) ;
#72 = ORIENTED_EDGE ( 'NONE', *, *, #148, .F. ) ;
#73 = EDGE_LOOP ( 'NONE', ( #10, #37 ) ) ;
#74 = CARTESIAN_POINT ( 'NONE',  ( 0.000000000000000000, 65.00000000000000000, 0.000000000000000000 ) ) ;
#75 = CARTESIAN_POINT ( 'NONE',  ( 0.000000000000000000, 0.000000000000000000, 0.000000000000000000 ) ) ;
#76 = ORIENTED_EDGE ( 'NONE', *, *, #167, .T. ) ;
#77 = ADVANCED_FACE ( 'NONE', ( #129 ), #61, .F. ) ;
#78 = VERTEX_POINT ( 'NONE', #192 ) ;
#79 = DIRECTION ( 'NONE',  ( -0.000000000000000000, -1.000000000000000000, -0.000000000000000000 ) ) ;
#80 = LINE ( 'NONE', #198, #170 ) ;
#81 = AXIS2_PLACEMENT_3D ( 'NONE', #62, #17, #134 ) ;
#82 = APPROVAL_PERSON_ORGANIZATION ( #7, #25, #64 ) ;
#83 =( NAMED_UNIT ( * ) SI_UNIT ( $, .STERADIAN. ) SOLID_ANGLE_UNIT ( ) );
#84 = CYLINDRICAL_SURFACE ( 'NONE', #29, 11.00000000000000000 ) ;
#85 = PERSON_AND_ORGANIZATION_ROLE ( 'creator' ) ;
#86 = COORDINATED_UNIVERSAL_TIME_OFFSET ( 1, 0, .AHEAD. ) ;
#87 = PERSON_AND_ORGANIZATION ( #199, #66 ) ;
#88 = AXIS2_PLACEMENT_3D ( 'NONE', #96, #152, #106 ) ;
#89 = FACE_BOUND ( 'NONE', #125, .T. ) ;
#90 = CIRCLE ( 'NONE', #190, 11.00000000000000000 ) ;
#91 = LOCAL_TIME ( 15, 18, 22.00000000000000000, #124 ) ;
#92 = CARTESIAN_POINT ( 'NONE',  ( 0.000000000000000000, 65.00000000000000000, -11.00000000000000000 ) ) ;
#93 = CYLINDRICAL_SURFACE ( 'NONE', #11, 11.00000000000000000 ) ;
#94 = EDGE_CURVE ( 'NONE', #229, #232, #1, .T. ) ;
#95 = DIRECTION ( 'NONE',  ( -0.000000000000000000, -1.000000000000000000, -0.000000000000000000 ) ) ;
#96 = CARTESIAN_POINT ( 'NONE',  ( 0.000000000000000000, 0.000000000000000000, 0.000000000000000000 ) ) ;
#97 = DIRECTION ( 'NONE',  ( -0.000000000000000000, -1.000000000000000000, -0.000000000000000000 ) ) ;
#98 = DESIGN_CONTEXT ( 'detailed design', #36, 'design' ) ;
#99 = DIRECTION ( 'NONE',  ( 0.000000000000000000, 1.000000000000000000, 0.000000000000000000 ) ) ;
#100 = VECTOR ( 'NONE', #97, 1000.000000000000000 ) ;
#101 = DIRECTION ( 'NONE',  ( 0.000000000000000000, 0.000000000000000000, -1.000000000000000000 ) ) ;
#102 = MECHANICAL_CONTEXT ( 'NONE', #219, 'mechanical' ) ;
#103 = PERSON_AND_ORGANIZATION_ROLE ( 'classification_officer' ) ;
#104 = PERSON_AND_ORGANIZATION ( #199, #66 ) ;
#105 = DATE_AND_TIME ( #33, #149 ) ;
#106 = DIRECTION ( 'NONE',  ( 0.000000000000000000, 0.000000000000000000, 1.000000000000000000 ) ) ;
#107 = DIRECTION ( 'NONE',  ( 0.000000000000000000, 0.000000000000000000, -1.000000000000000000 ) ) ;
#108 = AXIS2_PLACEMENT_3D ( 'NONE', #177, #95, #107 ) ;
#109 = PRODUCT_DEFINITION_FORMATION_WITH_SPECIFIED_SOURCE ( 'ANY', '', #163, .NOT_KNOWN. ) ;
#110 = ORIENTED_EDGE ( 'NONE', *, *, #131, .T. ) ;
#111 = ADVANCED_FACE ( 'NONE', ( #230 ), #211, .F. ) ;
#112 = ORIENTED_EDGE ( 'NONE', *, *, #208, .F. ) ;
#113 = FACE_OUTER_BOUND ( 'NONE', #47, .T. ) ;
#114 = DIRECTION ( 'NONE',  ( 0.000000000000000000, 1.000000000000000000, 0.000000000000000000 ) ) ;
#115 = DIRECTION ( 'NONE',  ( 0.000000000000000000, 0.000000000000000000, 1.000000000000000000 ) ) ;
#116 = DIRECTION ( 'NONE',  ( 0.000000000000000000, 0.000000000000000000, 1.000000000000000000 ) ) ;
#117 = EDGE_CURVE ( 'NONE', #32, #78, #14, .T. ) ;
#118 = DIRECTION ( 'NONE',  ( 0.000000000000000000, 0.000000000000000000, 1.000000000000000000 ) ) ;
#119 = DATE_AND_TIME ( #44, #204 ) ;
#120 = CIRCLE ( 'NONE', #48, 8.499999999999998224 ) ;
#121 = AXIS2_PLACEMENT_3D ( 'NONE', #222, #197, #116 ) ;
#122 = APPROVAL_PERSON_ORGANIZATION ( #104, #176, #243 ) ;
#123 = EDGE_LOOP ( 'NONE', ( #72, #112, #54, #76 ) ) ;
#124 = COORDINATED_UNIVERSAL_TIME_OFFSET ( 1, 0, .AHEAD. ) ;
#125 = EDGE_LOOP ( 'NONE', ( #205, #151 ) ) ;
#126 = CALENDAR_DATE ( 2024, 4, 10 ) ;
#127 = ORIENTED_EDGE ( 'NONE', *, *, #248, .T. ) ;
#128 = EDGE_CURVE ( 'NONE', #60, #78, #203, .T. ) ;
#129 = FACE_OUTER_BOUND ( 'NONE', #50, .T. ) ;
#130 = FACE_BOUND ( 'NONE', #73, .T. ) ;
#131 = EDGE_CURVE ( 'NONE', #132, #32, #224, .T. ) ;
#132 = VERTEX_POINT ( 'NONE', #67 ) ;
#133 = AXIS2_PLACEMENT_3D ( 'NONE', #2, #6, #159 ) ;
#134 = DIRECTION ( 'NONE',  ( 0.000000000000000000, -0.000000000000000000, 1.000000000000000000 ) ) ;
#135 = ORIENTED_EDGE ( 'NONE', *, *, #70, .T. ) ;
#136 = COORDINATED_UNIVERSAL_TIME_OFFSET ( 1, 0, .AHEAD. ) ;
#137 = EDGE_CURVE ( 'NONE', #164, #232, #213, .T. ) ;
#138 = CARTESIAN_POINT ( 'NONE',  ( 1.040949779275249943E-15, 0.000000000000000000, 8.499999999999998224 ) ) ;
#139 = DIRECTION ( 'NONE',  ( 1.000000000000000000, 0.000000000000000000, 0.000000000000000000 ) ) ;
#140 = CC_DESIGN_PERSON_AND_ORGANIZATION_ASSIGNMENT ( #8, #85, ( #109 ) ) ;
#141 = PERSON_AND_ORGANIZATION ( #199, #66 ) ;
#142 = DATE_TIME_ROLE ( 'classification_date' ) ;
#143 = ORIENTED_EDGE ( 'NONE', *, *, #208, .T. ) ;
#144 = CIRCLE ( 'NONE', #238, 8.499999999999998224 ) ;
#145 = APPROVAL_PERSON_ORGANIZATION ( #166, #55, #185 ) ;
#146 = ORIENTED_EDGE ( 'NONE', *, *, #63, .F. ) ;
#147 = DATE_AND_TIME ( #126, #3 ) ;
#148 = EDGE_CURVE ( 'NONE', #132, #60, #218, .T. ) ;
#149 = LOCAL_TIME ( 15, 18, 22.00000000000000000, #86 ) ;
#150 = DIRECTION ( 'NONE',  ( -0.000000000000000000, -1.000000000000000000, -0.000000000000000000 ) ) ;
#151 = ORIENTED_EDGE ( 'NONE', *, *, #137, .T. ) ;
#152 = DIRECTION ( 'NONE',  ( 0.000000000000000000, 1.000000000000000000, 0.000000000000000000 ) ) ;
#153 = ORIENTED_EDGE ( 'NONE', *, *, #117, .F. ) ;
#154 = APPROVAL_STATUS ( 'not_yet_approved' ) ;
#155 = CC_DESIGN_PERSON_AND_ORGANIZATION_ASSIGNMENT ( #141, #23, ( #163 ) ) ;
#156 = CIRCLE ( 'NONE', #88, 8.499999999999998224 ) ;
#157 = DIRECTION ( 'NONE',  ( -0.000000000000000000, -1.000000000000000000, -0.000000000000000000 ) ) ;
#158 = SECURITY_CLASSIFICATION ( '', '', #186 ) ;
#159 = DIRECTION ( 'NONE',  ( 0.000000000000000000, 0.000000000000000000, 1.000000000000000000 ) ) ;
#160 = ADVANCED_FACE ( 'NONE', ( #161 ), #84, .T. ) ;
#161 = FACE_OUTER_BOUND ( 'NONE', #207, .T. ) ;
#162 = SHAPE_DEFINITION_REPRESENTATION ( #245, #178 ) ;
#163 = PRODUCT ( '3D_M-7012G_DN15_174731015', '3D_M-7012G_DN15_174731015', '', ( #102 ) ) ;
#164 = VERTEX_POINT ( 'NONE', #138 ) ;
#165 = AXIS2_PLACEMENT_3D ( 'NONE', #20, #182, #46 ) ;
#166 = PERSON_AND_ORGANIZATION ( #199, #66 ) ;
#167 = EDGE_CURVE ( 'NONE', #78, #60, #22, .T. ) ;
#168 = DATE_AND_TIME ( #206, #51 ) ;
#169 = CLOSED_SHELL ( 'NONE', ( #77, #160, #5, #43, #49, #111 ) ) ;
#170 = VECTOR ( 'NONE', #26, 1000.000000000000000 ) ;
#171 = CC_DESIGN_SECURITY_CLASSIFICATION ( #158, ( #109 ) ) ;
#172 = DIRECTION ( 'NONE',  ( 0.000000000000000000, 0.000000000000000000, 1.000000000000000000 ) ) ;
#173 = FACE_OUTER_BOUND ( 'NONE', #123, .T. ) ;
#174 = CARTESIAN_POINT ( 'NONE',  ( 0.000000000000000000, 65.00000000000000000, 0.000000000000000000 ) ) ;
#175 = ORIENTED_EDGE ( 'NONE', *, *, #167, .F. ) ;
#176 = APPROVAL ( #210, 'UNSPECIFIED' ) ;
#177 = CARTESIAN_POINT ( 'NONE',  ( 0.000000000000000000, 65.00000000000000000, 0.000000000000000000 ) ) ;
#178 = ADVANCED_BREP_SHAPE_REPRESENTATION ( '3D_M-7012G_DN15_174731015', ( #24, #240 ), #191 ) ;
#179 = CARTESIAN_POINT ( 'NONE',  ( 1.040949779275249943E-15, 65.00000000000000000, 8.499999999999998224 ) ) ;
#180 = CARTESIAN_POINT ( 'NONE',  ( 0.000000000000000000, 65.00000000000000000, 0.000000000000000000 ) ) ;
#181 = VECTOR ( 'NONE', #79, 1000.000000000000000 ) ;
#182 = DIRECTION ( 'NONE',  ( 0.000000000000000000, 1.000000000000000000, 0.000000000000000000 ) ) ;
#183 = APPROVAL_STATUS ( 'not_yet_approved' ) ;
#184 = PRODUCT_RELATED_PRODUCT_CATEGORY ( 'detail', '', ( #163 ) ) ;
#185 = APPROVAL_ROLE ( '' ) ;
#186 = SECURITY_CLASSIFICATION_LEVEL ( 'unclassified' ) ;
#187 = CC_DESIGN_DATE_AND_TIME_ASSIGNMENT ( #71, #209, ( #201 ) ) ;
#188 = ORIENTED_EDGE ( 'NONE', *, *, #216, .F. ) ;
#189 = CARTESIAN_POINT ( 'NONE',  ( 0.000000000000000000, 65.00000000000000000, -8.499999999999998224 ) ) ;
#190 = AXIS2_PLACEMENT_3D ( 'NONE', #180, #114, #115 ) ;
#191 =( GEOMETRIC_REPRESENTATION_CONTEXT ( 3 ) GLOBAL_UNCERTAINTY_ASSIGNED_CONTEXT ( ( #21 ) ) GLOBAL_UNIT_ASSIGNED_CONTEXT ( ( #45, #19, #83 ) ) REPRESENTATION_CONTEXT ( 'NONE', 'WORKASPACE' ) );
#192 = CARTESIAN_POINT ( 'NONE',  ( 0.000000000000000000, 0.000000000000000000, -11.00000000000000000 ) ) ;
#193 = VERTEX_POINT ( 'NONE', #179 ) ;
#194 = EDGE_LOOP ( 'NONE', ( #175, #235 ) ) ;
#195 = DIRECTION ( 'NONE',  ( 0.000000000000000000, -0.000000000000000000, 1.000000000000000000 ) ) ;
#196 = CARTESIAN_POINT ( 'NONE',  ( 0.000000000000000000, 65.00000000000000000, 0.000000000000000000 ) ) ;
#197 = DIRECTION ( 'NONE',  ( 0.000000000000000000, 1.000000000000000000, 0.000000000000000000 ) ) ;
#198 = CARTESIAN_POINT ( 'NONE',  ( 1.040949779275249943E-15, 65.00000000000000000, 8.499999999999998224 ) ) ;
#199 = PERSON ( 'UNSPECIFIED', 'UNSPECIFIED', 'UNSPECIFIED', ('UNSPECIFIED'), ('UNSPECIFIED'), ('UNSPECIFIED') ) ;
#200 = APPLICATION_PROTOCOL_DEFINITION ( 'international standard', 'config_control_design', 1994, #36 ) ;
#201 = PRODUCT_DEFINITION ( 'UNKNOWN', '', #109, #98 ) ;
#202 = CALENDAR_DATE ( 2024, 4, 10 ) ;
#203 = CIRCLE ( 'NONE', #39, 11.00000000000000000 ) ;
#204 = LOCAL_TIME ( 15, 18, 22.00000000000000000, #136 ) ;
#205 = ORIENTED_EDGE ( 'NONE', *, *, #63, .T. ) ;
#206 = CALENDAR_DATE ( 2024, 4, 10 ) ;
#207 = EDGE_LOOP ( 'NONE', ( #214, #215, #58, #153 ) ) ;
#208 = EDGE_CURVE ( 'NONE', #32, #132, #90, .T. ) ;
#209 = DATE_TIME_ROLE ( 'creation_date' ) ;
#210 = APPROVAL_STATUS ( 'not_yet_approved' ) ;
#211 = CYLINDRICAL_SURFACE ( 'NONE', #69, 8.499999999999998224 ) ;
#212 = EDGE_LOOP ( 'NONE', ( #188, #127, #59, #9 ) ) ;
#213 = CIRCLE ( 'NONE', #133, 8.499999999999998224 ) ;
#214 = ORIENTED_EDGE ( 'NONE', *, *, #131, .F. ) ;
#215 = ORIENTED_EDGE ( 'NONE', *, *, #148, .T. ) ;
#216 = EDGE_CURVE ( 'NONE', #193, #164, #80, .T. ) ;
#217 = FACE_OUTER_BOUND ( 'NONE', #194, .T. ) ;
#218 = LINE ( 'NONE', #27, #100 ) ;
#219 = APPLICATION_CONTEXT ( 'configuration controlled 3d designs of mechanical parts and assemblies' ) ;
#220 = CARTESIAN_POINT ( 'NONE',  ( 0.000000000000000000, 65.00000000000000000, -8.499999999999998224 ) ) ;
#221 = CARTESIAN_POINT ( 'NONE',  ( 0.000000000000000000, 0.000000000000000000, 0.000000000000000000 ) ) ;
#222 = CARTESIAN_POINT ( 'NONE',  ( 0.000000000000000000, 65.00000000000000000, 0.000000000000000000 ) ) ;
#223 = ORIENTED_EDGE ( 'NONE', *, *, #216, .T. ) ;
#224 = CIRCLE ( 'NONE', #121, 11.00000000000000000 ) ;
#225 = CC_DESIGN_APPROVAL ( #25, ( #201 ) ) ;
#226 = CC_DESIGN_DATE_AND_TIME_ASSIGNMENT ( #168, #142, ( #158 ) ) ;
#227 = PERSON_AND_ORGANIZATION_ROLE ( 'creator' ) ;
#228 = PERSON_AND_ORGANIZATION ( #199, #66 ) ;
#229 = VERTEX_POINT ( 'NONE', #220 ) ;
#230 = FACE_OUTER_BOUND ( 'NONE', #212, .T. ) ;
#231 = DIRECTION ( 'NONE',  ( 0.000000000000000000, 0.000000000000000000, -1.000000000000000000 ) ) ;
#232 = VERTEX_POINT ( 'NONE', #241 ) ;
#233 = CC_DESIGN_PERSON_AND_ORGANIZATION_ASSIGNMENT ( #244, #227, ( #201 ) ) ;
#234 = DIRECTION ( 'NONE',  ( 0.000000000000000000, 1.000000000000000000, 0.000000000000000000 ) ) ;
#235 = ORIENTED_EDGE ( 'NONE', *, *, #128, .F. ) ;
#236 = DIRECTION ( 'NONE',  ( 0.000000000000000000, 0.000000000000000000, 1.000000000000000000 ) ) ;
#237 = AXIS2_PLACEMENT_3D ( 'NONE', #42, #16, #195 ) ;
#238 = AXIS2_PLACEMENT_3D ( 'NONE', #196, #99, #236 ) ;
#239 = DIRECTION ( 'NONE',  ( 0.000000000000000000, 1.000000000000000000, 0.000000000000000000 ) ) ;
#240 = AXIS2_PLACEMENT_3D ( 'NONE', #221, #118, #139 ) ;
#241 = CARTESIAN_POINT ( 'NONE',  ( 0.000000000000000000, 0.000000000000000000, -8.499999999999998224 ) ) ;
#242 = APPLICATION_PROTOCOL_DEFINITION ( 'international standard', 'config_control_design', 1994, #219 ) ;
#243 = APPROVAL_ROLE ( '' ) ;
#244 = PERSON_AND_ORGANIZATION ( #199, #66 ) ;
#245 = PRODUCT_DEFINITION_SHAPE ( 'NONE', 'NONE',  #201 ) ;
#246 = CARTESIAN_POINT ( 'NONE',  ( 0.000000000000000000, 65.00000000000000000, -11.00000000000000000 ) ) ;
#247 = DIRECTION ( 'NONE',  ( -0.000000000000000000, -1.000000000000000000, -0.000000000000000000 ) ) ;
#248 = EDGE_CURVE ( 'NONE', #193, #229, #144, .T. ) ;
#249 = DIRECTION ( 'NONE',  ( 0.000000000000000000, 0.000000000000000000, -1.000000000000000000 ) ) ;
ENDSEC;
END-ISO-10303-21;
