ISO-10303-21;
HEADER;
/* Generated by software containing ST-Developer
 * from STEP Tools, Inc. (www.steptools.com) 
 */

FILE_DESCRIPTION(
/* description */ (''),
/* implementation_level */ '2;1');

FILE_NAME(
/* name */ 
'C:\\Users\\cad\\Desktop\\Zeichnungen neu von Ralph\\3D_Kupplung_R134-
M\\3D_R134-M-DN15_171011610.stp',
/* time_stamp */ '2021-06-16T14:25:06+02:00',
/* author */ ('cad'),
/* organization */ (''),
/* preprocessor_version */ 'ST-DEVELOPER v18.1',
/* originating_system */ 'Autodesk Inventor 2022',
/* authorisation */ '');

FILE_SCHEMA (('AUTOMOTIVE_DESIGN { 1 0 10303 214 3 1 1 }'));
ENDSEC;

DATA;
#10=MECHANICAL_DESIGN_GEOMETRIC_PRESENTATION_REPRESENTATION('',(#13),#511);
#11=SHAPE_REPRESENTATION_RELATIONSHIP('SRR','None',#518,#12);
#12=ADVANCED_BREP_SHAPE_REPRESENTATION('',(#14),#510);
#13=STYLED_ITEM('',(#527),#14);
#14=MANIFOLD_SOLID_BREP('Volumenk\X\F6rper1',#277);
#15=TOROIDAL_SURFACE('',#318,13.55,0.3);
#16=TOROIDAL_SURFACE('',#323,14.788101,0.4);
#17=FACE_BOUND('',#56,.T.);
#18=FACE_BOUND('',#60,.T.);
#19=FACE_BOUND('',#63,.T.);
#20=CYLINDRICAL_SURFACE('',#308,15.188101);
#21=CYLINDRICAL_SURFACE('',#314,13.25);
#22=PLANE('',#301);
#23=PLANE('',#302);
#24=PLANE('',#303);
#25=PLANE('',#310);
#26=PLANE('',#317);
#27=PLANE('',#321);
#28=PLANE('',#325);
#29=PLANE('',#326);
#30=PLANE('',#327);
#31=FACE_OUTER_BOUND('',#48,.T.);
#32=FACE_OUTER_BOUND('',#49,.T.);
#33=FACE_OUTER_BOUND('',#50,.T.);
#34=FACE_OUTER_BOUND('',#51,.T.);
#35=FACE_OUTER_BOUND('',#52,.T.);
#36=FACE_OUTER_BOUND('',#53,.T.);
#37=FACE_OUTER_BOUND('',#54,.T.);
#38=FACE_OUTER_BOUND('',#55,.T.);
#39=FACE_OUTER_BOUND('',#57,.T.);
#40=FACE_OUTER_BOUND('',#58,.T.);
#41=FACE_OUTER_BOUND('',#59,.T.);
#42=FACE_OUTER_BOUND('',#61,.T.);
#43=FACE_OUTER_BOUND('',#62,.T.);
#44=FACE_OUTER_BOUND('',#64,.T.);
#45=FACE_OUTER_BOUND('',#65,.T.);
#46=FACE_OUTER_BOUND('',#66,.T.);
#47=FACE_OUTER_BOUND('',#67,.T.);
#48=EDGE_LOOP('',(#180,#181,#182,#183,#184,#185,#186,#187,#188));
#49=EDGE_LOOP('',(#189,#190,#191,#192,#193,#194,#195,#196,#197));
#50=EDGE_LOOP('',(#198,#199,#200,#201));
#51=EDGE_LOOP('',(#202,#203,#204,#205));
#52=EDGE_LOOP('',(#206,#207,#208,#209));
#53=EDGE_LOOP('',(#210,#211,#212,#213,#214));
#54=EDGE_LOOP('',(#215,#216,#217,#218,#219));
#55=EDGE_LOOP('',(#220));
#56=EDGE_LOOP('',(#221));
#57=EDGE_LOOP('',(#222,#223,#224,#225));
#58=EDGE_LOOP('',(#226,#227,#228,#229,#230));
#59=EDGE_LOOP('',(#231));
#60=EDGE_LOOP('',(#232));
#61=EDGE_LOOP('',(#233,#234,#235,#236,#237));
#62=EDGE_LOOP('',(#238));
#63=EDGE_LOOP('',(#239));
#64=EDGE_LOOP('',(#240,#241,#242,#243));
#65=EDGE_LOOP('',(#244,#245,#246,#247));
#66=EDGE_LOOP('',(#248,#249,#250,#251));
#67=EDGE_LOOP('',(#252,#253,#254,#255));
#68=(
BOUNDED_CURVE()
B_SPLINE_CURVE(2,(#411,#412,#413),.UNSPECIFIED.,.F.,.F.)
B_SPLINE_CURVE_WITH_KNOTS((3,3),(0.0980104739345483,2.21814336230438),
 .UNSPECIFIED.)
CURVE()
GEOMETRIC_REPRESENTATION_ITEM()
RATIONAL_B_SPLINE_CURVE((1.01519168006766,1.17224237953217,1.01519168006795))
REPRESENTATION_ITEM('')
);
#69=(
BOUNDED_CURVE()
B_SPLINE_CURVE(2,(#415,#416,#417),.UNSPECIFIED.,.F.,.F.)
B_SPLINE_CURVE_WITH_KNOTS((3,3),(0.0980104739345471,2.21814336230438),
 .UNSPECIFIED.)
CURVE()
GEOMETRIC_REPRESENTATION_ITEM()
RATIONAL_B_SPLINE_CURVE((1.01519168006766,1.17224237953218,1.01519168006795))
REPRESENTATION_ITEM('')
);
#70=(
BOUNDED_CURVE()
B_SPLINE_CURVE(2,(#419,#420,#421),.UNSPECIFIED.,.F.,.F.)
B_SPLINE_CURVE_WITH_KNOTS((3,3),(0.0980104739345475,2.21814336230438),
 .UNSPECIFIED.)
CURVE()
GEOMETRIC_REPRESENTATION_ITEM()
RATIONAL_B_SPLINE_CURVE((1.01519168006766,1.17224237953217,1.01519168006795))
REPRESENTATION_ITEM('')
);
#71=(
BOUNDED_CURVE()
B_SPLINE_CURVE(2,(#423,#424,#425),.UNSPECIFIED.,.F.,.F.)
B_SPLINE_CURVE_WITH_KNOTS((3,3),(0.0980104739345475,2.21814336230438),
 .UNSPECIFIED.)
CURVE()
GEOMETRIC_REPRESENTATION_ITEM()
RATIONAL_B_SPLINE_CURVE((1.01519168006766,1.17224237953217,1.01519168006795))
REPRESENTATION_ITEM('')
);
#72=(
BOUNDED_CURVE()
B_SPLINE_CURVE(2,(#427,#428,#429),.UNSPECIFIED.,.F.,.F.)
B_SPLINE_CURVE_WITH_KNOTS((3,3),(0.0980104739345479,2.21814336230438),
 .UNSPECIFIED.)
CURVE()
GEOMETRIC_REPRESENTATION_ITEM()
RATIONAL_B_SPLINE_CURVE((1.01519168006766,1.17224237953218,1.01519168006795))
REPRESENTATION_ITEM('')
);
#73=(
BOUNDED_CURVE()
B_SPLINE_CURVE(2,(#430,#431,#432),.UNSPECIFIED.,.F.,.F.)
B_SPLINE_CURVE_WITH_KNOTS((3,3),(0.0980104739345488,2.21814336230438),
 .UNSPECIFIED.)
CURVE()
GEOMETRIC_REPRESENTATION_ITEM()
RATIONAL_B_SPLINE_CURVE((1.01519168006766,1.17224237953217,1.01519168006795))
REPRESENTATION_ITEM('')
);
#74=(
BOUNDED_CURVE()
B_SPLINE_CURVE(2,(#436,#437,#438),.UNSPECIFIED.,.F.,.F.)
B_SPLINE_CURVE_WITH_KNOTS((3,3),(0.0980104739345473,2.21814336230438),
 .UNSPECIFIED.)
CURVE()
GEOMETRIC_REPRESENTATION_ITEM()
RATIONAL_B_SPLINE_CURVE((1.01519168006766,1.17224237953217,1.01519168006795))
REPRESENTATION_ITEM('')
);
#75=(
BOUNDED_CURVE()
B_SPLINE_CURVE(2,(#440,#441,#442),.UNSPECIFIED.,.F.,.F.)
B_SPLINE_CURVE_WITH_KNOTS((3,3),(0.0980104739345477,2.21814336230438),
 .UNSPECIFIED.)
CURVE()
GEOMETRIC_REPRESENTATION_ITEM()
RATIONAL_B_SPLINE_CURVE((1.01519168006766,1.17224237953217,1.01519168006795))
REPRESENTATION_ITEM('')
);
#76=(
BOUNDED_CURVE()
B_SPLINE_CURVE(2,(#444,#445,#446),.UNSPECIFIED.,.F.,.F.)
B_SPLINE_CURVE_WITH_KNOTS((3,3),(0.0980104739345485,2.21814336230438),
 .UNSPECIFIED.)
CURVE()
GEOMETRIC_REPRESENTATION_ITEM()
RATIONAL_B_SPLINE_CURVE((1.01519168006766,1.17224237953217,1.01519168006795))
REPRESENTATION_ITEM('')
);
#77=(
BOUNDED_CURVE()
B_SPLINE_CURVE(2,(#448,#449,#450),.UNSPECIFIED.,.F.,.F.)
B_SPLINE_CURVE_WITH_KNOTS((3,3),(0.0980104739345472,2.21814336230438),
 .UNSPECIFIED.)
CURVE()
GEOMETRIC_REPRESENTATION_ITEM()
RATIONAL_B_SPLINE_CURVE((1.01519168006766,1.17224237953218,1.01519168006795))
REPRESENTATION_ITEM('')
);
#78=(
BOUNDED_CURVE()
B_SPLINE_CURVE(2,(#455,#456,#457),.UNSPECIFIED.,.F.,.F.)
B_SPLINE_CURVE_WITH_KNOTS((3,3),(0.0980104739345481,2.21814336230438),
 .UNSPECIFIED.)
CURVE()
GEOMETRIC_REPRESENTATION_ITEM()
RATIONAL_B_SPLINE_CURVE((1.01519168006766,1.17224237953218,1.01519168006795))
REPRESENTATION_ITEM('')
);
#79=(
BOUNDED_CURVE()
B_SPLINE_CURVE(2,(#458,#459,#460),.UNSPECIFIED.,.F.,.F.)
B_SPLINE_CURVE_WITH_KNOTS((3,3),(0.0980104739345469,2.21814336230438),
 .UNSPECIFIED.)
CURVE()
GEOMETRIC_REPRESENTATION_ITEM()
RATIONAL_B_SPLINE_CURVE((1.01519168006766,1.17224237953217,1.01519168006795))
REPRESENTATION_ITEM('')
);
#80=LINE('',#409,#92);
#81=LINE('',#452,#93);
#82=LINE('',#462,#94);
#83=LINE('',#463,#95);
#84=LINE('',#465,#96);
#85=LINE('',#467,#97);
#86=LINE('',#472,#98);
#87=LINE('',#478,#99);
#88=LINE('',#485,#100);
#89=LINE('',#491,#101);
#90=LINE('',#504,#102);
#91=LINE('',#506,#103);
#92=VECTOR('',#334,19.5619065363998);
#93=VECTOR('',#337,19.5619065363998);
#94=VECTOR('',#342,10.);
#95=VECTOR('',#343,10.);
#96=VECTOR('',#346,10.);
#97=VECTOR('',#349,10.);
#98=VECTOR('',#354,15.788101);
#99=VECTOR('',#361,15.188101);
#100=VECTOR('',#370,13.5);
#101=VECTOR('',#377,13.25);
#102=VECTOR('',#398,10.);
#103=VECTOR('',#401,10.);
#104=CIRCLE('',#298,17.75);
#105=CIRCLE('',#300,17.75);
#106=CIRCLE('',#305,16.388101);
#107=CIRCLE('',#306,15.188101);
#108=CIRCLE('',#307,15.188101);
#109=CIRCLE('',#309,15.188101);
#110=CIRCLE('',#312,13.75);
#111=CIRCLE('',#313,13.25);
#112=CIRCLE('',#315,13.25);
#113=CIRCLE('',#316,13.25);
#114=CIRCLE('',#319,0.3);
#115=CIRCLE('',#320,13.55);
#116=CIRCLE('',#322,14.788101);
#117=CIRCLE('',#324,0.4);
#118=VERTEX_POINT('',#406);
#119=VERTEX_POINT('',#408);
#120=VERTEX_POINT('',#410);
#121=VERTEX_POINT('',#414);
#122=VERTEX_POINT('',#418);
#123=VERTEX_POINT('',#422);
#124=VERTEX_POINT('',#426);
#125=VERTEX_POINT('',#434);
#126=VERTEX_POINT('',#435);
#127=VERTEX_POINT('',#439);
#128=VERTEX_POINT('',#443);
#129=VERTEX_POINT('',#447);
#130=VERTEX_POINT('',#451);
#131=VERTEX_POINT('',#454);
#132=VERTEX_POINT('',#469);
#133=VERTEX_POINT('',#471);
#134=VERTEX_POINT('',#473);
#135=VERTEX_POINT('',#477);
#136=VERTEX_POINT('',#482);
#137=VERTEX_POINT('',#484);
#138=VERTEX_POINT('',#488);
#139=VERTEX_POINT('',#489);
#140=VERTEX_POINT('',#495);
#141=VERTEX_POINT('',#499);
#142=EDGE_CURVE('',#118,#118,#104,.T.);
#143=EDGE_CURVE('',#118,#119,#80,.T.);
#144=EDGE_CURVE('',#120,#119,#68,.T.);
#145=EDGE_CURVE('',#121,#120,#69,.T.);
#146=EDGE_CURVE('',#122,#121,#70,.T.);
#147=EDGE_CURVE('',#123,#122,#71,.T.);
#148=EDGE_CURVE('',#124,#123,#72,.T.);
#149=EDGE_CURVE('',#119,#124,#73,.T.);
#150=EDGE_CURVE('',#125,#126,#74,.T.);
#151=EDGE_CURVE('',#127,#125,#75,.T.);
#152=EDGE_CURVE('',#128,#127,#76,.T.);
#153=EDGE_CURVE('',#129,#128,#77,.T.);
#154=EDGE_CURVE('',#129,#130,#81,.T.);
#155=EDGE_CURVE('',#130,#130,#105,.T.);
#156=EDGE_CURVE('',#131,#129,#78,.T.);
#157=EDGE_CURVE('',#126,#131,#79,.T.);
#158=EDGE_CURVE('',#131,#124,#82,.T.);
#159=EDGE_CURVE('',#129,#119,#83,.T.);
#160=EDGE_CURVE('',#128,#120,#84,.T.);
#161=EDGE_CURVE('',#123,#126,#85,.T.);
#162=EDGE_CURVE('',#132,#132,#106,.T.);
#163=EDGE_CURVE('',#132,#133,#86,.T.);
#164=EDGE_CURVE('',#133,#134,#107,.T.);
#165=EDGE_CURVE('',#134,#133,#108,.T.);
#166=EDGE_CURVE('',#134,#135,#87,.T.);
#167=EDGE_CURVE('',#135,#135,#109,.T.);
#168=EDGE_CURVE('',#136,#136,#110,.T.);
#169=EDGE_CURVE('',#136,#137,#88,.T.);
#170=EDGE_CURVE('',#137,#137,#111,.T.);
#171=EDGE_CURVE('',#138,#139,#112,.T.);
#172=EDGE_CURVE('',#138,#137,#89,.T.);
#173=EDGE_CURVE('',#139,#138,#113,.T.);
#174=EDGE_CURVE('',#139,#140,#114,.T.);
#175=EDGE_CURVE('',#140,#140,#115,.T.);
#176=EDGE_CURVE('',#141,#141,#116,.T.);
#177=EDGE_CURVE('',#135,#141,#117,.T.);
#178=EDGE_CURVE('',#125,#122,#90,.T.);
#179=EDGE_CURVE('',#127,#121,#91,.T.);
#180=ORIENTED_EDGE('',*,*,#142,.F.);
#181=ORIENTED_EDGE('',*,*,#143,.T.);
#182=ORIENTED_EDGE('',*,*,#144,.F.);
#183=ORIENTED_EDGE('',*,*,#145,.F.);
#184=ORIENTED_EDGE('',*,*,#146,.F.);
#185=ORIENTED_EDGE('',*,*,#147,.F.);
#186=ORIENTED_EDGE('',*,*,#148,.F.);
#187=ORIENTED_EDGE('',*,*,#149,.F.);
#188=ORIENTED_EDGE('',*,*,#143,.F.);
#189=ORIENTED_EDGE('',*,*,#150,.F.);
#190=ORIENTED_EDGE('',*,*,#151,.F.);
#191=ORIENTED_EDGE('',*,*,#152,.F.);
#192=ORIENTED_EDGE('',*,*,#153,.F.);
#193=ORIENTED_EDGE('',*,*,#154,.T.);
#194=ORIENTED_EDGE('',*,*,#155,.F.);
#195=ORIENTED_EDGE('',*,*,#154,.F.);
#196=ORIENTED_EDGE('',*,*,#156,.F.);
#197=ORIENTED_EDGE('',*,*,#157,.F.);
#198=ORIENTED_EDGE('',*,*,#149,.T.);
#199=ORIENTED_EDGE('',*,*,#158,.F.);
#200=ORIENTED_EDGE('',*,*,#156,.T.);
#201=ORIENTED_EDGE('',*,*,#159,.T.);
#202=ORIENTED_EDGE('',*,*,#144,.T.);
#203=ORIENTED_EDGE('',*,*,#159,.F.);
#204=ORIENTED_EDGE('',*,*,#153,.T.);
#205=ORIENTED_EDGE('',*,*,#160,.T.);
#206=ORIENTED_EDGE('',*,*,#148,.T.);
#207=ORIENTED_EDGE('',*,*,#161,.T.);
#208=ORIENTED_EDGE('',*,*,#157,.T.);
#209=ORIENTED_EDGE('',*,*,#158,.T.);
#210=ORIENTED_EDGE('',*,*,#162,.T.);
#211=ORIENTED_EDGE('',*,*,#163,.T.);
#212=ORIENTED_EDGE('',*,*,#164,.T.);
#213=ORIENTED_EDGE('',*,*,#165,.T.);
#214=ORIENTED_EDGE('',*,*,#163,.F.);
#215=ORIENTED_EDGE('',*,*,#164,.F.);
#216=ORIENTED_EDGE('',*,*,#165,.F.);
#217=ORIENTED_EDGE('',*,*,#166,.T.);
#218=ORIENTED_EDGE('',*,*,#167,.F.);
#219=ORIENTED_EDGE('',*,*,#166,.F.);
#220=ORIENTED_EDGE('',*,*,#142,.T.);
#221=ORIENTED_EDGE('',*,*,#162,.F.);
#222=ORIENTED_EDGE('',*,*,#168,.T.);
#223=ORIENTED_EDGE('',*,*,#169,.T.);
#224=ORIENTED_EDGE('',*,*,#170,.T.);
#225=ORIENTED_EDGE('',*,*,#169,.F.);
#226=ORIENTED_EDGE('',*,*,#171,.F.);
#227=ORIENTED_EDGE('',*,*,#172,.T.);
#228=ORIENTED_EDGE('',*,*,#170,.F.);
#229=ORIENTED_EDGE('',*,*,#172,.F.);
#230=ORIENTED_EDGE('',*,*,#173,.F.);
#231=ORIENTED_EDGE('',*,*,#155,.T.);
#232=ORIENTED_EDGE('',*,*,#168,.F.);
#233=ORIENTED_EDGE('',*,*,#171,.T.);
#234=ORIENTED_EDGE('',*,*,#174,.T.);
#235=ORIENTED_EDGE('',*,*,#175,.T.);
#236=ORIENTED_EDGE('',*,*,#174,.F.);
#237=ORIENTED_EDGE('',*,*,#173,.T.);
#238=ORIENTED_EDGE('',*,*,#176,.F.);
#239=ORIENTED_EDGE('',*,*,#175,.F.);
#240=ORIENTED_EDGE('',*,*,#167,.T.);
#241=ORIENTED_EDGE('',*,*,#177,.T.);
#242=ORIENTED_EDGE('',*,*,#176,.T.);
#243=ORIENTED_EDGE('',*,*,#177,.F.);
#244=ORIENTED_EDGE('',*,*,#147,.T.);
#245=ORIENTED_EDGE('',*,*,#178,.F.);
#246=ORIENTED_EDGE('',*,*,#150,.T.);
#247=ORIENTED_EDGE('',*,*,#161,.F.);
#248=ORIENTED_EDGE('',*,*,#146,.T.);
#249=ORIENTED_EDGE('',*,*,#179,.F.);
#250=ORIENTED_EDGE('',*,*,#151,.T.);
#251=ORIENTED_EDGE('',*,*,#178,.T.);
#252=ORIENTED_EDGE('',*,*,#145,.T.);
#253=ORIENTED_EDGE('',*,*,#160,.F.);
#254=ORIENTED_EDGE('',*,*,#152,.T.);
#255=ORIENTED_EDGE('',*,*,#179,.T.);
#256=CONICAL_SURFACE('',#297,19.5619065363998,1.24791041517595);
#257=CONICAL_SURFACE('',#299,19.5619065363998,1.24791041517595);
#258=CONICAL_SURFACE('',#304,15.788101,0.785398163397449);
#259=CONICAL_SURFACE('',#311,13.5,0.785398163397448);
#260=ADVANCED_FACE('',(#31),#256,.T.);
#261=ADVANCED_FACE('',(#32),#257,.T.);
#262=ADVANCED_FACE('',(#33),#22,.T.);
#263=ADVANCED_FACE('',(#34),#23,.T.);
#264=ADVANCED_FACE('',(#35),#24,.T.);
#265=ADVANCED_FACE('',(#36),#258,.F.);
#266=ADVANCED_FACE('',(#37),#20,.F.);
#267=ADVANCED_FACE('',(#38,#17),#25,.T.);
#268=ADVANCED_FACE('',(#39),#259,.F.);
#269=ADVANCED_FACE('',(#40),#21,.F.);
#270=ADVANCED_FACE('',(#41,#18),#26,.F.);
#271=ADVANCED_FACE('',(#42),#15,.T.);
#272=ADVANCED_FACE('',(#43,#19),#27,.T.);
#273=ADVANCED_FACE('',(#44),#16,.F.);
#274=ADVANCED_FACE('',(#45),#28,.T.);
#275=ADVANCED_FACE('',(#46),#29,.T.);
#276=ADVANCED_FACE('',(#47),#30,.T.);
#277=CLOSED_SHELL('',(#260,#261,#262,#263,#264,#265,#266,#267,#268,#269,
#270,#271,#272,#273,#274,#275,#276));
#278=DERIVED_UNIT_ELEMENT(#280,1.);
#279=DERIVED_UNIT_ELEMENT(#513,-3.);
#280=(
MASS_UNIT()
NAMED_UNIT(*)
SI_UNIT($,.GRAM.)
);
#281=DERIVED_UNIT((#278,#279));
#282=MEASURE_REPRESENTATION_ITEM('density measure',
POSITIVE_RATIO_MEASURE(1.),#281);
#283=PROPERTY_DEFINITION_REPRESENTATION(#288,#285);
#284=PROPERTY_DEFINITION_REPRESENTATION(#289,#286);
#285=REPRESENTATION('material name',(#287),#510);
#286=REPRESENTATION('density',(#282),#510);
#287=DESCRIPTIVE_REPRESENTATION_ITEM('Generisch','Generisch');
#288=PROPERTY_DEFINITION('material property','material name',#520);
#289=PROPERTY_DEFINITION('material property','density of part',#520);
#290=DATE_TIME_ROLE('creation_date');
#291=APPLIED_DATE_AND_TIME_ASSIGNMENT(#292,#290,(#520));
#292=DATE_AND_TIME(#293,#294);
#293=CALENDAR_DATE(2021,16,6);
#294=LOCAL_TIME(0,0,0.,#295);
#295=COORDINATED_UNIVERSAL_TIME_OFFSET(0,0,.BEHIND.);
#296=AXIS2_PLACEMENT_3D('placement',#404,#328,#329);
#297=AXIS2_PLACEMENT_3D('',#405,#330,#331);
#298=AXIS2_PLACEMENT_3D('',#407,#332,#333);
#299=AXIS2_PLACEMENT_3D('',#433,#335,#336);
#300=AXIS2_PLACEMENT_3D('',#453,#338,#339);
#301=AXIS2_PLACEMENT_3D('',#461,#340,#341);
#302=AXIS2_PLACEMENT_3D('',#464,#344,#345);
#303=AXIS2_PLACEMENT_3D('',#466,#347,#348);
#304=AXIS2_PLACEMENT_3D('',#468,#350,#351);
#305=AXIS2_PLACEMENT_3D('',#470,#352,#353);
#306=AXIS2_PLACEMENT_3D('',#474,#355,#356);
#307=AXIS2_PLACEMENT_3D('',#475,#357,#358);
#308=AXIS2_PLACEMENT_3D('',#476,#359,#360);
#309=AXIS2_PLACEMENT_3D('',#479,#362,#363);
#310=AXIS2_PLACEMENT_3D('',#480,#364,#365);
#311=AXIS2_PLACEMENT_3D('',#481,#366,#367);
#312=AXIS2_PLACEMENT_3D('',#483,#368,#369);
#313=AXIS2_PLACEMENT_3D('',#486,#371,#372);
#314=AXIS2_PLACEMENT_3D('',#487,#373,#374);
#315=AXIS2_PLACEMENT_3D('',#490,#375,#376);
#316=AXIS2_PLACEMENT_3D('',#492,#378,#379);
#317=AXIS2_PLACEMENT_3D('',#493,#380,#381);
#318=AXIS2_PLACEMENT_3D('',#494,#382,#383);
#319=AXIS2_PLACEMENT_3D('',#496,#384,#385);
#320=AXIS2_PLACEMENT_3D('',#497,#386,#387);
#321=AXIS2_PLACEMENT_3D('',#498,#388,#389);
#322=AXIS2_PLACEMENT_3D('',#500,#390,#391);
#323=AXIS2_PLACEMENT_3D('',#501,#392,#393);
#324=AXIS2_PLACEMENT_3D('',#502,#394,#395);
#325=AXIS2_PLACEMENT_3D('',#503,#396,#397);
#326=AXIS2_PLACEMENT_3D('',#505,#399,#400);
#327=AXIS2_PLACEMENT_3D('',#507,#402,#403);
#328=DIRECTION('axis',(0.,0.,1.));
#329=DIRECTION('refdir',(1.,0.,0.));
#330=DIRECTION('center_axis',(-1.,0.,0.));
#331=DIRECTION('ref_axis',(0.,1.,0.));
#332=DIRECTION('center_axis',(1.,0.,0.));
#333=DIRECTION('ref_axis',(0.,1.,0.));
#334=DIRECTION('',(-0.317304656405092,-0.948323655206199,1.16136152890399E-16));
#335=DIRECTION('center_axis',(1.,0.,0.));
#336=DIRECTION('ref_axis',(0.,1.,0.));
#337=DIRECTION('',(-0.317304656405092,0.948323655206199,-1.16136152890399E-16));
#338=DIRECTION('center_axis',(-1.,0.,0.));
#339=DIRECTION('ref_axis',(0.,1.,0.));
#340=DIRECTION('center_axis',(0.,-0.866025403784439,0.5));
#341=DIRECTION('ref_axis',(0.,-0.5,-0.866025403784439));
#342=DIRECTION('',(1.,0.,0.));
#343=DIRECTION('',(1.,0.,0.));
#344=DIRECTION('center_axis',(0.,-0.866025403784439,-0.5));
#345=DIRECTION('ref_axis',(0.,0.5,-0.866025403784439));
#346=DIRECTION('',(1.,0.,0.));
#347=DIRECTION('center_axis',(0.,-3.20493781063927E-16,1.));
#348=DIRECTION('ref_axis',(0.,-1.,-3.20493781063927E-16));
#349=DIRECTION('',(-1.,0.,0.));
#350=DIRECTION('center_axis',(1.,0.,0.));
#351=DIRECTION('ref_axis',(0.,0.,1.));
#352=DIRECTION('center_axis',(1.,0.,0.));
#353=DIRECTION('ref_axis',(0.,0.,1.));
#354=DIRECTION('',(-0.707106781186547,-8.65956056235494E-17,0.707106781186548));
#355=DIRECTION('center_axis',(-1.,0.,0.));
#356=DIRECTION('ref_axis',(0.,0.,1.));
#357=DIRECTION('center_axis',(-1.,0.,0.));
#358=DIRECTION('ref_axis',(0.,0.,1.));
#359=DIRECTION('center_axis',(1.,0.,0.));
#360=DIRECTION('ref_axis',(0.,0.,-1.));
#361=DIRECTION('',(-1.,0.,0.));
#362=DIRECTION('center_axis',(1.,0.,0.));
#363=DIRECTION('ref_axis',(0.,1.22464679914735E-16,1.));
#364=DIRECTION('center_axis',(1.,0.,0.));
#365=DIRECTION('ref_axis',(0.,0.,-1.));
#366=DIRECTION('center_axis',(-1.,0.,0.));
#367=DIRECTION('ref_axis',(0.,-1.,0.));
#368=DIRECTION('center_axis',(-1.,0.,0.));
#369=DIRECTION('ref_axis',(0.,-1.,0.));
#370=DIRECTION('',(0.707106781186548,-0.707106781186548,8.65956056235493E-17));
#371=DIRECTION('center_axis',(1.,0.,0.));
#372=DIRECTION('ref_axis',(0.,-1.,0.));
#373=DIRECTION('center_axis',(1.,0.,0.));
#374=DIRECTION('ref_axis',(0.,-1.,0.));
#375=DIRECTION('center_axis',(-1.,0.,0.));
#376=DIRECTION('ref_axis',(0.,-1.,0.));
#377=DIRECTION('',(-1.,0.,0.));
#378=DIRECTION('center_axis',(-1.,0.,0.));
#379=DIRECTION('ref_axis',(0.,-1.,0.));
#380=DIRECTION('center_axis',(1.,0.,0.));
#381=DIRECTION('ref_axis',(0.,0.,-1.));
#382=DIRECTION('center_axis',(1.,0.,0.));
#383=DIRECTION('ref_axis',(0.,0.,-1.));
#384=DIRECTION('center_axis',(0.,-1.,-1.22464679914735E-16));
#385=DIRECTION('ref_axis',(0.,-1.22464679914735E-16,1.));
#386=DIRECTION('center_axis',(1.,0.,0.));
#387=DIRECTION('ref_axis',(0.,-1.,0.));
#388=DIRECTION('center_axis',(1.,0.,0.));
#389=DIRECTION('ref_axis',(0.,0.,-1.));
#390=DIRECTION('center_axis',(-1.,0.,0.));
#391=DIRECTION('ref_axis',(0.,1.22464679914735E-16,1.));
#392=DIRECTION('center_axis',(1.,0.,0.));
#393=DIRECTION('ref_axis',(0.,0.,-1.));
#394=DIRECTION('center_axis',(0.,-1.,-1.22464679914735E-16));
#395=DIRECTION('ref_axis',(0.,-1.22464679914735E-16,1.));
#396=DIRECTION('center_axis',(0.,0.866025403784439,0.5));
#397=DIRECTION('ref_axis',(0.,-0.5,0.866025403784439));
#398=DIRECTION('',(1.,0.,0.));
#399=DIRECTION('center_axis',(0.,0.866025403784439,-0.5));
#400=DIRECTION('ref_axis',(0.,0.5,0.866025403784439));
#401=DIRECTION('',(1.,0.,0.));
#402=DIRECTION('center_axis',(0.,0.,-1.));
#403=DIRECTION('ref_axis',(0.,1.,0.));
#404=CARTESIAN_POINT('',(0.,0.,0.));
#405=CARTESIAN_POINT('Origin',(7.14374455354542,0.,0.));
#406=CARTESIAN_POINT('',(7.75,-17.75,2.17374806848655E-15));
#407=CARTESIAN_POINT('Origin',(7.75,0.,0.));
#408=CARTESIAN_POINT('',(6.73463380093381,-20.7846096908265,-5.40932026484465E-15));
#409=CARTESIAN_POINT('',(7.14374455354542,-19.5619065363998,2.39564262250217E-15));
#410=CARTESIAN_POINT('',(6.73463380093381,-10.3923048454133,-18.));
#411=CARTESIAN_POINT('Ctrl Pts',(6.73463380093381,-10.3923048454133,-18.));
#412=CARTESIAN_POINT('Ctrl Pts',(8.47324208098666,-15.5884572681267,-8.99999999998818));
#413=CARTESIAN_POINT('Ctrl Pts',(6.73463380093381,-20.7846096908265,-5.40932026484465E-15));
#414=CARTESIAN_POINT('',(6.73463380093381,10.3923048454133,-18.));
#415=CARTESIAN_POINT('Ctrl Pts',(6.73463380093381,10.3923048454133,-18.));
#416=CARTESIAN_POINT('Ctrl Pts',(8.47324208098665,-1.36513023107909E-11,
-18.));
#417=CARTESIAN_POINT('Ctrl Pts',(6.73463380093381,-10.3923048454133,-18.));
#418=CARTESIAN_POINT('',(6.73463380093381,20.7846096908265,-1.25201788290629E-15));
#419=CARTESIAN_POINT('Ctrl Pts',(6.73463380093381,20.7846096908265,-1.25201788290629E-15));
#420=CARTESIAN_POINT('Ctrl Pts',(8.47324208098666,15.5884572681131,-9.00000000001183));
#421=CARTESIAN_POINT('Ctrl Pts',(6.73463380093381,10.3923048454133,-18.));
#422=CARTESIAN_POINT('',(6.73463380093381,10.3923048454133,18.));
#423=CARTESIAN_POINT('Ctrl Pts',(6.73463380093381,10.3923048454133,18.));
#424=CARTESIAN_POINT('Ctrl Pts',(8.47324208098665,15.5884572681267,8.99999999998817));
#425=CARTESIAN_POINT('Ctrl Pts',(6.73463380093381,20.7846096908265,-1.25201788290629E-15));
#426=CARTESIAN_POINT('',(6.73463380093381,-10.3923048454133,18.));
#427=CARTESIAN_POINT('Ctrl Pts',(6.73463380093381,-10.3923048454133,18.));
#428=CARTESIAN_POINT('Ctrl Pts',(8.47324208098666,1.36513023107909E-11,
18.));
#429=CARTESIAN_POINT('Ctrl Pts',(6.73463380093381,10.3923048454133,18.));
#430=CARTESIAN_POINT('Ctrl Pts',(6.73463380093381,-20.7846096908265,-5.40932026484465E-15));
#431=CARTESIAN_POINT('Ctrl Pts',(8.47324208098665,-15.5884572681131,9.00000000001182));
#432=CARTESIAN_POINT('Ctrl Pts',(6.73463380093381,-10.3923048454133,18.));
#433=CARTESIAN_POINT('Origin',(-7.14374455354542,0.,0.));
#434=CARTESIAN_POINT('',(-6.73463380093381,20.7846096908265,-1.25201788290629E-15));
#435=CARTESIAN_POINT('',(-6.73463380093381,10.3923048454133,18.));
#436=CARTESIAN_POINT('Ctrl Pts',(-6.73463380093381,20.7846096908265,-1.25201788290629E-15));
#437=CARTESIAN_POINT('Ctrl Pts',(-8.47324208098666,15.5884572681131,9.0000000000118));
#438=CARTESIAN_POINT('Ctrl Pts',(-6.73463380093381,10.3923048454133,18.));
#439=CARTESIAN_POINT('',(-6.73463380093381,10.3923048454133,-18.));
#440=CARTESIAN_POINT('Ctrl Pts',(-6.73463380093381,10.3923048454133,-18.));
#441=CARTESIAN_POINT('Ctrl Pts',(-8.47324208098665,15.5884572681267,-8.99999999998818));
#442=CARTESIAN_POINT('Ctrl Pts',(-6.73463380093381,20.7846096908265,-1.25201788290629E-15));
#443=CARTESIAN_POINT('',(-6.73463380093381,-10.3923048454133,-18.));
#444=CARTESIAN_POINT('Ctrl Pts',(-6.73463380093381,-10.3923048454133,-18.));
#445=CARTESIAN_POINT('Ctrl Pts',(-8.47324208098665,1.36557432028894E-11,
-18.));
#446=CARTESIAN_POINT('Ctrl Pts',(-6.73463380093381,10.3923048454133,-18.));
#447=CARTESIAN_POINT('',(-6.73463380093381,-20.7846096908265,-5.40932026484465E-15));
#448=CARTESIAN_POINT('Ctrl Pts',(-6.73463380093381,-20.7846096908265,-5.40932026484465E-15));
#449=CARTESIAN_POINT('Ctrl Pts',(-8.47324208098666,-15.5884572681131,-9.00000000001183));
#450=CARTESIAN_POINT('Ctrl Pts',(-6.73463380093381,-10.3923048454133,-18.));
#451=CARTESIAN_POINT('',(-7.75,-17.75,2.17374806848655E-15));
#452=CARTESIAN_POINT('',(-7.14374455354542,-19.5619065363998,2.39564262250217E-15));
#453=CARTESIAN_POINT('Origin',(-7.75,0.,0.));
#454=CARTESIAN_POINT('',(-6.73463380093381,-10.3923048454133,18.));
#455=CARTESIAN_POINT('Ctrl Pts',(-6.73463380093381,-10.3923048454133,18.));
#456=CARTESIAN_POINT('Ctrl Pts',(-8.47324208098666,-15.5884572681267,8.99999999998818));
#457=CARTESIAN_POINT('Ctrl Pts',(-6.73463380093382,-20.7846096908265,-5.40932026484465E-15));
#458=CARTESIAN_POINT('Ctrl Pts',(-6.73463380093381,10.3923048454133,18.));
#459=CARTESIAN_POINT('Ctrl Pts',(-8.47324208098665,-1.36624045410372E-11,
18.));
#460=CARTESIAN_POINT('Ctrl Pts',(-6.73463380093381,-10.3923048454133,18.));
#461=CARTESIAN_POINT('Origin',(0.,-10.3923048454133,18.));
#462=CARTESIAN_POINT('',(0.,-10.3923048454133,18.));
#463=CARTESIAN_POINT('',(0.,-20.7846096908265,-5.40932026484465E-15));
#464=CARTESIAN_POINT('Origin',(0.,-20.7846096908265,-5.16721322325864E-15));
#465=CARTESIAN_POINT('',(0.,-10.3923048454133,-18.));
#466=CARTESIAN_POINT('Origin',(0.,10.3923048454133,18.));
#467=CARTESIAN_POINT('',(0.,10.3923048454133,18.));
#468=CARTESIAN_POINT('Origin',(7.15,0.,0.));
#469=CARTESIAN_POINT('',(7.75,2.00696354337535E-15,-16.388101));
#470=CARTESIAN_POINT('Origin',(7.75,0.,0.));
#471=CARTESIAN_POINT('',(6.55,-1.86000592747767E-15,-15.188101));
#472=CARTESIAN_POINT('',(7.15,1.93348473542651E-15,-15.788101));
#473=CARTESIAN_POINT('',(6.55,-1.86000592747767E-15,15.188101));
#474=CARTESIAN_POINT('Origin',(6.55,0.,0.));
#475=CARTESIAN_POINT('Origin',(6.55,0.,0.));
#476=CARTESIAN_POINT('Origin',(1.5,0.,0.));
#477=CARTESIAN_POINT('',(-4.35,-1.86000592747767E-15,15.188101));
#478=CARTESIAN_POINT('',(1.5,-1.86000592747767E-15,15.188101));
#479=CARTESIAN_POINT('Origin',(-4.35,0.,0.));
#480=CARTESIAN_POINT('Origin',(7.75,4.44089209850063E-15,0.));
#481=CARTESIAN_POINT('Origin',(-7.5,0.,0.));
#482=CARTESIAN_POINT('',(-7.75,13.75,-1.68388934882761E-15));
#483=CARTESIAN_POINT('Origin',(-7.75,0.,0.));
#484=CARTESIAN_POINT('',(-7.25,13.25,1.62265700887024E-15));
#485=CARTESIAN_POINT('',(-7.5,13.5,-1.65327317884893E-15));
#486=CARTESIAN_POINT('Origin',(-7.25,0.,0.));
#487=CARTESIAN_POINT('Origin',(0.,0.,0.));
#488=CARTESIAN_POINT('',(-5.05,13.25,-1.62265700887024E-15));
#489=CARTESIAN_POINT('',(-5.05,-1.62265700887024E-15,13.25));
#490=CARTESIAN_POINT('Origin',(-5.05,0.,0.));
#491=CARTESIAN_POINT('',(0.,13.25,1.62265700887024E-15));
#492=CARTESIAN_POINT('Origin',(-5.05,0.,0.));
#493=CARTESIAN_POINT('Origin',(-7.75,4.44089209850063E-15,0.));
#494=CARTESIAN_POINT('Origin',(-5.05,0.,0.));
#495=CARTESIAN_POINT('',(-4.75,-1.65939641284466E-15,13.55));
#496=CARTESIAN_POINT('Origin',(-5.05,-1.65939641284466E-15,13.55));
#497=CARTESIAN_POINT('Origin',(-4.75,0.,0.));
#498=CARTESIAN_POINT('Origin',(-4.75,0.,0.));
#499=CARTESIAN_POINT('',(-4.75,-1.81102005551178E-15,14.788101));
#500=CARTESIAN_POINT('Origin',(-4.75,0.,0.));
#501=CARTESIAN_POINT('Origin',(-4.35,0.,0.));
#502=CARTESIAN_POINT('Origin',(-4.35,-1.81102005551178E-15,14.788101));
#503=CARTESIAN_POINT('Origin',(0.,20.7846096908265,-1.49412492449229E-15));
#504=CARTESIAN_POINT('',(0.,20.7846096908265,-1.25201788290629E-15));
#505=CARTESIAN_POINT('Origin',(0.,10.3923048454133,-18.));
#506=CARTESIAN_POINT('',(0.,10.3923048454133,-18.));
#507=CARTESIAN_POINT('Origin',(0.,-10.3923048454133,-18.));
#508=UNCERTAINTY_MEASURE_WITH_UNIT(LENGTH_MEASURE(0.01),#512,
'DISTANCE_ACCURACY_VALUE',
'Maximum model space distance between geometric entities at asserted c
onnectivities');
#509=UNCERTAINTY_MEASURE_WITH_UNIT(LENGTH_MEASURE(0.01),#512,
'DISTANCE_ACCURACY_VALUE',
'Maximum model space distance between geometric entities at asserted c
onnectivities');
#510=(
GEOMETRIC_REPRESENTATION_CONTEXT(3)
GLOBAL_UNCERTAINTY_ASSIGNED_CONTEXT((#508))
GLOBAL_UNIT_ASSIGNED_CONTEXT((#512,#514,#515))
REPRESENTATION_CONTEXT('','3D')
);
#511=(
GEOMETRIC_REPRESENTATION_CONTEXT(3)
GLOBAL_UNCERTAINTY_ASSIGNED_CONTEXT((#509))
GLOBAL_UNIT_ASSIGNED_CONTEXT((#512,#514,#515))
REPRESENTATION_CONTEXT('','3D')
);
#512=(
LENGTH_UNIT()
NAMED_UNIT(*)
SI_UNIT(.MILLI.,.METRE.)
);
#513=(
LENGTH_UNIT()
NAMED_UNIT(*)
SI_UNIT(.CENTI.,.METRE.)
);
#514=(
NAMED_UNIT(*)
PLANE_ANGLE_UNIT()
SI_UNIT($,.RADIAN.)
);
#515=(
NAMED_UNIT(*)
SI_UNIT($,.STERADIAN.)
SOLID_ANGLE_UNIT()
);
#516=SHAPE_DEFINITION_REPRESENTATION(#517,#518);
#517=PRODUCT_DEFINITION_SHAPE('',$,#520);
#518=SHAPE_REPRESENTATION('',(#296),#510);
#519=PRODUCT_DEFINITION_CONTEXT('part definition',#524,'design');
#520=PRODUCT_DEFINITION('3D_R134-M-DN15_171011610',
'3D_R134-M-DN15_171011610',#521,#519);
#521=PRODUCT_DEFINITION_FORMATION('',$,#526);
#522=PRODUCT_RELATED_PRODUCT_CATEGORY('3D_R134-M-DN15_171011610',
'3D_R134-M-DN15_171011610',(#526));
#523=APPLICATION_PROTOCOL_DEFINITION('international standard',
'automotive_design',2009,#524);
#524=APPLICATION_CONTEXT(
'Core Data for Automotive Mechanical Design Process');
#525=PRODUCT_CONTEXT('part definition',#524,'mechanical');
#526=PRODUCT('3D_R134-M-DN15_171011610','3D_R134-M-DN15_171011610',$,(#525));
#527=PRESENTATION_STYLE_ASSIGNMENT((#528));
#528=SURFACE_STYLE_USAGE(.BOTH.,#531);
#529=SURFACE_STYLE_RENDERING_WITH_PROPERTIES($,#535,(#530));
#530=SURFACE_STYLE_TRANSPARENT(0.);
#531=SURFACE_SIDE_STYLE('',(#532,#529));
#532=SURFACE_STYLE_FILL_AREA(#533);
#533=FILL_AREA_STYLE('',(#534));
#534=FILL_AREA_STYLE_COLOUR('',#535);
#535=COLOUR_RGB('',0.749019607843137,0.749019607843137,0.749019607843137);
ENDSEC;
END-ISO-10303-21;
