ISO-10303-21;
HEADER;
FILE_DESCRIPTION (( 'STEP AP203' ),
    '1' );
FILE_NAME ('3D_R1620_42.4x2_173630120_173631110.STEP',
    '2024-08-27T11:05:26',
    ( '' ),
    ( '' ),
    'SwSTEP 2.0',
    'SolidWorks 2024',
    '' );
FILE_SCHEMA (( 'CONFIG_CONTROL_DESIGN' ));
ENDSEC;

DATA;
#1 = DIRECTION ( 'NONE',  ( -1.000000000000000000, 0.000000000000000000, 2.913257491698416335E-15 ) ) ;
#2 = ORIENTED_EDGE ( 'NONE', *, *, #4, .F. ) ;
#3 = CALENDAR_DATE ( 2024, 27, 8 ) ;
#4 = EDGE_CURVE ( 'NONE', #197, #30, #66, .T. ) ;
#5 = CARTESIAN_POINT ( 'NONE',  ( -10.80000000000000071, 0.000000000000000000, -4.383991110682277579E-16 ) ) ;
#6 = DATE_AND_TIME ( #3, #129 ) ;
#7 =( LENGTH_UNIT ( ) NAMED_UNIT ( * ) SI_UNIT ( .MILLI., .METRE. ) );
#8 = CIRCLE ( 'NONE', #156, 19.20000000000000284 ) ;
#9 = PRODUCT_DEFINITION ( 'UNKNOWN', '', #17, #145 ) ;
#10 = DATE_AND_TIME ( #231, #176 ) ;
#11 = CARTESIAN_POINT ( 'NONE',  ( -3.379605442513607671E-14, 0.000000000000000000, -10.80000000000000071 ) ) ;
#12 = SHAPE_DEFINITION_REPRESENTATION ( #109, #119 ) ;
#13 = CIRCLE ( 'NONE', #34, 10.80000000000000071 ) ;
#14 = CC_DESIGN_APPROVAL ( #79, ( #9 ) ) ;
#15 = EDGE_LOOP ( 'NONE', ( #54, #219 ) ) ;
#16 = CIRCLE ( 'NONE', #26, 19.20000000000000284 ) ;
#17 = PRODUCT_DEFINITION_FORMATION_WITH_SPECIFIED_SOURCE ( 'ANY', '', #153, .NOT_KNOWN. ) ;
#18 = DIRECTION ( 'NONE',  ( -1.000000000000000000, 0.000000000000000000, 2.913257491698416335E-15 ) ) ;
#19 = CARTESIAN_POINT ( 'NONE',  ( -51.20000000000000284, 0.000000000000000000, -1.313788504112076495E-14 ) ) ;
#20 = EDGE_CURVE ( 'NONE', #186, #115, #99, .T. ) ;
#21 = CARTESIAN_POINT ( 'NONE',  ( -32.00000000000000000, 0.000000000000000000, -8.211178150700478290E-15 ) ) ;
#22 = AXIS2_PLACEMENT_3D ( 'NONE', #21, #223, #227 ) ;
#23 = PERSON_AND_ORGANIZATION ( #183, #63 ) ;
#24 =( NAMED_UNIT ( * ) PLANE_ANGLE_UNIT ( ) SI_UNIT ( $, .RADIAN. ) );
#25 = DIRECTION ( 'NONE',  ( 0.000000000000000000, 1.000000000000000000, 0.000000000000000000 ) ) ;
#26 = AXIS2_PLACEMENT_3D ( 'NONE', #103, #228, #110 ) ;
#27 = DATE_AND_TIME ( #130, #159 ) ;
#28 = EDGE_LOOP ( 'NONE', ( #233, #142, #199, #188 ) ) ;
#29 = APPROVAL_ROLE ( '' ) ;
#30 = VERTEX_POINT ( 'NONE', #214 ) ;
#31 = EDGE_CURVE ( 'NONE', #30, #248, #138, .T. ) ;
#32 = PERSON_AND_ORGANIZATION_ROLE ( 'creator' ) ;
#33 = CC_DESIGN_PERSON_AND_ORGANIZATION_ASSIGNMENT ( #133, #210, ( #232 ) ) ;
#34 = AXIS2_PLACEMENT_3D ( 'NONE', #64, #25, #244 ) ;
#35 = PERSON_AND_ORGANIZATION_ROLE ( 'design_supplier' ) ;
#36 = CLOSED_SHELL ( 'NONE', ( #253, #52, #78, #90, #106, #144 ) ) ;
#37 = ORIENTED_EDGE ( 'NONE', *, *, #229, .F. ) ;
#38 = PLANE ( 'NONE',  #213 ) ;
#39 = CARTESIAN_POINT ( 'NONE',  ( -9.322423973434933535E-14, 0.000000000000000000, -32.00000000000000000 ) ) ;
#40 = CIRCLE ( 'NONE', #190, 21.19999999999999929 ) ;
#41 = CC_DESIGN_PERSON_AND_ORGANIZATION_ASSIGNMENT ( #114, #92, ( #17 ) ) ;
#42 = VERTEX_POINT ( 'NONE', #19 ) ;
#43 = TOROIDAL_SURFACE ( 'NONE', #202, 32.00000000000000000, 19.20000000000000284 ) ;
#44 = FACE_OUTER_BOUND ( 'NONE', #93, .T. ) ;
#45 = CARTESIAN_POINT ( 'NONE',  ( -1.491587835749589265E-13, 0.000000000000000000, -51.20000000000000284 ) ) ;
#46 = AXIS2_PLACEMENT_3D ( 'NONE', #100, #155, #221 ) ;
#47 = APPROVAL_PERSON_ORGANIZATION ( #238, #218, #247 ) ;
#48 = DIRECTION ( 'NONE',  ( 0.000000000000000000, 0.000000000000000000, 1.000000000000000000 ) ) ;
#49 = CARTESIAN_POINT ( 'NONE',  ( 0.000000000000000000, 0.000000000000000000, 0.000000000000000000 ) ) ;
#50 = ORIENTED_EDGE ( 'NONE', *, *, #229, .T. ) ;
#51 = APPROVAL_STATUS ( 'not_yet_approved' ) ;
#52 = ADVANCED_FACE ( 'NONE', ( #242 ), #240, .T. ) ;
#53 = CC_DESIGN_DATE_AND_TIME_ASSIGNMENT ( #10, #187, ( #232 ) ) ;
#54 = ORIENTED_EDGE ( 'NONE', *, *, #108, .T. ) ;
#55 = COORDINATED_UNIVERSAL_TIME_OFFSET ( 1, 0, .AHEAD. ) ;
#56 = DIRECTION ( 'NONE',  ( -1.000000000000000000, 0.000000000000000000, 2.913257491698416335E-15 ) ) ;
#57 = PERSON_AND_ORGANIZATION ( #183, #63 ) ;
#58 = ORIENTED_EDGE ( 'NONE', *, *, #59, .T. ) ;
#59 = EDGE_CURVE ( 'NONE', #73, #197, #120, .T. ) ;
#60 = PRODUCT_RELATED_PRODUCT_CATEGORY ( 'detail', '', ( #153 ) ) ;
#61 = ORIENTED_EDGE ( 'NONE', *, *, #31, .T. ) ;
#62 = ORIENTED_EDGE ( 'NONE', *, *, #245, .F. ) ;
#63 = ORGANIZATION ( 'UNSPECIFIED', 'UNSPECIFIED', '' ) ;
#64 = CARTESIAN_POINT ( 'NONE',  ( 0.000000000000000000, -2.596251214192388770E-15, 0.000000000000000000 ) ) ;
#65 = CARTESIAN_POINT ( 'NONE',  ( -32.00000000000000000, 0.000000000000000000, -5.878304635907295000E-15 ) ) ;
#66 = CIRCLE ( 'NONE', #215, 53.19999999999999574 ) ;
#67 = DIRECTION ( 'NONE',  ( 0.000000000000000000, 0.000000000000000000, 1.000000000000000000 ) ) ;
#68 = PERSON_AND_ORGANIZATION ( #183, #63 ) ;
#69 = ORIENTED_EDGE ( 'NONE', *, *, #168, .F. ) ;
#70 = EDGE_CURVE ( 'NONE', #197, #73, #40, .T. ) ;
#71 = CALENDAR_DATE ( 2024, 27, 8 ) ;
#72 = ORIENTED_EDGE ( 'NONE', *, *, #20, .F. ) ;
#73 = VERTEX_POINT ( 'NONE', #11 ) ;
#74 = DATE_AND_TIME ( #71, #126 ) ;
#75 = FACE_OUTER_BOUND ( 'NONE', #179, .T. ) ;
#76 = PERSON_AND_ORGANIZATION ( #183, #63 ) ;
#77 = DIRECTION ( 'NONE',  ( -1.000000000000000000, 0.000000000000000000, 2.913257491698416335E-15 ) ) ;
#78 = ADVANCED_FACE ( 'NONE', ( #243 ), #251, .T. ) ;
#79 = APPROVAL ( #102, 'UNSPECIFIED' ) ;
#80 = CIRCLE ( 'NONE', #225, 51.20000000000000284 ) ;
#81 = CARTESIAN_POINT ( 'NONE',  ( -3.728969589373973161E-14, 0.000000000000000000, -12.79999999999999893 ) ) ;
#82 = CARTESIAN_POINT ( 'NONE',  ( -9.555711324914250128E-14, 0.000000000000000000, -32.00000000000000000 ) ) ;
#83 = CARTESIAN_POINT ( 'NONE',  ( -12.79999999999999893, 0.000000000000000000, -3.284471260280191237E-15 ) ) ;
#84 = AXIS2_PLACEMENT_3D ( 'NONE', #200, #121, #235 ) ;
#85 = APPROVAL_DATE_TIME ( #6, #79 ) ;
#86 = CC_DESIGN_PERSON_AND_ORGANIZATION_ASSIGNMENT ( #76, #32, ( #9 ) ) ;
#87 = AXIS2_PLACEMENT_3D ( 'NONE', #149, #123, #67 ) ;
#88 = APPROVAL_PERSON_ORGANIZATION ( #57, #97, #29 ) ;
#89 = ORIENTED_EDGE ( 'NONE', *, *, #31, .F. ) ;
#90 = ADVANCED_FACE ( 'NONE', ( #178, #75 ), #94, .T. ) ;
#91 = CC_DESIGN_SECURITY_CLASSIFICATION ( #232, ( #17 ) ) ;
#92 = PERSON_AND_ORGANIZATION_ROLE ( 'creator' ) ;
#93 = EDGE_LOOP ( 'NONE', ( #167, #134 ) ) ;
#94 = PLANE ( 'NONE',  #46 ) ;
#95 = DIRECTION ( 'NONE',  ( 2.913257491698415941E-15, 0.000000000000000000, 1.000000000000000000 ) ) ;
#96 = DIRECTION ( 'NONE',  ( 2.913257491698416730E-15, 0.000000000000000000, 1.000000000000000000 ) ) ;
#97 = APPROVAL ( #236, 'UNSPECIFIED' ) ;
#98 = CIRCLE ( 'NONE', #22, 19.20000000000000284 ) ;
#99 = CIRCLE ( 'NONE', #104, 19.20000000000000284 ) ;
#100 = CARTESIAN_POINT ( 'NONE',  ( -32.00000000000000000, 0.000000000000000000, -5.878304635907295000E-15 ) ) ;
#101 = UNCERTAINTY_MEASURE_WITH_UNIT (LENGTH_MEASURE( 1.000000000000000082E-05 ), #7, 'distance_accuracy_value', 'NONE');
#102 = APPROVAL_STATUS ( 'not_yet_approved' ) ;
#103 = CARTESIAN_POINT ( 'NONE',  ( -32.00000000000000000, 0.000000000000000000, -8.211178150700478290E-15 ) ) ;
#104 = AXIS2_PLACEMENT_3D ( 'NONE', #39, #77, #118 ) ;
#105 = CC_DESIGN_APPROVAL ( #97, ( #17 ) ) ;
#106 = ADVANCED_FACE ( 'NONE', ( #239, #44 ), #38, .F. ) ;
#107 = CARTESIAN_POINT ( 'NONE',  ( 0.000000000000000000, 0.000000000000000000, 0.000000000000000000 ) ) ;
#108 = EDGE_CURVE ( 'NONE', #115, #186, #8, .T. ) ;
#109 = PRODUCT_DEFINITION_SHAPE ( 'NONE', 'NONE',  #9 ) ;
#110 = DIRECTION ( 'NONE',  ( 1.000000000000000000, 0.000000000000000000, 2.565993172093899466E-16 ) ) ;
#111 = FACE_OUTER_BOUND ( 'NONE', #137, .T. ) ;
#112 = ORIENTED_EDGE ( 'NONE', *, *, #70, .T. ) ;
#113 = SECURITY_CLASSIFICATION_LEVEL ( 'unclassified' ) ;
#114 = PERSON_AND_ORGANIZATION ( #183, #63 ) ;
#115 = VERTEX_POINT ( 'NONE', #81 ) ;
#116 = APPROVAL_DATE_TIME ( #27, #97 ) ;
#117 = DIRECTION ( 'NONE',  ( -2.565993172093899466E-16, 0.000000000000000000, 1.000000000000000000 ) ) ;
#118 = DIRECTION ( 'NONE',  ( 2.913257491698415941E-15, 0.000000000000000000, 1.000000000000000000 ) ) ;
#119 = ADVANCED_BREP_SHAPE_REPRESENTATION ( '3D_R1620_42.4x2_173630120_173631110', ( #177, #175 ), #184 ) ;
#120 = CIRCLE ( 'NONE', #165, 21.19999999999999929 ) ;
#121 = DIRECTION ( 'NONE',  ( 0.000000000000000000, 1.000000000000000000, 0.000000000000000000 ) ) ;
#122 = DIRECTION ( 'NONE',  ( 1.000000000000000000, 0.000000000000000000, 2.565993172093899466E-16 ) ) ;
#123 = DIRECTION ( 'NONE',  ( 0.000000000000000000, 1.000000000000000000, 0.000000000000000000 ) ) ;
#124 = EDGE_CURVE ( 'NONE', #115, #209, #220, .T. ) ;
#125 = DIRECTION ( 'NONE',  ( 1.000000000000000000, 0.000000000000000000, 0.000000000000000000 ) ) ;
#126 = LOCAL_TIME ( 13, 5, 26.00000000000000000, #171 ) ;
#127 = PERSON_AND_ORGANIZATION_ROLE ( 'design_owner' ) ;
#128 = TOROIDAL_SURFACE ( 'NONE', #87, 32.00000000000000000, 19.20000000000000284 ) ;
#129 = LOCAL_TIME ( 13, 5, 26.00000000000000000, #180 ) ;
#130 = CALENDAR_DATE ( 2024, 27, 8 ) ;
#131 = COORDINATED_UNIVERSAL_TIME_OFFSET ( 1, 0, .AHEAD. ) ;
#132 = EDGE_CURVE ( 'NONE', #186, #42, #80, .T. ) ;
#133 = PERSON_AND_ORGANIZATION ( #183, #63 ) ;
#134 = ORIENTED_EDGE ( 'NONE', *, *, #70, .F. ) ;
#135 = DIRECTION ( 'NONE',  ( 2.913257491698416335E-15, 0.000000000000000000, 1.000000000000000000 ) ) ;
#136 = CALENDAR_DATE ( 2024, 27, 8 ) ;
#137 = EDGE_LOOP ( 'NONE', ( #72, #173, #50, #192 ) ) ;
#138 = CIRCLE ( 'NONE', #198, 21.19999999999999929 ) ;
#139 = APPLICATION_CONTEXT ( 'configuration controlled 3d designs of mechanical parts and assemblies' ) ;
#140 = CARTESIAN_POINT ( 'NONE',  ( 0.000000000000000000, 0.000000000000000000, 0.000000000000000000 ) ) ;
#141 = AXIS2_PLACEMENT_3D ( 'NONE', #160, #163, #181 ) ;
#142 = ORIENTED_EDGE ( 'NONE', *, *, #108, .F. ) ;
#143 = CARTESIAN_POINT ( 'NONE',  ( -1.573181720731489448E-13, 0.000000000000000000, -53.19999999999999574 ) ) ;
#144 = ADVANCED_FACE ( 'NONE', ( #164 ), #128, .F. ) ;
#145 = DESIGN_CONTEXT ( 'detailed design', #139, 'design' ) ;
#146 = MECHANICAL_CONTEXT ( 'NONE', #174, 'mechanical' ) ;
#147 = DIRECTION ( 'NONE',  ( 0.000000000000000000, 1.000000000000000000, 0.000000000000000000 ) ) ;
#148 = CIRCLE ( 'NONE', #241, 21.19999999999999929 ) ;
#149 = CARTESIAN_POINT ( 'NONE',  ( 0.000000000000000000, 0.000000000000000000, 0.000000000000000000 ) ) ;
#150 = EDGE_LOOP ( 'NONE', ( #62, #37 ) ) ;
#151 = EDGE_CURVE ( 'NONE', #248, #30, #148, .T. ) ;
#152 = COORDINATED_UNIVERSAL_TIME_OFFSET ( 1, 0, .AHEAD. ) ;
#153 = PRODUCT ( '3D_R1620_42.4x2_173630120_173631110', '3D_R1620_42.4x2_173630120_173631110', '', ( #146 ) ) ;
#154 = CARTESIAN_POINT ( 'NONE',  ( -9.555711324914250128E-14, 0.000000000000000000, -32.00000000000000000 ) ) ;
#155 = DIRECTION ( 'NONE',  ( -2.565993172093899466E-16, 0.000000000000000000, 1.000000000000000000 ) ) ;
#156 = AXIS2_PLACEMENT_3D ( 'NONE', #216, #196, #95 ) ;
#157 = PERSON_AND_ORGANIZATION ( #183, #63 ) ;
#158 = DIRECTION ( 'NONE',  ( 0.000000000000000000, 1.000000000000000000, 0.000000000000000000 ) ) ;
#159 = LOCAL_TIME ( 13, 5, 26.00000000000000000, #55 ) ;
#160 = CARTESIAN_POINT ( 'NONE',  ( 0.000000000000000000, -2.351321854362918079E-15, 0.000000000000000000 ) ) ;
#161 = ORIENTED_EDGE ( 'NONE', *, *, #168, .T. ) ;
#162 = CARTESIAN_POINT ( 'NONE',  ( 0.000000000000000000, 0.000000000000000000, 0.000000000000000000 ) ) ;
#163 = DIRECTION ( 'NONE',  ( 0.000000000000000000, 1.000000000000000000, 0.000000000000000000 ) ) ;
#164 = FACE_OUTER_BOUND ( 'NONE', #28, .T. ) ;
#165 = AXIS2_PLACEMENT_3D ( 'NONE', #154, #56, #96 ) ;
#166 = ORIENTED_EDGE ( 'NONE', *, *, #151, .T. ) ;
#167 = ORIENTED_EDGE ( 'NONE', *, *, #59, .F. ) ;
#168 = EDGE_CURVE ( 'NONE', #73, #248, #13, .T. ) ;
#169 = AXIS2_PLACEMENT_3D ( 'NONE', #170, #158, #249 ) ;
#170 = CARTESIAN_POINT ( 'NONE',  ( 0.000000000000000000, 0.000000000000000000, 0.000000000000000000 ) ) ;
#171 = COORDINATED_UNIVERSAL_TIME_OFFSET ( 1, 0, .AHEAD. ) ;
#172 = CARTESIAN_POINT ( 'NONE',  ( -32.00000000000000000, 0.000000000000000000, -5.878304635907295000E-15 ) ) ;
#173 = ORIENTED_EDGE ( 'NONE', *, *, #132, .T. ) ;
#174 = APPLICATION_CONTEXT ( 'configuration controlled 3d designs of mechanical parts and assemblies' ) ;
#175 = AXIS2_PLACEMENT_3D ( 'NONE', #107, #48, #125 ) ;
#176 = LOCAL_TIME ( 13, 5, 26.00000000000000000, #152 ) ;
#177 = MANIFOLD_SOLID_BREP ( 'Wandung1', #36 ) ;
#178 = FACE_BOUND ( 'NONE', #150, .T. ) ;
#179 = EDGE_LOOP ( 'NONE', ( #166, #61 ) ) ;
#180 = COORDINATED_UNIVERSAL_TIME_OFFSET ( 1, 0, .AHEAD. ) ;
#181 = DIRECTION ( 'NONE',  ( 0.000000000000000000, 0.000000000000000000, 1.000000000000000000 ) ) ;
#182 = APPROVAL_ROLE ( '' ) ;
#183 = PERSON ( 'UNSPECIFIED', 'UNSPECIFIED', 'UNSPECIFIED', ('UNSPECIFIED'), ('UNSPECIFIED'), ('UNSPECIFIED') ) ;
#184 =( GEOMETRIC_REPRESENTATION_CONTEXT ( 3 ) GLOBAL_UNCERTAINTY_ASSIGNED_CONTEXT ( ( #101 ) ) GLOBAL_UNIT_ASSIGNED_CONTEXT ( ( #7, #24, #226 ) ) REPRESENTATION_CONTEXT ( 'NONE', 'WORKASPACE' ) );
#185 = LOCAL_TIME ( 13, 5, 26.00000000000000000, #131 ) ;
#186 = VERTEX_POINT ( 'NONE', #45 ) ;
#187 = DATE_TIME_ROLE ( 'classification_date' ) ;
#188 = ORIENTED_EDGE ( 'NONE', *, *, #245, .T. ) ;
#189 = CC_DESIGN_PERSON_AND_ORGANIZATION_ASSIGNMENT ( #157, #35, ( #17 ) ) ;
#190 = AXIS2_PLACEMENT_3D ( 'NONE', #82, #18, #194 ) ;
#191 = CC_DESIGN_APPROVAL ( #218, ( #232 ) ) ;
#192 = ORIENTED_EDGE ( 'NONE', *, *, #124, .F. ) ;
#193 = DATE_AND_TIME ( #136, #185 ) ;
#194 = DIRECTION ( 'NONE',  ( 2.913257491698416730E-15, 0.000000000000000000, 1.000000000000000000 ) ) ;
#195 = APPROVAL_DATE_TIME ( #74, #218 ) ;
#196 = DIRECTION ( 'NONE',  ( -1.000000000000000000, 0.000000000000000000, 2.913257491698416335E-15 ) ) ;
#197 = VERTEX_POINT ( 'NONE', #143 ) ;
#198 = AXIS2_PLACEMENT_3D ( 'NONE', #172, #117, #122 ) ;
#199 = ORIENTED_EDGE ( 'NONE', *, *, #124, .T. ) ;
#200 = CARTESIAN_POINT ( 'NONE',  ( 0.000000000000000000, 0.000000000000000000, 0.000000000000000000 ) ) ;
#201 = DIRECTION ( 'NONE',  ( -2.565993172093899466E-16, 0.000000000000000000, 1.000000000000000000 ) ) ;
#202 = AXIS2_PLACEMENT_3D ( 'NONE', #162, #147, #206 ) ;
#203 = APPLICATION_PROTOCOL_DEFINITION ( 'international standard', 'config_control_design', 1994, #139 ) ;
#204 = CC_DESIGN_PERSON_AND_ORGANIZATION_ASSIGNMENT ( #68, #127, ( #153 ) ) ;
#205 = APPLICATION_PROTOCOL_DEFINITION ( 'international standard', 'config_control_design', 1994, #174 ) ;
#206 = DIRECTION ( 'NONE',  ( 0.000000000000000000, 0.000000000000000000, 1.000000000000000000 ) ) ;
#207 = DIRECTION ( 'NONE',  ( 0.000000000000000000, 0.000000000000000000, 1.000000000000000000 ) ) ;
#208 = APPROVAL_PERSON_ORGANIZATION ( #23, #79, #182 ) ;
#209 = VERTEX_POINT ( 'NONE', #83 ) ;
#210 = PERSON_AND_ORGANIZATION_ROLE ( 'classification_officer' ) ;
#211 = EDGE_LOOP ( 'NONE', ( #2, #112, #161, #89 ) ) ;
#212 = ORIENTED_EDGE ( 'NONE', *, *, #151, .F. ) ;
#213 = AXIS2_PLACEMENT_3D ( 'NONE', #237, #1, #135 ) ;
#214 = CARTESIAN_POINT ( 'NONE',  ( -53.19999999999999574, 0.000000000000000000, -1.131821016074636313E-14 ) ) ;
#215 = AXIS2_PLACEMENT_3D ( 'NONE', #140, #252, #217 ) ;
#216 = CARTESIAN_POINT ( 'NONE',  ( -9.322423973434933535E-14, 0.000000000000000000, -32.00000000000000000 ) ) ;
#217 = DIRECTION ( 'NONE',  ( 0.000000000000000000, 0.000000000000000000, 1.000000000000000000 ) ) ;
#218 = APPROVAL ( #51, 'UNSPECIFIED' ) ;
#219 = ORIENTED_EDGE ( 'NONE', *, *, #20, .T. ) ;
#220 = CIRCLE ( 'NONE', #141, 12.79999999999999893 ) ;
#221 = DIRECTION ( 'NONE',  ( 1.000000000000000000, 0.000000000000000000, 2.565993172093899466E-16 ) ) ;
#222 = DIRECTION ( 'NONE',  ( 1.000000000000000000, 0.000000000000000000, 2.565993172093899466E-16 ) ) ;
#223 = DIRECTION ( 'NONE',  ( -2.565993172093899466E-16, 0.000000000000000000, 1.000000000000000000 ) ) ;
#224 = CC_DESIGN_DATE_AND_TIME_ASSIGNMENT ( #193, #234, ( #9 ) ) ;
#225 = AXIS2_PLACEMENT_3D ( 'NONE', #49, #246, #207 ) ;
#226 =( NAMED_UNIT ( * ) SI_UNIT ( $, .STERADIAN. ) SOLID_ANGLE_UNIT ( ) );
#227 = DIRECTION ( 'NONE',  ( 1.000000000000000000, 0.000000000000000000, 2.565993172093899466E-16 ) ) ;
#228 = DIRECTION ( 'NONE',  ( -2.565993172093899466E-16, 0.000000000000000000, 1.000000000000000000 ) ) ;
#229 = EDGE_CURVE ( 'NONE', #42, #209, #98, .T. ) ;
#230 = ORIENTED_EDGE ( 'NONE', *, *, #4, .T. ) ;
#231 = CALENDAR_DATE ( 2024, 27, 8 ) ;
#232 = SECURITY_CLASSIFICATION ( '', '', #113 ) ;
#233 = ORIENTED_EDGE ( 'NONE', *, *, #132, .F. ) ;
#234 = DATE_TIME_ROLE ( 'creation_date' ) ;
#235 = DIRECTION ( 'NONE',  ( 0.000000000000000000, 0.000000000000000000, 1.000000000000000000 ) ) ;
#236 = APPROVAL_STATUS ( 'not_yet_approved' ) ;
#237 = CARTESIAN_POINT ( 'NONE',  ( -9.555711324914250128E-14, 0.000000000000000000, -32.00000000000000000 ) ) ;
#238 = PERSON_AND_ORGANIZATION ( #183, #63 ) ;
#239 = FACE_BOUND ( 'NONE', #15, .T. ) ;
#240 = TOROIDAL_SURFACE ( 'NONE', #84, 32.00000000000000000, 21.19999999999999929 ) ;
#241 = AXIS2_PLACEMENT_3D ( 'NONE', #65, #201, #222 ) ;
#242 = FACE_OUTER_BOUND ( 'NONE', #250, .T. ) ;
#243 = FACE_OUTER_BOUND ( 'NONE', #211, .T. ) ;
#244 = DIRECTION ( 'NONE',  ( 0.000000000000000000, 0.000000000000000000, 1.000000000000000000 ) ) ;
#245 = EDGE_CURVE ( 'NONE', #209, #42, #16, .T. ) ;
#246 = DIRECTION ( 'NONE',  ( 0.000000000000000000, 1.000000000000000000, 0.000000000000000000 ) ) ;
#247 = APPROVAL_ROLE ( '' ) ;
#248 = VERTEX_POINT ( 'NONE', #5 ) ;
#249 = DIRECTION ( 'NONE',  ( 0.000000000000000000, 0.000000000000000000, 1.000000000000000000 ) ) ;
#250 = EDGE_LOOP ( 'NONE', ( #58, #230, #212, #69 ) ) ;
#251 = TOROIDAL_SURFACE ( 'NONE', #169, 32.00000000000000000, 21.19999999999999929 ) ;
#252 = DIRECTION ( 'NONE',  ( 0.000000000000000000, 1.000000000000000000, 0.000000000000000000 ) ) ;
#253 = ADVANCED_FACE ( 'NONE', ( #111 ), #43, .F. ) ;
ENDSEC;
END-ISO-10303-21;
