ISO-10303-21;
HEADER;
FILE_DESCRIPTION (( 'STEP AP203' ),
    '1' );
FILE_NAME ('3D_R245_219.1_17386190.STEP',
    '2024-08-06T09:36:58',
    ( '' ),
    ( '' ),
    'SwSTEP 2.0',
    'SolidWorks 2024',
    '' );
FILE_SCHEMA (( 'CONFIG_CONTROL_DESIGN' ));
ENDSEC;

DATA;
#1 = CARTESIAN_POINT ( 'NONE',  ( 0.000000000000000000, 4.000000000000000000, 0.000000000000000000 ) ) ;
#2 = EDGE_CURVE ( 'NONE', #15, #241, #238, .T. ) ;
#3 = CARTESIAN_POINT ( 'NONE',  ( 0.000000000000000000, 4.000000000000000000, -160.0000000000000000 ) ) ;
#4 = PERSON_AND_ORGANIZATION ( #75, #59 ) ;
#5 = APPROVAL_PERSON_ORGANIZATION ( #4, #130, #120 ) ;
#6 = APPROVAL_ROLE ( '' ) ;
#7 = ADVANCED_FACE ( 'NONE', ( #194, #245 ), #48, .T. ) ;
#8 = PERSON_AND_ORGANIZATION ( #75, #59 ) ;
#9 = PERSON_AND_ORGANIZATION_ROLE ( 'classification_officer' ) ;
#10 = PERSON_AND_ORGANIZATION ( #75, #59 ) ;
#11 = CC_DESIGN_APPROVAL ( #140, ( #205 ) ) ;
#12 = PRODUCT_DEFINITION_SHAPE ( 'NONE', 'NONE',  #244 ) ;
#13 = EDGE_CURVE ( 'NONE', #74, #15, #154, .T. ) ;
#14 = EDGE_LOOP ( 'NONE', ( #243, #131 ) ) ;
#15 = VERTEX_POINT ( 'NONE', #60 ) ;
#16 = CC_DESIGN_DATE_AND_TIME_ASSIGNMENT ( #221, #101, ( #244 ) ) ;
#17 = ORIENTED_EDGE ( 'NONE', *, *, #157, .T. ) ;
#18 = ORIENTED_EDGE ( 'NONE', *, *, #103, .T. ) ;
#19 = ORIENTED_EDGE ( 'NONE', *, *, #103, .F. ) ;
#20 = DIRECTION ( 'NONE',  ( 0.000000000000000000, 0.000000000000000000, -1.000000000000000000 ) ) ;
#21 = CC_DESIGN_PERSON_AND_ORGANIZATION_ASSIGNMENT ( #29, #188, ( #205 ) ) ;
#22 = DIRECTION ( 'NONE',  ( 0.000000000000000000, 0.000000000000000000, 1.000000000000000000 ) ) ;
#23 = DIRECTION ( 'NONE',  ( 0.000000000000000000, 1.000000000000000000, 0.000000000000000000 ) ) ;
#24 = FACE_BOUND ( 'NONE', #193, .T. ) ;
#25 = AXIS2_PLACEMENT_3D ( 'NONE', #83, #117, #179 ) ;
#26 = LOCAL_TIME ( 11, 36, 58.00000000000000000, #87 ) ;
#27 = FACE_OUTER_BOUND ( 'NONE', #191, .T. ) ;
#28 = AXIS2_PLACEMENT_3D ( 'NONE', #211, #80, #155 ) ;
#29 = PERSON_AND_ORGANIZATION ( #75, #59 ) ;
#30 = PERSON_AND_ORGANIZATION ( #75, #59 ) ;
#31 = DIRECTION ( 'NONE',  ( 1.000000000000000000, 0.000000000000000000, 0.000000000000000000 ) ) ;
#32 = ORIENTED_EDGE ( 'NONE', *, *, #168, .F. ) ;
#33 = VERTEX_POINT ( 'NONE', #95 ) ;
#34 = UNCERTAINTY_MEASURE_WITH_UNIT (LENGTH_MEASURE( 1.000000000000000082E-05 ), #218, 'distance_accuracy_value', 'NONE');
#35 = VECTOR ( 'NONE', #175, 1000.000000000000000 ) ;
#36 = DIRECTION ( 'NONE',  ( 0.000000000000000000, 0.000000000000000000, 1.000000000000000000 ) ) ;
#37 = FACE_OUTER_BOUND ( 'NONE', #14, .T. ) ;
#38 = DIRECTION ( 'NONE',  ( -0.000000000000000000, -1.000000000000000000, -0.000000000000000000 ) ) ;
#39 = DIRECTION ( 'NONE',  ( 0.000000000000000000, 1.000000000000000000, 0.000000000000000000 ) ) ;
#40 = DIRECTION ( 'NONE',  ( 0.000000000000000000, 1.000000000000000000, 0.000000000000000000 ) ) ;
#41 = DIRECTION ( 'NONE',  ( -0.000000000000000000, -1.000000000000000000, -0.000000000000000000 ) ) ;
#42 = AXIS2_PLACEMENT_3D ( 'NONE', #229, #41, #247 ) ;
#43 = DIRECTION ( 'NONE',  ( -0.000000000000000000, -1.000000000000000000, -0.000000000000000000 ) ) ;
#44 = PERSON_AND_ORGANIZATION ( #75, #59 ) ;
#45 = APPROVAL_STATUS ( 'not_yet_approved' ) ;
#46 = PERSON_AND_ORGANIZATION_ROLE ( 'creator' ) ;
#47 = PERSON_AND_ORGANIZATION_ROLE ( 'design_supplier' ) ;
#48 = PLANE ( 'NONE',  #54 ) ;
#49 = VECTOR ( 'NONE', #214, 1000.000000000000000 ) ;
#50 = ORIENTED_EDGE ( 'NONE', *, *, #65, .F. ) ;
#51 = CC_DESIGN_PERSON_AND_ORGANIZATION_ASSIGNMENT ( #62, #46, ( #244 ) ) ;
#52 = ORIENTED_EDGE ( 'NONE', *, *, #13, .T. ) ;
#53 = ORIENTED_EDGE ( 'NONE', *, *, #13, .F. ) ;
#54 = AXIS2_PLACEMENT_3D ( 'NONE', #127, #234, #181 ) ;
#55 = EDGE_CURVE ( 'NONE', #92, #33, #147, .T. ) ;
#56 = DIRECTION ( 'NONE',  ( -0.000000000000000000, -1.000000000000000000, -0.000000000000000000 ) ) ;
#57 = CARTESIAN_POINT ( 'NONE',  ( 1.959434878635765210E-14, 4.000000000000000000, 160.0000000000000000 ) ) ;
#58 = FACE_OUTER_BOUND ( 'NONE', #225, .T. ) ;
#59 = ORGANIZATION ( 'UNSPECIFIED', 'UNSPECIFIED', '' ) ;
#60 = CARTESIAN_POINT ( 'NONE',  ( 0.000000000000000000, 0.000000000000000000, -160.0000000000000000 ) ) ;
#61 = DIRECTION ( 'NONE',  ( 0.000000000000000000, 1.000000000000000000, 0.000000000000000000 ) ) ;
#62 = PERSON_AND_ORGANIZATION ( #75, #59 ) ;
#63 = VECTOR ( 'NONE', #38, 1000.000000000000000 ) ;
#64 = APPROVAL_STATUS ( 'not_yet_approved' ) ;
#65 = EDGE_CURVE ( 'NONE', #33, #92, #98, .T. ) ;
#66 = CALENDAR_DATE ( 2024, 6, 8 ) ;
#67 = EDGE_CURVE ( 'NONE', #73, #241, #215, .T. ) ;
#68 = AXIS2_PLACEMENT_3D ( 'NONE', #249, #97, #22 ) ;
#69 = DATE_AND_TIME ( #162, #26 ) ;
#70 = APPROVAL_DATE_TIME ( #148, #212 ) ;
#71 = COORDINATED_UNIVERSAL_TIME_OFFSET ( 1, 0, .AHEAD. ) ;
#72 = EDGE_CURVE ( 'NONE', #128, #226, #88, .T. ) ;
#73 = VERTEX_POINT ( 'NONE', #116 ) ;
#74 = VERTEX_POINT ( 'NONE', #3 ) ;
#75 = PERSON ( 'UNSPECIFIED', 'UNSPECIFIED', 'UNSPECIFIED', ('UNSPECIFIED'), ('UNSPECIFIED'), ('UNSPECIFIED') ) ;
#76 = ORIENTED_EDGE ( 'NONE', *, *, #55, .T. ) ;
#77 = ORIENTED_EDGE ( 'NONE', *, *, #55, .F. ) ;
#78 = DIRECTION ( 'NONE',  ( 0.000000000000000000, 0.000000000000000000, -1.000000000000000000 ) ) ;
#79 = CARTESIAN_POINT ( 'NONE',  ( 1.347111479062088523E-14, 4.000000000000000000, 110.0000000000000000 ) ) ;
#80 = DIRECTION ( 'NONE',  ( 0.000000000000000000, 1.000000000000000000, 0.000000000000000000 ) ) ;
#81 = AXIS2_PLACEMENT_3D ( 'NONE', #135, #197, #232 ) ;
#82 = DIRECTION ( 'NONE',  ( 0.000000000000000000, 1.000000000000000000, 0.000000000000000000 ) ) ;
#83 = CARTESIAN_POINT ( 'NONE',  ( 0.000000000000000000, 4.000000000000000000, 0.000000000000000000 ) ) ;
#84 = APPROVAL_DATE_TIME ( #85, #130 ) ;
#85 = DATE_AND_TIME ( #66, #90 ) ;
#86 = APPLICATION_PROTOCOL_DEFINITION ( 'international standard', 'config_control_design', 1994, #240 ) ;
#87 = COORDINATED_UNIVERSAL_TIME_OFFSET ( 1, 0, .AHEAD. ) ;
#88 = CIRCLE ( 'NONE', #28, 110.0000000000000000 ) ;
#89 = EDGE_LOOP ( 'NONE', ( #32, #206, #91, #53 ) ) ;
#90 = LOCAL_TIME ( 11, 36, 58.00000000000000000, #184 ) ;
#91 = ORIENTED_EDGE ( 'NONE', *, *, #180, .T. ) ;
#92 = VERTEX_POINT ( 'NONE', #176 ) ;
#93 = CARTESIAN_POINT ( 'NONE',  ( 0.000000000000000000, 0.000000000000000000, 0.000000000000000000 ) ) ;
#94 = ADVANCED_FACE ( 'NONE', ( #37, #24 ), #96, .F. ) ;
#95 = CARTESIAN_POINT ( 'NONE',  ( 0.000000000000000000, 4.000000000000000000, -110.0000000000000000 ) ) ;
#96 = PLANE ( 'NONE',  #246 ) ;
#97 = DIRECTION ( 'NONE',  ( 0.000000000000000000, 1.000000000000000000, 0.000000000000000000 ) ) ;
#98 = CIRCLE ( 'NONE', #228, 110.0000000000000000 ) ;
#99 = CYLINDRICAL_SURFACE ( 'NONE', #237, 110.0000000000000000 ) ;
#100 = APPLICATION_PROTOCOL_DEFINITION ( 'international standard', 'config_control_design', 1994, #235 ) ;
#101 = DATE_TIME_ROLE ( 'creation_date' ) ;
#102 = PERSON_AND_ORGANIZATION ( #75, #59 ) ;
#103 = EDGE_CURVE ( 'NONE', #226, #128, #169, .T. ) ;
#104 = APPROVAL_DATE_TIME ( #125, #140 ) ;
#105 = COORDINATED_UNIVERSAL_TIME_OFFSET ( 1, 0, .AHEAD. ) ;
#106 = AXIS2_PLACEMENT_3D ( 'NONE', #1, #39, #134 ) ;
#107 = EDGE_CURVE ( 'NONE', #74, #73, #213, .T. ) ;
#108 = ORIENTED_EDGE ( 'NONE', *, *, #2, .T. ) ;
#109 = EDGE_LOOP ( 'NONE', ( #50, #77 ) ) ;
#110 = ORIENTED_EDGE ( 'NONE', *, *, #107, .F. ) ;
#111 = ORIENTED_EDGE ( 'NONE', *, *, #107, .T. ) ;
#112 = DIRECTION ( 'NONE',  ( 0.000000000000000000, -0.000000000000000000, 1.000000000000000000 ) ) ;
#113 = ADVANCED_FACE ( 'NONE', ( #58 ), #236, .F. ) ;
#114 = CARTESIAN_POINT ( 'NONE',  ( 0.000000000000000000, 4.000000000000000000, 0.000000000000000000 ) ) ;
#115 = AXIS2_PLACEMENT_3D ( 'NONE', #230, #201, #78 ) ;
#116 = CARTESIAN_POINT ( 'NONE',  ( 1.959434878635765210E-14, 4.000000000000000000, 160.0000000000000000 ) ) ;
#117 = DIRECTION ( 'NONE',  ( -0.000000000000000000, -1.000000000000000000, -0.000000000000000000 ) ) ;
#118 = DIRECTION ( 'NONE',  ( 0.000000000000000000, 0.000000000000000000, 1.000000000000000000 ) ) ;
#119 = CIRCLE ( 'NONE', #208, 160.0000000000000000 ) ;
#120 = APPROVAL_ROLE ( '' ) ;
#121 =( NAMED_UNIT ( * ) PLANE_ANGLE_UNIT ( ) SI_UNIT ( $, .RADIAN. ) );
#122 = ADVANCED_FACE ( 'NONE', ( #153 ), #200, .T. ) ;
#123 = COORDINATED_UNIVERSAL_TIME_OFFSET ( 1, 0, .AHEAD. ) ;
#124 = AXIS2_PLACEMENT_3D ( 'NONE', #143, #142, #31 ) ;
#125 = DATE_AND_TIME ( #145, #170 ) ;
#126 = CARTESIAN_POINT ( 'NONE',  ( 0.000000000000000000, 4.000000000000000000, -110.0000000000000000 ) ) ;
#127 = CARTESIAN_POINT ( 'NONE',  ( 0.000000000000000000, 4.000000000000000000, 0.000000000000000000 ) ) ;
#128 = VERTEX_POINT ( 'NONE', #137 ) ;
#129 = ORIENTED_EDGE ( 'NONE', *, *, #157, .F. ) ;
#130 = APPROVAL ( #45, 'UNSPECIFIED' ) ;
#131 = ORIENTED_EDGE ( 'NONE', *, *, #180, .F. ) ;
#132 = AXIS2_PLACEMENT_3D ( 'NONE', #227, #133, #36 ) ;
#133 = DIRECTION ( 'NONE',  ( 0.000000000000000000, 1.000000000000000000, 0.000000000000000000 ) ) ;
#134 = DIRECTION ( 'NONE',  ( 0.000000000000000000, 0.000000000000000000, 1.000000000000000000 ) ) ;
#135 = CARTESIAN_POINT ( 'NONE',  ( 0.000000000000000000, 0.000000000000000000, 0.000000000000000000 ) ) ;
#136 = MANIFOLD_SOLID_BREP ( 'Aufsatz-Linear austragen1', #163 ) ;
#137 = CARTESIAN_POINT ( 'NONE',  ( 1.347111479062088523E-14, 0.000000000000000000, 110.0000000000000000 ) ) ;
#138 = LOCAL_TIME ( 11, 36, 58.00000000000000000, #105 ) ;
#139 = CARTESIAN_POINT ( 'NONE',  ( 0.000000000000000000, 4.000000000000000000, 0.000000000000000000 ) ) ;
#140 = APPROVAL ( #64, 'UNSPECIFIED' ) ;
#141 = DIRECTION ( 'NONE',  ( 0.000000000000000000, 0.000000000000000000, 1.000000000000000000 ) ) ;
#142 = DIRECTION ( 'NONE',  ( 0.000000000000000000, 0.000000000000000000, 1.000000000000000000 ) ) ;
#143 = CARTESIAN_POINT ( 'NONE',  ( 0.000000000000000000, 0.000000000000000000, 0.000000000000000000 ) ) ;
#144 =( NAMED_UNIT ( * ) SI_UNIT ( $, .STERADIAN. ) SOLID_ANGLE_UNIT ( ) );
#145 = CALENDAR_DATE ( 2024, 6, 8 ) ;
#146 = CALENDAR_DATE ( 2024, 6, 8 ) ;
#147 = CIRCLE ( 'NONE', #106, 110.0000000000000000 ) ;
#148 = DATE_AND_TIME ( #146, #156 ) ;
#149 = ORIENTED_EDGE ( 'NONE', *, *, #168, .T. ) ;
#150 = ORIENTED_EDGE ( 'NONE', *, *, #239, .T. ) ;
#151 = ORIENTED_EDGE ( 'NONE', *, *, #67, .F. ) ;
#152 = ORIENTED_EDGE ( 'NONE', *, *, #72, .T. ) ;
#153 = FACE_OUTER_BOUND ( 'NONE', #207, .T. ) ;
#154 = LINE ( 'NONE', #210, #35 ) ;
#155 = DIRECTION ( 'NONE',  ( 0.000000000000000000, 0.000000000000000000, 1.000000000000000000 ) ) ;
#156 = LOCAL_TIME ( 11, 36, 58.00000000000000000, #71 ) ;
#157 = EDGE_CURVE ( 'NONE', #92, #128, #248, .T. ) ;
#158 = CARTESIAN_POINT ( 'NONE',  ( 0.000000000000000000, 0.000000000000000000, 0.000000000000000000 ) ) ;
#159 = APPROVAL_STATUS ( 'not_yet_approved' ) ;
#160 = CALENDAR_DATE ( 2024, 6, 8 ) ;
#161 = CARTESIAN_POINT ( 'NONE',  ( 0.000000000000000000, 0.000000000000000000, -110.0000000000000000 ) ) ;
#162 = CALENDAR_DATE ( 2024, 6, 8 ) ;
#163 = CLOSED_SHELL ( 'NONE', ( #113, #195, #7, #94, #122, #202 ) ) ;
#164 = CC_DESIGN_APPROVAL ( #212, ( #174 ) ) ;
#165 = SHAPE_DEFINITION_REPRESENTATION ( #12, #178 ) ;
#166 = ORIENTED_EDGE ( 'NONE', *, *, #65, .T. ) ;
#167 = APPROVAL_ROLE ( '' ) ;
#168 = EDGE_CURVE ( 'NONE', #73, #74, #182, .T. ) ;
#169 = CIRCLE ( 'NONE', #81, 110.0000000000000000 ) ;
#170 = LOCAL_TIME ( 11, 36, 58.00000000000000000, #123 ) ;
#171 = ORIENTED_EDGE ( 'NONE', *, *, #72, .F. ) ;
#172 = EDGE_LOOP ( 'NONE', ( #111, #149 ) ) ;
#173 = CC_DESIGN_PERSON_AND_ORGANIZATION_ASSIGNMENT ( #44, #203, ( #222 ) ) ;
#174 = SECURITY_CLASSIFICATION ( '', '', #187 ) ;
#175 = DIRECTION ( 'NONE',  ( -0.000000000000000000, -1.000000000000000000, -0.000000000000000000 ) ) ;
#176 = CARTESIAN_POINT ( 'NONE',  ( 1.347111479062088523E-14, 4.000000000000000000, 110.0000000000000000 ) ) ;
#177 = DESIGN_CONTEXT ( 'detailed design', #240, 'design' ) ;
#178 = ADVANCED_BREP_SHAPE_REPRESENTATION ( '3D_R245_219.1_17386190', ( #136, #124 ), #185 ) ;
#179 = DIRECTION ( 'NONE',  ( 0.000000000000000000, 0.000000000000000000, -1.000000000000000000 ) ) ;
#180 = EDGE_CURVE ( 'NONE', #241, #15, #119, .T. ) ;
#181 = DIRECTION ( 'NONE',  ( 0.000000000000000000, -0.000000000000000000, 1.000000000000000000 ) ) ;
#182 = CIRCLE ( 'NONE', #68, 160.0000000000000000 ) ;
#183 = CARTESIAN_POINT ( 'NONE',  ( 0.000000000000000000, 4.000000000000000000, 0.000000000000000000 ) ) ;
#184 = COORDINATED_UNIVERSAL_TIME_OFFSET ( 1, 0, .AHEAD. ) ;
#185 =( GEOMETRIC_REPRESENTATION_CONTEXT ( 3 ) GLOBAL_UNCERTAINTY_ASSIGNED_CONTEXT ( ( #34 ) ) GLOBAL_UNIT_ASSIGNED_CONTEXT ( ( #218, #121, #144 ) ) REPRESENTATION_CONTEXT ( 'NONE', 'WORKASPACE' ) );
#186 = APPROVAL_PERSON_ORGANIZATION ( #10, #212, #167 ) ;
#187 = SECURITY_CLASSIFICATION_LEVEL ( 'unclassified' ) ;
#188 = PERSON_AND_ORGANIZATION_ROLE ( 'creator' ) ;
#189 = DATE_TIME_ROLE ( 'classification_date' ) ;
#190 = VECTOR ( 'NONE', #43, 1000.000000000000000 ) ;
#191 = EDGE_LOOP ( 'NONE', ( #129, #76, #150, #171 ) ) ;
#192 = ORIENTED_EDGE ( 'NONE', *, *, #239, .F. ) ;
#193 = EDGE_LOOP ( 'NONE', ( #18, #152 ) ) ;
#194 = FACE_OUTER_BOUND ( 'NONE', #172, .T. ) ;
#195 = ADVANCED_FACE ( 'NONE', ( #196 ), #216, .T. ) ;
#196 = FACE_OUTER_BOUND ( 'NONE', #89, .T. ) ;
#197 = DIRECTION ( 'NONE',  ( 0.000000000000000000, 1.000000000000000000, 0.000000000000000000 ) ) ;
#198 = CC_DESIGN_PERSON_AND_ORGANIZATION_ASSIGNMENT ( #102, #47, ( #205 ) ) ;
#199 = DIRECTION ( 'NONE',  ( 0.000000000000000000, 0.000000000000000000, 1.000000000000000000 ) ) ;
#200 = CYLINDRICAL_SURFACE ( 'NONE', #115, 160.0000000000000000 ) ;
#201 = DIRECTION ( 'NONE',  ( -0.000000000000000000, -1.000000000000000000, -0.000000000000000000 ) ) ;
#202 = ADVANCED_FACE ( 'NONE', ( #27 ), #99, .F. ) ;
#203 = PERSON_AND_ORGANIZATION_ROLE ( 'design_owner' ) ;
#204 = CARTESIAN_POINT ( 'NONE',  ( 1.959434878635765210E-14, 0.000000000000000000, 160.0000000000000000 ) ) ;
#205 = PRODUCT_DEFINITION_FORMATION_WITH_SPECIFIED_SOURCE ( 'ANY', '', #222, .NOT_KNOWN. ) ;
#206 = ORIENTED_EDGE ( 'NONE', *, *, #67, .T. ) ;
#207 = EDGE_LOOP ( 'NONE', ( #151, #110, #52, #108 ) ) ;
#208 = AXIS2_PLACEMENT_3D ( 'NONE', #93, #61, #141 ) ;
#209 = CC_DESIGN_PERSON_AND_ORGANIZATION_ASSIGNMENT ( #8, #9, ( #174 ) ) ;
#210 = CARTESIAN_POINT ( 'NONE',  ( 0.000000000000000000, 4.000000000000000000, -160.0000000000000000 ) ) ;
#211 = CARTESIAN_POINT ( 'NONE',  ( 0.000000000000000000, 0.000000000000000000, 0.000000000000000000 ) ) ;
#212 = APPROVAL ( #159, 'UNSPECIFIED' ) ;
#213 = CIRCLE ( 'NONE', #217, 160.0000000000000000 ) ;
#214 = DIRECTION ( 'NONE',  ( -0.000000000000000000, -1.000000000000000000, -0.000000000000000000 ) ) ;
#215 = LINE ( 'NONE', #57, #63 ) ;
#216 = CYLINDRICAL_SURFACE ( 'NONE', #42, 160.0000000000000000 ) ;
#217 = AXIS2_PLACEMENT_3D ( 'NONE', #114, #40, #118 ) ;
#218 =( LENGTH_UNIT ( ) NAMED_UNIT ( * ) SI_UNIT ( .MILLI., .METRE. ) );
#219 = LINE ( 'NONE', #126, #190 ) ;
#220 = MECHANICAL_CONTEXT ( 'NONE', #235, 'mechanical' ) ;
#221 = DATE_AND_TIME ( #160, #138 ) ;
#222 = PRODUCT ( '3D_R245_219.1_17386190', '3D_R245_219.1_17386190', '', ( #220 ) ) ;
#223 = CC_DESIGN_DATE_AND_TIME_ASSIGNMENT ( #69, #189, ( #174 ) ) ;
#224 = CC_DESIGN_SECURITY_CLASSIFICATION ( #174, ( #205 ) ) ;
#225 = EDGE_LOOP ( 'NONE', ( #166, #17, #19, #192 ) ) ;
#226 = VERTEX_POINT ( 'NONE', #161 ) ;
#227 = CARTESIAN_POINT ( 'NONE',  ( 0.000000000000000000, 0.000000000000000000, 0.000000000000000000 ) ) ;
#228 = AXIS2_PLACEMENT_3D ( 'NONE', #139, #82, #199 ) ;
#229 = CARTESIAN_POINT ( 'NONE',  ( 0.000000000000000000, 4.000000000000000000, 0.000000000000000000 ) ) ;
#230 = CARTESIAN_POINT ( 'NONE',  ( 0.000000000000000000, 4.000000000000000000, 0.000000000000000000 ) ) ;
#231 = PRODUCT_RELATED_PRODUCT_CATEGORY ( 'detail', '', ( #222 ) ) ;
#232 = DIRECTION ( 'NONE',  ( 0.000000000000000000, 0.000000000000000000, 1.000000000000000000 ) ) ;
#233 = APPROVAL_PERSON_ORGANIZATION ( #30, #140, #6 ) ;
#234 = DIRECTION ( 'NONE',  ( 0.000000000000000000, 1.000000000000000000, 0.000000000000000000 ) ) ;
#235 = APPLICATION_CONTEXT ( 'configuration controlled 3d designs of mechanical parts and assemblies' ) ;
#236 = CYLINDRICAL_SURFACE ( 'NONE', #25, 110.0000000000000000 ) ;
#237 = AXIS2_PLACEMENT_3D ( 'NONE', #183, #56, #20 ) ;
#238 = CIRCLE ( 'NONE', #132, 160.0000000000000000 ) ;
#239 = EDGE_CURVE ( 'NONE', #33, #226, #219, .T. ) ;
#240 = APPLICATION_CONTEXT ( 'configuration controlled 3d designs of mechanical parts and assemblies' ) ;
#241 = VERTEX_POINT ( 'NONE', #204 ) ;
#242 = CC_DESIGN_APPROVAL ( #130, ( #244 ) ) ;
#243 = ORIENTED_EDGE ( 'NONE', *, *, #2, .F. ) ;
#244 = PRODUCT_DEFINITION ( 'UNKNOWN', '', #205, #177 ) ;
#245 = FACE_BOUND ( 'NONE', #109, .T. ) ;
#246 = AXIS2_PLACEMENT_3D ( 'NONE', #158, #23, #112 ) ;
#247 = DIRECTION ( 'NONE',  ( 0.000000000000000000, 0.000000000000000000, -1.000000000000000000 ) ) ;
#248 = LINE ( 'NONE', #79, #49 ) ;
#249 = CARTESIAN_POINT ( 'NONE',  ( 0.000000000000000000, 4.000000000000000000, 0.000000000000000000 ) ) ;
ENDSEC;
END-ISO-10303-21;
