ISO-10303-21;
HEADER;
/****************************************************************
 * Generated by software with PDElib inside                    *
 * PDElib Version v51a, created Wed 07/06/2011                  *
 * ITI Transcendata (http://www.transcendata.com/)              *
 ****************************************************************/
FILE_DESCRIPTION(('RE_48,3x2-42,4x2_L90_V10'),'2;1');
FILE_NAME('RE_48,3x2-42,4x2_L90_V10.stp','2013-11-02T16:33:35',('DOCKWEILER AG'),('DOCKWEILER AG'),'Autodesk Inventor 2012','Autodesk Inventor 2012','');
FILE_SCHEMA(('CONFIG_CONTROL_DESIGN'));
ENDSEC;
DATA;
#5=APPLICATION_CONTEXT('configuration controlled 3D designs of mechanical parts and assemblies');
#6=APPLICATION_PROTOCOL_DEFINITION('International Standard','ap203_configuration_controlled_3d_design_of_mechanical_parts_and_assemblies_mim_lf',2004,#5);
#7=PRODUCT_CONTEXT('',#5,'mechanical');
#8=PRODUCT('N0006_002_001_009','N0006_002_001_009',$,(#7));
#9=PRODUCT_RELATED_PRODUCT_CATEGORY('part',$,(#8));
#10=PRODUCT_DEFINITION_FORMATION('',$,#8);
#11=PRODUCT_DEFINITION_CONTEXT('part definition',#5,'design');
#12=PRODUCT_DEFINITION('',$,#10,#11);
#18=(NAMED_UNIT(*)PLANE_ANGLE_UNIT()SI_UNIT($,.RADIAN.));
#19=DIMENSIONAL_EXPONENTS(0.0,0.0,0.0,0.0,0.0,0.0,0.0);
#20=PLANE_ANGLE_MEASURE_WITH_UNIT(PLANE_ANGLE_MEASURE(0.0174532925),#18);
#24=(CONVERSION_BASED_UNIT('DEGREE',#20)NAMED_UNIT(#19)PLANE_ANGLE_UNIT());
#28=(NAMED_UNIT(*)SI_UNIT($,.STERADIAN.)SOLID_ANGLE_UNIT());
#32=(LENGTH_UNIT()NAMED_UNIT(*)SI_UNIT(.MILLI.,.METRE.));
#34=UNCERTAINTY_MEASURE_WITH_UNIT(LENGTH_MEASURE(0.01),#32,'DISTANCE_ACCURACY_VALUE','');
#36=(GEOMETRIC_REPRESENTATION_CONTEXT(3)GLOBAL_UNCERTAINTY_ASSIGNED_CONTEXT((#34))GLOBAL_UNIT_ASSIGNED_CONTEXT((#24,#28,#32))REPRESENTATION_CONTEXT('None','None'));
#37=AXIS2_PLACEMENT_3D('',#38,#39,#40);
#38=CARTESIAN_POINT('',(0.0,0.0,0.0));
#39=DIRECTION('',(0.0,0.0,1.0));
#40=DIRECTION('',(1.0,0.0,0.0));
#41=SHAPE_REPRESENTATION('',(#37),#36);
#42=PRODUCT_DEFINITION_SHAPE('','',#12);
#43=SHAPE_DEFINITION_REPRESENTATION(#42,#41);
#49=(NAMED_UNIT(*)PLANE_ANGLE_UNIT()SI_UNIT($,.RADIAN.));
#50=DIMENSIONAL_EXPONENTS(0.0,0.0,0.0,0.0,0.0,0.0,0.0);
#51=PLANE_ANGLE_MEASURE_WITH_UNIT(PLANE_ANGLE_MEASURE(0.0174532925),#49);
#55=(CONVERSION_BASED_UNIT('DEGREE',#51)NAMED_UNIT(#50)PLANE_ANGLE_UNIT());
#59=(NAMED_UNIT(*)SI_UNIT($,.STERADIAN.)SOLID_ANGLE_UNIT());
#63=(LENGTH_UNIT()NAMED_UNIT(*)SI_UNIT(.MILLI.,.METRE.));
#65=UNCERTAINTY_MEASURE_WITH_UNIT(LENGTH_MEASURE(0.000001),#63,'DISTANCE_ACCURACY_VALUE','');
#67=(GEOMETRIC_REPRESENTATION_CONTEXT(3)GLOBAL_UNCERTAINTY_ASSIGNED_CONTEXT((#65))GLOBAL_UNIT_ASSIGNED_CONTEXT((#55,#59,#63))REPRESENTATION_CONTEXT('','3D'));
#68=CARTESIAN_POINT('',(3.093418567148359,59.166795122565745,19.128156301921322));
#69=CARTESIAN_POINT('',(-3.858909E-013,8.643801247569138,22.233193481238402));
#70=CARTESIAN_POINT('',(22.149999999999878,58.000000000000021,19.128156301921649));
#71=CARTESIAN_POINT('',(22.149999999999924,7.287602495138237,22.233193481238782));
#72=CARTESIAN_POINT('',(22.150000000000212,58.000000000000007,3.340270E-013));
#73=CARTESIAN_POINT('',(22.150000000000311,7.287602495138214,3.874657E-013));
#74=CARTESIAN_POINT('',(22.150000000000539,57.999999999999993,-19.128156301920981));
#75=CARTESIAN_POINT('',(22.150000000000691,7.287602495138191,-22.233193481238008));
#76=CARTESIAN_POINT('',(3.093418567149019,59.166795122565716,-19.128156301921315));
#77=CARTESIAN_POINT('',(3.802288E-013,8.643801247569092,-22.233193481238395));
#78=CARTESIAN_POINT('',(-15.963162865702504,60.33359024513144,-19.128156301921642));
#79=CARTESIAN_POINT('',(-22.149999999999931,9.999999999999993,-22.233193481238775));
#80=CARTESIAN_POINT('',(-15.963162865702836,60.333590245131454,-3.251453E-013));
#81=CARTESIAN_POINT('',(-22.150000000000318,10.000000000000016,-3.785839E-013));
#82=CARTESIAN_POINT('',(-15.963162865703165,60.333590245131468,19.128156301920988));
#83=CARTESIAN_POINT('',(-22.150000000000698,10.000000000000039,22.233193481238015));
#84=CARTESIAN_POINT('',(3.093418567148359,59.166795122565745,19.128156301921322));
#85=CARTESIAN_POINT('',(-3.858909E-013,8.643801247569138,22.233193481238402));
#93=(BOUNDED_SURFACE()B_SPLINE_SURFACE(1,2,((#68,#70,#72,#74,#76,#78,#80,#82,#84),(#69,#71,#73,#75,#77,#79,#81,#83,#85)),.UNSPECIFIED.,.F.,.T.,.U.)B_SPLINE_SURFACE_WITH_KNOTS((2,2),(3,2,2,2,3),(-2.228270824037546,0.061227934646994),(0.0,34.793383131619038,69.586766263238076,104.38014939485711,139.17353252647615),.UNSPECIFIED.)GEOMETRIC_REPRESENTATION_ITEM()RATIONAL_B_SPLINE_SURFACE(((1.0,0.707106781186548,1.0,0.707106781186548,1.0,0.707106781186548,1.0,0.707106781186548,1.0),(1.0,0.707106781186548,1.0,0.707106781186548,1.0,0.707106781186548,1.0,0.707106781186548,1.0)))REPRESENTATION_ITEM('')SURFACE());
#94=CARTESIAN_POINT('',(22.149999999999999,10.0,-2.712593E-015));
#95=VERTEX_POINT('',#94);
#96=CARTESIAN_POINT('',(0.0,10.0,0.0));
#97=DIRECTION('',(0.0,1.0,0.0));
#98=DIRECTION('',(-1.0,0.0,0.0));
#99=AXIS2_PLACEMENT_3D('',#96,#97,#98);
#100=CIRCLE('',#99,22.149999999999999);
#101=EDGE_CURVE('',#95,#95,#100,.T.);
#102=ORIENTED_EDGE('',*,*,#101,.F.);
#103=EDGE_LOOP('',(#102));
#104=FACE_OUTER_BOUND('',#103,.T.);
#105=CARTESIAN_POINT('',(22.149999999999991,58.000000000000014,-2.351322E-015));
#106=VERTEX_POINT('',#105);
#107=CARTESIAN_POINT('',(2.94999999999999,58.000000000000007,0.0));
#108=DIRECTION('',(0.0,1.0,0.0));
#109=DIRECTION('',(-1.0,0.0,0.0));
#110=AXIS2_PLACEMENT_3D('',#107,#108,#109);
#111=CIRCLE('',#110,19.200000000000003);
#112=EDGE_CURVE('',#106,#106,#111,.T.);
#113=ORIENTED_EDGE('',*,*,#112,.T.);
#114=EDGE_LOOP('',(#113));
#115=FACE_BOUND('',#114,.T.);
#116=ADVANCED_FACE('',(#104,#115),#93,.F.);
#117=CARTESIAN_POINT('',(2.949999999999973,90.0,0.0));
#118=DIRECTION('',(5.551115E-016,-1.0,0.0));
#119=DIRECTION('',(-1.0,0.0,0.0));
#120=AXIS2_PLACEMENT_3D('',#117,#118,#119);
#121=CYLINDRICAL_SURFACE('',#120,19.200000000000003);
#122=ORIENTED_EDGE('',*,*,#112,.F.);
#123=EDGE_LOOP('',(#122));
#124=FACE_OUTER_BOUND('',#123,.T.);
#125=CARTESIAN_POINT('',(22.14999999999997,90.000000000000014,2.351322E-015));
#126=VERTEX_POINT('',#125);
#127=CARTESIAN_POINT('',(2.949999999999973,89.999999999999972,0.0));
#128=DIRECTION('',(0.0,-1.0,0.0));
#129=DIRECTION('',(-1.0,0.0,0.0));
#130=AXIS2_PLACEMENT_3D('',#127,#128,#129);
#131=CIRCLE('',#130,19.200000000000003);
#132=EDGE_CURVE('',#126,#126,#131,.T.);
#133=ORIENTED_EDGE('',*,*,#132,.F.);
#134=EDGE_LOOP('',(#133));
#135=FACE_BOUND('',#134,.T.);
#136=ADVANCED_FACE('',(#124,#135),#121,.F.);
#137=CARTESIAN_POINT('',(0.0,5.551115E-015,0.0));
#138=DIRECTION('',(0.0,1.0,0.0));
#139=DIRECTION('',(-1.0,0.0,0.0));
#140=AXIS2_PLACEMENT_3D('',#137,#138,#139);
#141=CYLINDRICAL_SURFACE('',#140,22.149999999999999);
#142=CARTESIAN_POINT('',(22.149999999999999,5.551115E-015,2.712593E-015));
#143=VERTEX_POINT('',#142);
#144=CARTESIAN_POINT('',(0.0,5.551115E-015,0.0));
#145=DIRECTION('',(0.0,1.0,0.0));
#146=DIRECTION('',(-1.0,0.0,0.0));
#147=AXIS2_PLACEMENT_3D('',#144,#145,#146);
#148=CIRCLE('',#147,22.149999999999999);
#149=EDGE_CURVE('',#143,#143,#148,.T.);
#150=ORIENTED_EDGE('',*,*,#149,.F.);
#151=EDGE_LOOP('',(#150));
#152=FACE_OUTER_BOUND('',#151,.T.);
#153=ORIENTED_EDGE('',*,*,#101,.T.);
#154=EDGE_LOOP('',(#153));
#155=FACE_BOUND('',#154,.T.);
#156=ADVANCED_FACE('',(#152,#155),#141,.F.);
#157=CARTESIAN_POINT('',(2.949999999999981,74.999999999999972,0.0));
#158=DIRECTION('',(-5.551115E-016,1.0,0.0));
#159=DIRECTION('',(-1.0,0.0,0.0));
#160=AXIS2_PLACEMENT_3D('',#157,#158,#159);
#161=CYLINDRICAL_SURFACE('',#160,21.199999999999793);
#162=CARTESIAN_POINT('',(-18.249999999999829,89.999999999999929,0.0));
#163=VERTEX_POINT('',#162);
#164=CARTESIAN_POINT('',(2.949999999999973,89.999999999999929,0.0));
#165=DIRECTION('',(0.0,1.0,0.0));
#166=DIRECTION('',(-1.0,0.0,0.0));
#167=AXIS2_PLACEMENT_3D('',#164,#165,#166);
#168=CIRCLE('',#167,21.1999999999998);
#169=EDGE_CURVE('',#163,#163,#168,.T.);
#170=ORIENTED_EDGE('',*,*,#169,.F.);
#171=EDGE_LOOP('',(#170));
#172=FACE_OUTER_BOUND('',#171,.T.);
#173=CARTESIAN_POINT('',(24.150000000000013,60.0,2.957522E-015));
#174=VERTEX_POINT('',#173);
#175=CARTESIAN_POINT('',(2.94999999999999,60.000000000000014,0.0));
#176=DIRECTION('',(0.0,1.0,0.0));
#177=DIRECTION('',(-1.0,0.0,0.0));
#178=AXIS2_PLACEMENT_3D('',#175,#176,#177);
#179=CIRCLE('',#178,21.19999999999979);
#180=EDGE_CURVE('',#174,#174,#179,.T.);
#181=ORIENTED_EDGE('',*,*,#180,.T.);
#182=EDGE_LOOP('',(#181));
#183=FACE_BOUND('',#182,.T.);
#184=ADVANCED_FACE('',(#172,#183),#161,.T.);
#185=CARTESIAN_POINT('',(-7.649999999999928,89.999999999999972,0.0));
#186=DIRECTION('',(0.0,1.0,0.0));
#187=DIRECTION('',(0.0,0.0,1.0));
#188=AXIS2_PLACEMENT_3D('',#185,#186,#187);
#189=PLANE('',#188);
#190=ORIENTED_EDGE('',*,*,#169,.T.);
#191=EDGE_LOOP('',(#190));
#192=FACE_OUTER_BOUND('',#191,.T.);
#193=ORIENTED_EDGE('',*,*,#132,.T.);
#194=EDGE_LOOP('',(#193));
#195=FACE_BOUND('',#194,.T.);
#196=ADVANCED_FACE('',(#192,#195),#189,.T.);
#197=CARTESIAN_POINT('',(2.949999999999998,45.000000000000014,0.0));
#198=DIRECTION('',(5.551115E-016,-1.0,0.0));
#199=DIRECTION('',(-1.0,0.0,0.0));
#200=AXIS2_PLACEMENT_3D('',#197,#198,#199);
#201=CONICAL_SURFACE('',#200,24.149999999999899,11.126174991449751);
#202=ORIENTED_EDGE('',*,*,#180,.F.);
#203=CARTESIAN_POINT('',(-24.149999999999999,30.0,0.0));
#204=VERTEX_POINT('',#203);
#205=CARTESIAN_POINT('',(24.150000000000013,59.999999999998849,3.608225E-015));
#206=CARTESIAN_POINT('',(24.150000000000013,59.999999999998849,-1.32531165317568));
#207=CARTESIAN_POINT('',(24.038966218813801,59.921343798885786,-2.692007798683822));
#208=CARTESIAN_POINT('',(23.577142836026418,59.595312907509459,-5.407137741283064));
#209=CARTESIAN_POINT('',(23.226480812414497,59.348060260326946,-6.755607890295443));
#210=CARTESIAN_POINT('',(22.311131457898728,58.706200316631509,-9.344574367015499));
#211=CARTESIAN_POINT('',(21.745816588084747,58.311231233042832,-10.58735219800214));
#212=CARTESIAN_POINT('',(20.459254276587721,57.418607521312993,-12.899282156625532));
#213=CARTESIAN_POINT('',(19.738088419185502,56.921096798686087,-13.96853524205515));
#214=CARTESIAN_POINT('',(18.003557979162149,55.733447765313159,-16.174314865901337));
#215=CARTESIAN_POINT('',(16.885393160404369,54.973981585033876,-17.340582503758579));
#216=CARTESIAN_POINT('',(14.435260192684618,53.329607861724071,-19.427701023428796));
#217=CARTESIAN_POINT('',(13.103371069567833,52.4448566848816,-20.348767862764966));
#218=CARTESIAN_POINT('',(10.310978981994122,50.613056993385719,-21.896447388940537));
#219=CARTESIAN_POINT('',(8.849025071394669,49.665108955666867,-22.523854032899507));
#220=CARTESIAN_POINT('',(5.894370451582108,47.77260587973467,-23.470953157185225));
#221=CARTESIAN_POINT('',(4.401632165339215,46.828030308581674,-23.79048737264549));
#222=CARTESIAN_POINT('',(1.362892304271525,44.926373222924873,-24.164479932824676));
#223=CARTESIAN_POINT('',(-0.303671257444361,43.895886259103271,-24.207259791826729));
#224=CARTESIAN_POINT('',(-3.675155702863269,41.837554827411772,-23.928578582714238));
#225=CARTESIAN_POINT('',(-5.380071971182713,40.809683200961302,-23.607262289685032));
#226=CARTESIAN_POINT('',(-8.707577125615572,38.826594041013671,-22.592609386830063));
#227=CARTESIAN_POINT('',(-10.332203820824954,37.870089068231096,-21.898594864144773));
#228=CARTESIAN_POINT('',(-13.389878519291223,36.08736281359127,-20.174589106749924));
#229=CARTESIAN_POINT('',(-14.822780399549309,35.261126291381899,-19.144354481313385));
#230=CARTESIAN_POINT('',(-17.268653513278057,33.861377635925635,-16.953598123608998));
#231=CARTESIAN_POINT('',(-18.379805619852757,33.230557706008831,-15.753969278129919));
#232=CARTESIAN_POINT('',(-20.37117262734132,32.106557756370215,-13.077466428152443));
#233=CARTESIAN_POINT('',(-21.251343290133626,31.613286271475523,-11.600597921538069));
#234=CARTESIAN_POINT('',(-22.683464396245967,30.813557092585469,-8.464861793127888));
#235=CARTESIAN_POINT('',(-23.236949973824892,30.506157726587521,-6.802371816868313));
#236=CARTESIAN_POINT('',(-23.970320529229959,30.099339257245713,-3.413479182995035));
#237=CARTESIAN_POINT('',(-24.150000000000013,29.999999999999936,-1.687022471497514));
#238=CARTESIAN_POINT('',(-24.150000000000013,29.999999999999936,8.326673E-015));
#239=B_SPLINE_CURVE_WITH_KNOTS('',3,(#205,#206,#207,#208,#209,#210,#211,#212,#213,#214,#215,#216,#217,#218,#219,#220,#221,#222,#223,#224,#225,#226,#227,#228,#229,#230,#231,#232,#233,#234,#235,#236,#237,#238),.UNSPECIFIED.,.F.,.U.,(4,2,2,2,2,2,2,2,2,2,2,2,2,2,2,2,4),(7.939816379826024,8.337409875778729,8.735003371731434,9.132596867684139,9.530190363636846,10.046714630367529,10.563238897098209,11.07976316382889,11.59628743055957,12.161017021383433,12.725746612207296,13.290476203031158,13.855205793855021,14.361312535304277,14.867419276753534,15.37352601820279,15.879632759652047),.UNSPECIFIED.);
#240=EDGE_CURVE('',#174,#204,#239,.T.);
#241=ORIENTED_EDGE('',*,*,#240,.T.);
#242=CARTESIAN_POINT('',(-24.150000000000013,29.999999999999936,-5.551115E-016));
#243=CARTESIAN_POINT('',(-24.150000000000013,29.999999999999936,1.687022471497522));
#244=CARTESIAN_POINT('',(-23.970320529229959,30.099339257245713,3.413479182995035));
#245=CARTESIAN_POINT('',(-23.236949973824892,30.506157726587521,6.802371816868313));
#246=CARTESIAN_POINT('',(-22.683464396245967,30.813557092585469,8.464861793127888));
#247=CARTESIAN_POINT('',(-21.251343290133626,31.613286271475523,11.600597921538069));
#248=CARTESIAN_POINT('',(-20.37117262734132,32.106557756370215,13.077466428152443));
#249=CARTESIAN_POINT('',(-18.379805619852757,33.230557706008831,15.753969278129919));
#250=CARTESIAN_POINT('',(-17.268653513278057,33.861377635925635,16.953598123609002));
#251=CARTESIAN_POINT('',(-14.822780399549309,35.261126291381892,19.144354481313389));
#252=CARTESIAN_POINT('',(-13.389878519291216,36.087362813591241,20.174589106749924));
#253=CARTESIAN_POINT('',(-10.332203820824951,37.870089068231067,21.898594864144773));
#254=CARTESIAN_POINT('',(-8.70757712561559,38.826594041013692,22.592609386830048));
#255=CARTESIAN_POINT('',(-5.380071971182725,40.809683200961331,23.607262289685028));
#256=CARTESIAN_POINT('',(-3.675155702863276,41.8375548274118,23.928578582714238));
#257=CARTESIAN_POINT('',(-0.303671257444373,43.895886259103285,24.207259791826729));
#258=CARTESIAN_POINT('',(1.362892304271518,44.92637322292488,24.164479932824676));
#259=CARTESIAN_POINT('',(4.401632165339208,46.828030308581674,23.79048737264549));
#260=CARTESIAN_POINT('',(5.894370451582121,47.772605879734655,23.470953157185221));
#261=CARTESIAN_POINT('',(8.849025071394681,49.665108955666852,22.523854032899507));
#262=CARTESIAN_POINT('',(10.310978981994117,50.613056993385719,21.896447388940537));
#263=CARTESIAN_POINT('',(13.103371069567832,52.444856684881614,20.348767862764959));
#264=CARTESIAN_POINT('',(14.435260192684629,53.329607861724064,19.427701023428785));
#265=CARTESIAN_POINT('',(16.885393160404377,54.973981585033862,17.340582503758569));
#266=CARTESIAN_POINT('',(18.00355797916216,55.733447765313151,16.174314865901334));
#267=CARTESIAN_POINT('',(19.738088419185505,56.921096798686079,13.96853524205515));
#268=CARTESIAN_POINT('',(20.459254276587714,57.418607521312993,12.899282156625544));
#269=CARTESIAN_POINT('',(21.74581658808474,58.311231233042832,10.587352198002161));
#270=CARTESIAN_POINT('',(22.311131457898725,58.706200316631481,9.344574367015506));
#271=CARTESIAN_POINT('',(23.226480812414493,59.348060260326918,6.755607890295444));
#272=CARTESIAN_POINT('',(23.577142836026415,59.595312907509459,5.407137741283069));
#273=CARTESIAN_POINT('',(24.038966218813798,59.921343798885786,2.692007798683827));
#274=CARTESIAN_POINT('',(24.150000000000013,59.999999999998849,1.325311653175686));
#275=CARTESIAN_POINT('',(24.150000000000013,59.999999999998849,2.498002E-015));
#276=B_SPLINE_CURVE_WITH_KNOTS('',3,(#242,#243,#244,#245,#246,#247,#248,#249,#250,#251,#252,#253,#254,#255,#256,#257,#258,#259,#260,#261,#262,#263,#264,#265,#266,#267,#268,#269,#270,#271,#272,#273,#274,#275),.UNSPECIFIED.,.F.,.U.,(4,2,2,2,2,2,2,2,2,2,2,2,2,2,2,2,4),(0.0,0.506106741449257,1.012213482898514,1.518320224347771,2.024426965797027,2.58915655662089,3.153886147444752,3.718615738268614,4.283345329092477,4.799869595823157,5.316393862553839,5.83291812928452,6.349442396015201,6.747035891967906,7.144629387920612,7.542222883873318,7.939816379826024),.UNSPECIFIED.);
#277=EDGE_CURVE('',#204,#174,#276,.T.);
#278=ORIENTED_EDGE('',*,*,#277,.T.);
#279=EDGE_LOOP('',(#202,#241,#278));
#280=FACE_OUTER_BOUND('',#279,.T.);
#281=ADVANCED_FACE('',(#280),#201,.T.);
#282=CARTESIAN_POINT('',(0.0,15.000000000000004,0.0));
#283=DIRECTION('',(0.0,-1.0,0.0));
#284=DIRECTION('',(1.0,0.0,0.0));
#285=AXIS2_PLACEMENT_3D('',#282,#283,#284);
#286=CYLINDRICAL_SURFACE('',#285,24.150000000000013);
#287=CARTESIAN_POINT('',(24.150000000000013,8.881784E-015,0.0));
#288=VERTEX_POINT('',#287);
#289=CARTESIAN_POINT('',(0.0,8.881784E-015,0.0));
#290=DIRECTION('',(0.0,-1.0,0.0));
#291=DIRECTION('',(1.0,0.0,0.0));
#292=AXIS2_PLACEMENT_3D('',#289,#290,#291);
#293=CIRCLE('',#292,24.150000000000013);
#294=EDGE_CURVE('',#288,#288,#293,.T.);
#295=ORIENTED_EDGE('',*,*,#294,.F.);
#296=EDGE_LOOP('',(#295));
#297=FACE_OUTER_BOUND('',#296,.T.);
#298=ORIENTED_EDGE('',*,*,#240,.F.);
#299=ORIENTED_EDGE('',*,*,#277,.F.);
#300=EDGE_LOOP('',(#298,#299));
#301=FACE_BOUND('',#300,.T.);
#302=ADVANCED_FACE('',(#297,#301),#286,.T.);
#303=CARTESIAN_POINT('',(12.075000000000006,5.551115E-015,0.0));
#304=DIRECTION('',(0.0,-1.0,0.0));
#305=DIRECTION('',(0.0,0.0,-1.0));
#306=AXIS2_PLACEMENT_3D('',#303,#304,#305);
#307=PLANE('',#306);
#308=ORIENTED_EDGE('',*,*,#294,.T.);
#309=EDGE_LOOP('',(#308));
#310=FACE_OUTER_BOUND('',#309,.T.);
#311=ORIENTED_EDGE('',*,*,#149,.T.);
#312=EDGE_LOOP('',(#311));
#313=FACE_BOUND('',#312,.T.);
#314=ADVANCED_FACE('',(#310,#313),#307,.T.);
#315=CLOSED_SHELL('',(#116,#136,#156,#184,#196,#281,#302,#314));
#316=MANIFOLD_SOLID_BREP('Volumenk\S\vrper2',#315);
#317=COLOUR_RGB('Metall - Stahl',0.639216005802155,0.639216005802155,0.686275005340576);
#318=FILL_AREA_STYLE_COLOUR('Metall - Stahl',#317);
#319=FILL_AREA_STYLE('Metall - Stahl',(#318));
#320=SURFACE_STYLE_FILL_AREA(#319);
#321=SURFACE_SIDE_STYLE('Metall - Stahl',(#320));
#322=SURFACE_STYLE_USAGE(.BOTH.,#321);
#323=PRESENTATION_STYLE_ASSIGNMENT((#322));
#324=STYLED_ITEM('',(#323),#316);
#325=MECHANICAL_DESIGN_GEOMETRIC_PRESENTATION_REPRESENTATION('',(#324),#36);
#326=ADVANCED_BREP_SHAPE_REPRESENTATION('ABSR',(#316),#36);
#327=SHAPE_REPRESENTATION_RELATIONSHIP('SRR','None',#326,#41);
ENDSEC;
END-ISO-10303-21;
