ISO-10303-21;
HEADER;
FILE_DESCRIPTION (( 'STEP AP203' ),
    '1' );
FILE_NAME ('3D_GR1382_DN21.3x2_18380300.STEP',
    '2024-09-23T06:00:06',
    ( '' ),
    ( '' ),
    'SwSTEP 2.0',
    'SolidWorks 2024',
    '' );
FILE_SCHEMA (( 'CONFIG_CONTROL_DESIGN' ));
ENDSEC;

DATA;
#1 = DIRECTION ( 'NONE',  ( -1.000000000000000000, -0.000000000000000000, -0.000000000000000000 ) ) ;
#2 = ORIENTED_EDGE ( 'NONE', *, *, #300, .F. ) ;
#3 = SECURITY_CLASSIFICATION ( '', '', #296 ) ;
#4 = DIRECTION ( 'NONE',  ( -1.000000000000000000, -0.000000000000000000, -0.000000000000000000 ) ) ;
#5 = AXIS2_PLACEMENT_3D ( 'NONE', #286, #119, #92 ) ;
#6 = CYLINDRICAL_SURFACE ( 'NONE', #350, 8.650000000000018119 ) ;
#7 = CARTESIAN_POINT ( 'NONE',  ( 6.999999999999451106, 0.000000000000000000, 0.000000000000000000 ) ) ;
#8 = ORIENTED_EDGE ( 'NONE', *, *, #329, .F. ) ;
#9 = CARTESIAN_POINT ( 'NONE',  ( 5.999999999999450218, 0.000000000000000000, 8.650000000000018119 ) ) ;
#10 = ORIENTED_EDGE ( 'NONE', *, *, #244, .F. ) ;
#11 = CC_DESIGN_PERSON_AND_ORGANIZATION_ASSIGNMENT ( #131, #21, ( #314 ) ) ;
#12 = CARTESIAN_POINT ( 'NONE',  ( -154.8395502972293230, 1.059319481262462936E-15, -8.650000000000018119 ) ) ;
#13 = ORIENTED_EDGE ( 'NONE', *, *, #82, .T. ) ;
#14 = CARTESIAN_POINT ( 'NONE',  ( 6.999999999999451106, 0.000000000000000000, 7.650000000000020783 ) ) ;
#15 = ORIENTED_EDGE ( 'NONE', *, *, #47, .F. ) ;
#16 = PLANE ( 'NONE',  #218 ) ;
#17 = CIRCLE ( 'NONE', #209, 10.15000000000001812 ) ;
#18 = MECHANICAL_CONTEXT ( 'NONE', #263, 'mechanical' ) ;
#19 = DIRECTION ( 'NONE',  ( -0.7071067811865483499, 0.000000000000000000, 0.7071067811865466846 ) ) ;
#20 = APPROVAL_PERSON_ORGANIZATION ( #297, #284, #161 ) ;
#21 = PERSON_AND_ORGANIZATION_ROLE ( 'creator' ) ;
#22 = CC_DESIGN_PERSON_AND_ORGANIZATION_ASSIGNMENT ( #103, #50, ( #3 ) ) ;
#23 = DATE_TIME_ROLE ( 'creation_date' ) ;
#24 = PLANE ( 'NONE',  #280 ) ;
#25 = VERTEX_POINT ( 'NONE', #116 ) ;
#26 = EDGE_CURVE ( 'NONE', #340, #117, #311, .T. ) ;
#27 = ORGANIZATION ( 'UNSPECIFIED', 'UNSPECIFIED', '' ) ;
#28 = CARTESIAN_POINT ( 'NONE',  ( 6.999999999999451106, 9.980871413050953623E-16, -7.650000000000020783 ) ) ;
#29 = DIRECTION ( 'NONE',  ( -1.000000000000000000, -0.000000000000000000, -0.000000000000000000 ) ) ;
#30 = DIRECTION ( 'NONE',  ( 0.000000000000000000, 0.000000000000000000, 1.000000000000000000 ) ) ;
#31 = PRODUCT ( '3D_GR1382_DN21.3x2_18380300', '3D_GR1382_DN21.3x2_18380300', '', ( #18 ) ) ;
#32 = DIRECTION ( 'NONE',  ( 0.000000000000000000, 0.000000000000000000, 1.000000000000000000 ) ) ;
#33 = VERTEX_POINT ( 'NONE', #111 ) ;
#34 = FACE_OUTER_BOUND ( 'NONE', #174, .T. ) ;
#35 = AXIS2_PLACEMENT_3D ( 'NONE', #227, #226, #113 ) ;
#36 = EDGE_LOOP ( 'NONE', ( #178, #65, #142, #305 ) ) ;
#37 = ADVANCED_FACE ( 'NONE', ( #87 ), #344, .T. ) ;
#38 = CARTESIAN_POINT ( 'NONE',  ( -1.102182119232603120E-15, 8.650000000000018119, 0.000000000000000000 ) ) ;
#39 = ORIENTED_EDGE ( 'NONE', *, *, #104, .T. ) ;
#40 = LINE ( 'NONE', #14, #189 ) ;
#41 = ORIENTED_EDGE ( 'NONE', *, *, #82, .F. ) ;
#42 = CARTESIAN_POINT ( 'NONE',  ( 0.000000000000000000, 1.059319481262462936E-15, -8.650000000000018119 ) ) ;
#43 = DIRECTION ( 'NONE',  ( -1.000000000000000000, -0.000000000000000000, -0.000000000000000000 ) ) ;
#44 = ADVANCED_FACE ( 'NONE', ( #163 ), #336, .F. ) ;
#45 =( GEOMETRIC_REPRESENTATION_CONTEXT ( 3 ) GLOBAL_UNCERTAINTY_ASSIGNED_CONTEXT ( ( #72 ) ) GLOBAL_UNIT_ASSIGNED_CONTEXT ( ( #185, #212, #273 ) ) REPRESENTATION_CONTEXT ( 'NONE', 'WORKASPACE' ) );
#46 = CIRCLE ( 'NONE', #144, 10.65000000000001812 ) ;
#47 = EDGE_CURVE ( 'NONE', #112, #278, #357, .T. ) ;
#48 = CALENDAR_DATE ( 2024, 23, 9 ) ;
#49 = LOCAL_TIME ( 8, 0, 6.000000000000000000, #108 ) ;
#50 = PERSON_AND_ORGANIZATION_ROLE ( 'classification_officer' ) ;
#51 = CIRCLE ( 'NONE', #100, 7.650000000000020783 ) ;
#52 = APPROVAL_STATUS ( 'not_yet_approved' ) ;
#53 = APPLICATION_CONTEXT ( 'configuration controlled 3d designs of mechanical parts and assemblies' ) ;
#54 = EDGE_CURVE ( 'NONE', #117, #25, #88, .T. ) ;
#55 = DIRECTION ( 'NONE',  ( 0.000000000000000000, -1.000000000000000000, 0.000000000000000000 ) ) ;
#56 = VECTOR ( 'NONE', #73, 1000.000000000000000 ) ;
#57 = LINE ( 'NONE', #347, #260 ) ;
#58 = CARTESIAN_POINT ( 'NONE',  ( 6.999999999999723777, 0.000000000000000000, 0.000000000000000000 ) ) ;
#59 = EDGE_LOOP ( 'NONE', ( #310, #90 ) ) ;
#60 = ORIENTED_EDGE ( 'NONE', *, *, #162, .T. ) ;
#61 = CIRCLE ( 'NONE', #69, 10.65000000000001812 ) ;
#62 = DIRECTION ( 'NONE',  ( 0.000000000000000000, 0.000000000000000000, 1.000000000000000000 ) ) ;
#63 = ORIENTED_EDGE ( 'NONE', *, *, #186, .F. ) ;
#64 = DIRECTION ( 'NONE',  ( -1.000000000000000000, -0.000000000000000000, -0.000000000000000000 ) ) ;
#65 = ORIENTED_EDGE ( 'NONE', *, *, #168, .T. ) ;
#66 = DIRECTION ( 'NONE',  ( -1.000000000000000000, -0.000000000000000000, -0.000000000000000000 ) ) ;
#67 = APPROVAL_PERSON_ORGANIZATION ( #79, #335, #130 ) ;
#68 = EDGE_LOOP ( 'NONE', ( #257, #281, #41, #96 ) ) ;
#69 = AXIS2_PLACEMENT_3D ( 'NONE', #318, #43, #293 ) ;
#70 = DIRECTION ( 'NONE',  ( -1.000000000000000000, -0.000000000000000000, -0.000000000000000000 ) ) ;
#71 = ORIENTED_EDGE ( 'NONE', *, *, #219, .T. ) ;
#72 = UNCERTAINTY_MEASURE_WITH_UNIT (LENGTH_MEASURE( 1.000000000000000082E-05 ), #185, 'distance_accuracy_value', 'NONE');
#73 = DIRECTION ( 'NONE',  ( -0.7071067811865483499, 8.659560562354922997E-17, -0.7071067811865466846 ) ) ;
#74 = DATE_AND_TIME ( #217, #49 ) ;
#75 = DIRECTION ( 'NONE',  ( 1.000000000000000000, 0.000000000000000000, 0.000000000000000000 ) ) ;
#76 = CIRCLE ( 'NONE', #253, 0.5000000000000004441 ) ;
#77 = CC_DESIGN_DATE_AND_TIME_ASSIGNMENT ( #181, #23, ( #202 ) ) ;
#78 = PERSON_AND_ORGANIZATION ( #242, #27 ) ;
#79 = PERSON_AND_ORGANIZATION ( #242, #27 ) ;
#80 = DATE_AND_TIME ( #294, #331 ) ;
#81 = AXIS2_PLACEMENT_3D ( 'NONE', #128, #341, #239 ) ;
#82 = EDGE_CURVE ( 'NONE', #208, #25, #46, .T. ) ;
#83 = CLOSED_SHELL ( 'NONE', ( #276, #291, #143, #107, #118, #37, #93, #193, #342, #307, #44 ) ) ;
#84 = CARTESIAN_POINT ( 'NONE',  ( -154.8395502972293230, 0.000000000000000000, 10.65000000000001812 ) ) ;
#85 = CC_DESIGN_SECURITY_CLASSIFICATION ( #3, ( #314 ) ) ;
#86 = LINE ( 'NONE', #84, #213 ) ;
#87 = FACE_OUTER_BOUND ( 'NONE', #228, .T. ) ;
#88 = LINE ( 'NONE', #165, #221 ) ;
#89 = DIRECTION ( 'NONE',  ( -1.000000000000000000, -0.000000000000000000, -0.000000000000000000 ) ) ;
#90 = ORIENTED_EDGE ( 'NONE', *, *, #240, .T. ) ;
#91 = AXIS2_PLACEMENT_3D ( 'NONE', #247, #220, #328 ) ;
#92 = DIRECTION ( 'NONE',  ( 0.000000000000000000, 0.000000000000000000, 1.000000000000000000 ) ) ;
#93 = ADVANCED_FACE ( 'NONE', ( #110 ), #6, .T. ) ;
#94 = VERTEX_POINT ( 'NONE', #304 ) ;
#95 = CARTESIAN_POINT ( 'NONE',  ( -154.8395502972293230, 0.000000000000000000, 0.000000000000000000 ) ) ;
#96 = ORIENTED_EDGE ( 'NONE', *, *, #175, .F. ) ;
#97 = LINE ( 'NONE', #12, #301 ) ;
#98 = EDGE_LOOP ( 'NONE', ( #8, #15 ) ) ;
#99 = CC_DESIGN_PERSON_AND_ORGANIZATION_ASSIGNMENT ( #295, #320, ( #31 ) ) ;
#100 = AXIS2_PLACEMENT_3D ( 'NONE', #345, #64, #173 ) ;
#101 = CARTESIAN_POINT ( 'NONE',  ( -2.500000000000557332, 0.000000000000000000, 10.65000000000001812 ) ) ;
#102 = DIRECTION ( 'NONE',  ( 0.000000000000000000, -1.224646799147353454E-16, 1.000000000000000000 ) ) ;
#103 = PERSON_AND_ORGANIZATION ( #242, #27 ) ;
#104 = EDGE_CURVE ( 'NONE', #25, #208, #137, .T. ) ;
#105 = APPROVAL_STATUS ( 'not_yet_approved' ) ;
#106 = AXIS2_PLACEMENT_3D ( 'NONE', #315, #233, #349 ) ;
#107 = ADVANCED_FACE ( 'NONE', ( #303 ), #339, .T. ) ;
#108 = COORDINATED_UNIVERSAL_TIME_OFFSET ( 1, 0, .AHEAD. ) ;
#109 = AXIS2_PLACEMENT_3D ( 'NONE', #95, #204, #312 ) ;
#110 = FACE_OUTER_BOUND ( 'NONE', #36, .T. ) ;
#111 = CARTESIAN_POINT ( 'NONE',  ( -3.000000000000557776, 1.273632671113249840E-15, -10.15000000000001812 ) ) ;
#112 = VERTEX_POINT ( 'NONE', #28 ) ;
#113 = DIRECTION ( 'NONE',  ( 0.000000000000000000, 0.000000000000000000, 1.000000000000000000 ) ) ;
#114 = CIRCLE ( 'NONE', #348, 0.5000000000000004441 ) ;
#115 = DIRECTION ( 'NONE',  ( 0.000000000000000000, 0.000000000000000000, 1.000000000000000000 ) ) ;
#116 = CARTESIAN_POINT ( 'NONE',  ( -2.500000000000557332, 1.304248841091933430E-15, -10.65000000000001812 ) ) ;
#117 = VERTEX_POINT ( 'NONE', #274 ) ;
#118 = ADVANCED_FACE ( 'NONE', ( #302 ), #24, .F. ) ;
#119 = DIRECTION ( 'NONE',  ( -1.000000000000000000, -0.000000000000000000, -0.000000000000000000 ) ) ;
#120 = ORIENTED_EDGE ( 'NONE', *, *, #351, .F. ) ;
#121 = FACE_OUTER_BOUND ( 'NONE', #262, .T. ) ;
#122 = EDGE_LOOP ( 'NONE', ( #60, #71, #2, #63 ) ) ;
#123 = CARTESIAN_POINT ( 'NONE',  ( 0.000000000000000000, 0.000000000000000000, 10.65000000000001812 ) ) ;
#124 = EDGE_LOOP ( 'NONE', ( #343, #151, #308, #120 ) ) ;
#125 = FACE_OUTER_BOUND ( 'NONE', #313, .T. ) ;
#126 = MANIFOLD_SOLID_BREP ( 'Rotation1', #83 ) ;
#127 = AXIS2_PLACEMENT_3D ( 'NONE', #246, #1, #356 ) ;
#128 = CARTESIAN_POINT ( 'NONE',  ( -154.8395502972293230, 0.000000000000000000, 0.000000000000000000 ) ) ;
#129 = APPROVAL_STATUS ( 'not_yet_approved' ) ;
#130 = APPROVAL_ROLE ( '' ) ;
#131 = PERSON_AND_ORGANIZATION ( #242, #27 ) ;
#132 = CALENDAR_DATE ( 2024, 23, 9 ) ;
#133 = CYLINDRICAL_SURFACE ( 'NONE', #238, 8.650000000000018119 ) ;
#134 = ORIENTED_EDGE ( 'NONE', *, *, #175, .T. ) ;
#135 = APPROVAL ( #105, 'UNSPECIFIED' ) ;
#136 = DIRECTION ( 'NONE',  ( 0.000000000000000000, 0.000000000000000000, 1.000000000000000000 ) ) ;
#137 = CIRCLE ( 'NONE', #190, 10.65000000000001812 ) ;
#138 = DIRECTION ( 'NONE',  ( -0.000000000000000000, 0.000000000000000000, 1.000000000000000000 ) ) ;
#139 = DIRECTION ( 'NONE',  ( -1.000000000000000000, 0.000000000000000000, -0.000000000000000000 ) ) ;
#140 = AXIS2_PLACEMENT_3D ( 'NONE', #152, #66, #210 ) ;
#141 = DIRECTION ( 'NONE',  ( 0.000000000000000000, 0.000000000000000000, 1.000000000000000000 ) ) ;
#142 = ORIENTED_EDGE ( 'NONE', *, *, #186, .T. ) ;
#143 = ADVANCED_FACE ( 'NONE', ( #252 ), #133, .T. ) ;
#144 = AXIS2_PLACEMENT_3D ( 'NONE', #198, #222, #32 ) ;
#145 = CARTESIAN_POINT ( 'NONE',  ( 5.999999999999450218, 1.059319481262462936E-15, -8.650000000000018119 ) ) ;
#146 = ORIENTED_EDGE ( 'NONE', *, *, #229, .F. ) ;
#147 = LOCAL_TIME ( 8, 0, 6.000000000000000000, #323 ) ;
#148 = CARTESIAN_POINT ( 'NONE',  ( -3.000000000000557776, 0.000000000000000000, 10.15000000000001812 ) ) ;
#149 = ORIENTED_EDGE ( 'NONE', *, *, #196, .T. ) ;
#150 = CYLINDRICAL_SURFACE ( 'NONE', #109, 10.65000000000001812 ) ;
#151 = ORIENTED_EDGE ( 'NONE', *, *, #229, .T. ) ;
#152 = CARTESIAN_POINT ( 'NONE',  ( 0.000000000000000000, 0.000000000000000000, 0.000000000000000000 ) ) ;
#153 = DIRECTION ( 'NONE',  ( -1.000000000000000000, -0.000000000000000000, -0.000000000000000000 ) ) ;
#154 = CIRCLE ( 'NONE', #91, 8.650000000000018119 ) ;
#155 = CARTESIAN_POINT ( 'NONE',  ( 0.000000000000000000, 0.000000000000000000, 0.000000000000000000 ) ) ;
#156 = APPROVAL_ROLE ( '' ) ;
#157 = DIRECTION ( 'NONE',  ( 0.000000000000000000, 0.000000000000000000, 1.000000000000000000 ) ) ;
#158 = LOCAL_TIME ( 8, 0, 6.000000000000000000, #268 ) ;
#159 = CALENDAR_DATE ( 2024, 23, 9 ) ;
#160 = CC_DESIGN_PERSON_AND_ORGANIZATION_ASSIGNMENT ( #78, #269, ( #202 ) ) ;
#161 = APPROVAL_ROLE ( '' ) ;
#162 = EDGE_CURVE ( 'NONE', #234, #255, #267, .T. ) ;
#163 = FACE_OUTER_BOUND ( 'NONE', #259, .T. ) ;
#164 = CIRCLE ( 'NONE', #106, 10.15000000000001812 ) ;
#165 = CARTESIAN_POINT ( 'NONE',  ( -154.8395502972293230, 1.304248841091933430E-15, -10.65000000000001812 ) ) ;
#166 = ORIENTED_EDGE ( 'NONE', *, *, #351, .T. ) ;
#167 = DIRECTION ( 'NONE',  ( 0.000000000000000000, 0.000000000000000000, 1.000000000000000000 ) ) ;
#168 = EDGE_CURVE ( 'NONE', #255, #234, #154, .T. ) ;
#169 = ORIENTED_EDGE ( 'NONE', *, *, #321, .T. ) ;
#170 = CIRCLE ( 'NONE', #355, 8.650000000000018119 ) ;
#171 = CYLINDRICAL_SURFACE ( 'NONE', #81, 10.65000000000001812 ) ;
#172 = ORIENTED_EDGE ( 'NONE', *, *, #168, .F. ) ;
#173 = DIRECTION ( 'NONE',  ( 0.000000000000000000, 0.000000000000000000, 1.000000000000000000 ) ) ;
#174 = EDGE_LOOP ( 'NONE', ( #223, #39, #203, #10 ) ) ;
#175 = EDGE_CURVE ( 'NONE', #340, #208, #86, .T. ) ;
#176 = CC_DESIGN_APPROVAL ( #135, ( #202 ) ) ;
#177 = DIRECTION ( 'NONE',  ( -0.000000000000000000, 1.000000000000000000, 1.224646799147353207E-16 ) ) ;
#178 = ORIENTED_EDGE ( 'NONE', *, *, #219, .F. ) ;
#179 = ADVANCED_BREP_SHAPE_REPRESENTATION ( '3D_GR1382_DN21.3x2_18380300', ( #126, #183 ), #45 ) ;
#180 = LINE ( 'NONE', #207, #56 ) ;
#181 = DATE_AND_TIME ( #132, #147 ) ;
#182 = EDGE_CURVE ( 'NONE', #208, #330, #76, .T. ) ;
#183 = AXIS2_PLACEMENT_3D ( 'NONE', #155, #157, #75 ) ;
#184 = APPLICATION_PROTOCOL_DEFINITION ( 'international standard', 'config_control_design', 1994, #53 ) ;
#185 =( LENGTH_UNIT ( ) NAMED_UNIT ( * ) SI_UNIT ( .MILLI., .METRE. ) );
#186 = EDGE_CURVE ( 'NONE', #234, #94, #57, .T. ) ;
#187 = PERSON_AND_ORGANIZATION ( #242, #27 ) ;
#188 = PERSON_AND_ORGANIZATION_ROLE ( 'design_supplier' ) ;
#189 = VECTOR ( 'NONE', #19, 1000.000000000000000 ) ;
#190 = AXIS2_PLACEMENT_3D ( 'NONE', #279, #306, #141 ) ;
#191 = DIRECTION ( 'NONE',  ( -1.000000000000000000, -0.000000000000000000, -0.000000000000000000 ) ) ;
#192 = LOCAL_TIME ( 8, 0, 6.000000000000000000, #243 ) ;
#193 = ADVANCED_FACE ( 'NONE', ( #125, #289 ), #16, .F. ) ;
#194 = DIRECTION ( 'NONE',  ( 0.000000000000000000, 0.000000000000000000, -1.000000000000000000 ) ) ;
#195 = DIRECTION ( 'NONE',  ( -1.000000000000000000, -0.000000000000000000, -0.000000000000000000 ) ) ;
#196 = EDGE_CURVE ( 'NONE', #117, #340, #61, .T. ) ;
#197 = DIRECTION ( 'NONE',  ( -1.000000000000000000, -0.000000000000000000, -0.000000000000000000 ) ) ;
#198 = CARTESIAN_POINT ( 'NONE',  ( -2.500000000000557332, 0.000000000000000000, 0.000000000000000000 ) ) ;
#199 = VERTEX_POINT ( 'NONE', #42 ) ;
#200 = PRODUCT_DEFINITION_SHAPE ( 'NONE', 'NONE',  #202 ) ;
#201 = CARTESIAN_POINT ( 'NONE',  ( -3.000000000000557776, 0.000000000000000000, 0.000000000000000000 ) ) ;
#202 = PRODUCT_DEFINITION ( 'UNKNOWN', '', #314, #216 ) ;
#203 = ORIENTED_EDGE ( 'NONE', *, *, #182, .T. ) ;
#204 = DIRECTION ( 'NONE',  ( -1.000000000000000000, -0.000000000000000000, -0.000000000000000000 ) ) ;
#205 = ORIENTED_EDGE ( 'NONE', *, *, #298, .T. ) ;
#206 = CC_DESIGN_APPROVAL ( #335, ( #314 ) ) ;
#207 = CARTESIAN_POINT ( 'NONE',  ( 6.999999999999451106, 9.368548013477277882E-16, -7.650000000000020783 ) ) ;
#208 = VERTEX_POINT ( 'NONE', #101 ) ;
#209 = AXIS2_PLACEMENT_3D ( 'NONE', #201, #256, #235 ) ;
#210 = DIRECTION ( 'NONE',  ( 0.000000000000000000, 0.000000000000000000, 1.000000000000000000 ) ) ;
#211 = CARTESIAN_POINT ( 'NONE',  ( 0.000000000000000000, 0.000000000000000000, 0.000000000000000000 ) ) ;
#212 =( NAMED_UNIT ( * ) PLANE_ANGLE_UNIT ( ) SI_UNIT ( $, .RADIAN. ) );
#213 = VECTOR ( 'NONE', #191, 1000.000000000000000 ) ;
#214 = CC_DESIGN_DATE_AND_TIME_ASSIGNMENT ( #354, #272, ( #3 ) ) ;
#215 = APPLICATION_PROTOCOL_DEFINITION ( 'international standard', 'config_control_design', 1994, #263 ) ;
#216 = DESIGN_CONTEXT ( 'detailed design', #53, 'design' ) ;
#217 = CALENDAR_DATE ( 2024, 23, 9 ) ;
#218 = AXIS2_PLACEMENT_3D ( 'NONE', #38, #261, #258 ) ;
#219 = EDGE_CURVE ( 'NONE', #255, #199, #97, .T. ) ;
#220 = DIRECTION ( 'NONE',  ( -1.000000000000000000, -0.000000000000000000, -0.000000000000000000 ) ) ;
#221 = VECTOR ( 'NONE', #197, 1000.000000000000000 ) ;
#222 = DIRECTION ( 'NONE',  ( -1.000000000000000000, -0.000000000000000000, -0.000000000000000000 ) ) ;
#223 = ORIENTED_EDGE ( 'NONE', *, *, #298, .F. ) ;
#224 = APPROVAL_DATE_TIME ( #74, #284 ) ;
#225 = CARTESIAN_POINT ( 'NONE',  ( 6.999999999999451106, 0.000000000000000000, 0.000000000000000000 ) ) ;
#226 = DIRECTION ( 'NONE',  ( -1.000000000000000000, -0.000000000000000000, -0.000000000000000000 ) ) ;
#227 = CARTESIAN_POINT ( 'NONE',  ( 0.000000000000000000, 0.000000000000000000, 0.000000000000000000 ) ) ;
#228 = EDGE_LOOP ( 'NONE', ( #146, #290, #166, #172 ) ) ;
#229 = EDGE_CURVE ( 'NONE', #112, #255, #180, .T. ) ;
#230 = FACE_OUTER_BOUND ( 'NONE', #68, .T. ) ;
#231 = ORIENTED_EDGE ( 'NONE', *, *, #196, .F. ) ;
#232 = APPROVAL_PERSON_ORGANIZATION ( #325, #135, #156 ) ;
#233 = DIRECTION ( 'NONE',  ( -1.000000000000000000, -0.000000000000000000, -0.000000000000000000 ) ) ;
#234 = VERTEX_POINT ( 'NONE', #9 ) ;
#235 = DIRECTION ( 'NONE',  ( 0.000000000000000000, 0.000000000000000000, 1.000000000000000000 ) ) ;
#236 = ORIENTED_EDGE ( 'NONE', *, *, #321, .F. ) ;
#237 = FACE_OUTER_BOUND ( 'NONE', #249, .T. ) ;
#238 = AXIS2_PLACEMENT_3D ( 'NONE', #250, #332, #115 ) ;
#239 = DIRECTION ( 'NONE',  ( 0.000000000000000000, 0.000000000000000000, 1.000000000000000000 ) ) ;
#240 = EDGE_CURVE ( 'NONE', #199, #94, #271, .T. ) ;
#241 = APPROVAL_DATE_TIME ( #80, #335 ) ;
#242 = PERSON ( 'UNSPECIFIED', 'UNSPECIFIED', 'UNSPECIFIED', ('UNSPECIFIED'), ('UNSPECIFIED'), ('UNSPECIFIED') ) ;
#243 = COORDINATED_UNIVERSAL_TIME_OFFSET ( 1, 0, .AHEAD. ) ;
#244 = EDGE_CURVE ( 'NONE', #33, #330, #164, .T. ) ;
#245 = TOROIDAL_SURFACE ( 'NONE', #326, 10.15000000000001812, 0.5000000000000000000 ) ;
#246 = CARTESIAN_POINT ( 'NONE',  ( 5.999999999999450218, 0.000000000000000000, 0.000000000000000000 ) ) ;
#247 = CARTESIAN_POINT ( 'NONE',  ( 5.999999999999450218, 0.000000000000000000, 0.000000000000000000 ) ) ;
#248 = AXIS2_PLACEMENT_3D ( 'NONE', #225, #195, #30 ) ;
#249 = EDGE_LOOP ( 'NONE', ( #13, #205, #236, #346 ) ) ;
#250 = CARTESIAN_POINT ( 'NONE',  ( -154.8395502972293230, 0.000000000000000000, 0.000000000000000000 ) ) ;
#251 = SHAPE_DEFINITION_REPRESENTATION ( #200, #179 ) ;
#252 = FACE_OUTER_BOUND ( 'NONE', #122, .T. ) ;
#253 = AXIS2_PLACEMENT_3D ( 'NONE', #299, #55, #194 ) ;
#254 = CARTESIAN_POINT ( 'NONE',  ( 6.999999999999451106, 0.000000000000000000, 0.000000000000000000 ) ) ;
#255 = VERTEX_POINT ( 'NONE', #145 ) ;
#256 = DIRECTION ( 'NONE',  ( -1.000000000000000000, -0.000000000000000000, -0.000000000000000000 ) ) ;
#257 = ORIENTED_EDGE ( 'NONE', *, *, #26, .T. ) ;
#258 = DIRECTION ( 'NONE',  ( -0.000000000000000000, 0.000000000000000000, 1.000000000000000000 ) ) ;
#259 = EDGE_LOOP ( 'NONE', ( #169, #287 ) ) ;
#260 = VECTOR ( 'NONE', #70, 1000.000000000000000 ) ;
#261 = DIRECTION ( 'NONE',  ( -1.000000000000000000, 0.000000000000000000, -0.000000000000000000 ) ) ;
#262 = EDGE_LOOP ( 'NONE', ( #337, #149, #134, #283 ) ) ;
#263 = APPLICATION_CONTEXT ( 'configuration controlled 3d designs of mechanical parts and assemblies' ) ;
#264 = CARTESIAN_POINT ( 'NONE',  ( -2.500000000000552891, 1.243016501134565856E-15, -10.15000000000001812 ) ) ;
#265 = PRODUCT_RELATED_PRODUCT_CATEGORY ( 'detail', '', ( #31 ) ) ;
#266 = CARTESIAN_POINT ( 'NONE',  ( 6.999999999999451106, 0.000000000000000000, 7.650000000000020783 ) ) ;
#267 = CIRCLE ( 'NONE', #127, 8.650000000000018119 ) ;
#268 = COORDINATED_UNIVERSAL_TIME_OFFSET ( 1, 0, .AHEAD. ) ;
#269 = PERSON_AND_ORGANIZATION_ROLE ( 'creator' ) ;
#270 = COORDINATED_UNIVERSAL_TIME_OFFSET ( 1, 0, .AHEAD. ) ;
#271 = CIRCLE ( 'NONE', #140, 8.650000000000018119 ) ;
#272 = DATE_TIME_ROLE ( 'classification_date' ) ;
#273 =( NAMED_UNIT ( * ) SI_UNIT ( $, .STERADIAN. ) SOLID_ANGLE_UNIT ( ) );
#274 = CARTESIAN_POINT ( 'NONE',  ( 0.000000000000000000, 1.304248841091933430E-15, -10.65000000000001812 ) ) ;
#275 = DIRECTION ( 'NONE',  ( 0.000000000000000000, 0.000000000000000000, -1.000000000000000000 ) ) ;
#276 = ADVANCED_FACE ( 'NONE', ( #237 ), #245, .T. ) ;
#277 = CARTESIAN_POINT ( 'NONE',  ( -154.8395502972293230, 0.000000000000000000, 0.000000000000000000 ) ) ;
#278 = VERTEX_POINT ( 'NONE', #266 ) ;
#279 = CARTESIAN_POINT ( 'NONE',  ( -2.500000000000557332, 0.000000000000000000, 0.000000000000000000 ) ) ;
#280 = AXIS2_PLACEMENT_3D ( 'NONE', #58, #139, #138 ) ;
#281 = ORIENTED_EDGE ( 'NONE', *, *, #54, .T. ) ;
#282 = DIRECTION ( 'NONE',  ( -1.000000000000000000, -0.000000000000000000, -0.000000000000000000 ) ) ;
#283 = ORIENTED_EDGE ( 'NONE', *, *, #104, .F. ) ;
#284 = APPROVAL ( #52, 'UNSPECIFIED' ) ;
#285 = AXIS2_PLACEMENT_3D ( 'NONE', #333, #334, #275 ) ;
#286 = CARTESIAN_POINT ( 'NONE',  ( -2.500000000000552891, 0.000000000000000000, 0.000000000000000000 ) ) ;
#287 = ORIENTED_EDGE ( 'NONE', *, *, #244, .T. ) ;
#288 = CC_DESIGN_APPROVAL ( #284, ( #3 ) ) ;
#289 = FACE_BOUND ( 'NONE', #59, .T. ) ;
#290 = ORIENTED_EDGE ( 'NONE', *, *, #47, .T. ) ;
#291 = ADVANCED_FACE ( 'NONE', ( #230 ), #171, .T. ) ;
#292 = CARTESIAN_POINT ( 'NONE',  ( -2.500000000000552891, 0.000000000000000000, 0.000000000000000000 ) ) ;
#293 = DIRECTION ( 'NONE',  ( 0.000000000000000000, 0.000000000000000000, 1.000000000000000000 ) ) ;
#294 = CALENDAR_DATE ( 2024, 23, 9 ) ;
#295 = PERSON_AND_ORGANIZATION ( #242, #27 ) ;
#296 = SECURITY_CLASSIFICATION_LEVEL ( 'unclassified' ) ;
#297 = PERSON_AND_ORGANIZATION ( #242, #27 ) ;
#298 = EDGE_CURVE ( 'NONE', #25, #33, #114, .T. ) ;
#299 = CARTESIAN_POINT ( 'NONE',  ( -2.500000000000552891, 0.000000000000000000, 10.15000000000001812 ) ) ;
#300 = EDGE_CURVE ( 'NONE', #94, #199, #170, .T. ) ;
#301 = VECTOR ( 'NONE', #153, 1000.000000000000000 ) ;
#302 = FACE_OUTER_BOUND ( 'NONE', #98, .T. ) ;
#303 = FACE_OUTER_BOUND ( 'NONE', #124, .T. ) ;
#304 = CARTESIAN_POINT ( 'NONE',  ( 0.000000000000000000, 0.000000000000000000, 8.650000000000018119 ) ) ;
#305 = ORIENTED_EDGE ( 'NONE', *, *, #240, .F. ) ;
#306 = DIRECTION ( 'NONE',  ( -1.000000000000000000, -0.000000000000000000, -0.000000000000000000 ) ) ;
#307 = ADVANCED_FACE ( 'NONE', ( #34 ), #316, .T. ) ;
#308 = ORIENTED_EDGE ( 'NONE', *, *, #162, .F. ) ;
#309 = DIRECTION ( 'NONE',  ( 0.000000000000000000, 0.000000000000000000, 1.000000000000000000 ) ) ;
#310 = ORIENTED_EDGE ( 'NONE', *, *, #300, .T. ) ;
#311 = CIRCLE ( 'NONE', #35, 10.65000000000001812 ) ;
#312 = DIRECTION ( 'NONE',  ( 0.000000000000000000, 0.000000000000000000, 1.000000000000000000 ) ) ;
#313 = EDGE_LOOP ( 'NONE', ( #317, #231 ) ) ;
#314 = PRODUCT_DEFINITION_FORMATION_WITH_SPECIFIED_SOURCE ( 'ANY', '', #31, .NOT_KNOWN. ) ;
#315 = CARTESIAN_POINT ( 'NONE',  ( -3.000000000000557776, 0.000000000000000000, 0.000000000000000000 ) ) ;
#316 = TOROIDAL_SURFACE ( 'NONE', #5, 10.15000000000001812, 0.5000000000000000000 ) ;
#317 = ORIENTED_EDGE ( 'NONE', *, *, #26, .F. ) ;
#318 = CARTESIAN_POINT ( 'NONE',  ( 0.000000000000000000, 0.000000000000000000, 0.000000000000000000 ) ) ;
#319 = DIRECTION ( 'NONE',  ( -1.000000000000000000, -0.000000000000000000, -0.000000000000000000 ) ) ;
#320 = PERSON_AND_ORGANIZATION_ROLE ( 'design_owner' ) ;
#321 = EDGE_CURVE ( 'NONE', #330, #33, #17, .T. ) ;
#322 = AXIS2_PLACEMENT_3D ( 'NONE', #7, #4, #62 ) ;
#323 = COORDINATED_UNIVERSAL_TIME_OFFSET ( 1, 0, .AHEAD. ) ;
#324 = CC_DESIGN_PERSON_AND_ORGANIZATION_ASSIGNMENT ( #187, #188, ( #314 ) ) ;
#325 = PERSON_AND_ORGANIZATION ( #242, #27 ) ;
#326 = AXIS2_PLACEMENT_3D ( 'NONE', #292, #282, #338 ) ;
#327 = AXIS2_PLACEMENT_3D ( 'NONE', #254, #89, #167 ) ;
#328 = DIRECTION ( 'NONE',  ( 0.000000000000000000, 0.000000000000000000, 1.000000000000000000 ) ) ;
#329 = EDGE_CURVE ( 'NONE', #278, #112, #51, .T. ) ;
#330 = VERTEX_POINT ( 'NONE', #148 ) ;
#331 = LOCAL_TIME ( 8, 0, 6.000000000000000000, #270 ) ;
#332 = DIRECTION ( 'NONE',  ( -1.000000000000000000, -0.000000000000000000, -0.000000000000000000 ) ) ;
#333 = CARTESIAN_POINT ( 'NONE',  ( -3.000000000000276668, 10.15000000000001812, 0.000000000000000000 ) ) ;
#334 = DIRECTION ( 'NONE',  ( 1.000000000000000000, 0.000000000000000000, 0.000000000000000000 ) ) ;
#335 = APPROVAL ( #129, 'UNSPECIFIED' ) ;
#336 = PLANE ( 'NONE',  #285 ) ;
#337 = ORIENTED_EDGE ( 'NONE', *, *, #54, .F. ) ;
#338 = DIRECTION ( 'NONE',  ( 0.000000000000000000, 0.000000000000000000, 1.000000000000000000 ) ) ;
#339 = CONICAL_SURFACE ( 'NONE', #322, 7.650000000000020783, 0.7853981633974471688 ) ;
#340 = VERTEX_POINT ( 'NONE', #123 ) ;
#341 = DIRECTION ( 'NONE',  ( -1.000000000000000000, -0.000000000000000000, -0.000000000000000000 ) ) ;
#342 = ADVANCED_FACE ( 'NONE', ( #121 ), #150, .T. ) ;
#343 = ORIENTED_EDGE ( 'NONE', *, *, #329, .T. ) ;
#344 = CONICAL_SURFACE ( 'NONE', #248, 7.650000000000020783, 0.7853981633974471688 ) ;
#345 = CARTESIAN_POINT ( 'NONE',  ( 6.999999999999451106, 0.000000000000000000, 0.000000000000000000 ) ) ;
#346 = ORIENTED_EDGE ( 'NONE', *, *, #182, .F. ) ;
#347 = CARTESIAN_POINT ( 'NONE',  ( -154.8395502972293230, 0.000000000000000000, 8.650000000000018119 ) ) ;
#348 = AXIS2_PLACEMENT_3D ( 'NONE', #264, #177, #102 ) ;
#349 = DIRECTION ( 'NONE',  ( 0.000000000000000000, 0.000000000000000000, 1.000000000000000000 ) ) ;
#350 = AXIS2_PLACEMENT_3D ( 'NONE', #277, #29, #136 ) ;
#351 = EDGE_CURVE ( 'NONE', #278, #234, #40, .T. ) ;
#352 = APPROVAL_DATE_TIME ( #353, #135 ) ;
#353 = DATE_AND_TIME ( #48, #158 ) ;
#354 = DATE_AND_TIME ( #159, #192 ) ;
#355 = AXIS2_PLACEMENT_3D ( 'NONE', #211, #319, #309 ) ;
#356 = DIRECTION ( 'NONE',  ( 0.000000000000000000, 0.000000000000000000, 1.000000000000000000 ) ) ;
#357 = CIRCLE ( 'NONE', #327, 7.650000000000020783 ) ;
ENDSEC;
END-ISO-10303-21;
