ISO-10303-21;
HEADER;
FILE_DESCRIPTION (( 'STEP AP203' ),
    '1' );
FILE_NAME ('3D_GR1392_DN20x1.5_18380080.STEP',
    '2024-09-21T10:11:50',
    ( '' ),
    ( '' ),
    'SwSTEP 2.0',
    'SolidWorks 2024',
    '' );
FILE_SCHEMA (( 'CONFIG_CONTROL_DESIGN' ));
ENDSEC;

DATA;
#1 = VERTEX_POINT ( 'NONE', #127 ) ;
#2 = CC_DESIGN_PERSON_AND_ORGANIZATION_ASSIGNMENT ( #281, #126, ( #146 ) ) ;
#3 = EDGE_LOOP ( 'NONE', ( #90, #71, #173, #259, #349 ) ) ;
#4 = CIRCLE ( 'NONE', #121, 8.500000000000017764 ) ;
#5 = ORIENTED_EDGE ( 'NONE', *, *, #46, .F. ) ;
#6 = ORIENTED_EDGE ( 'NONE', *, *, #16, .T. ) ;
#7 = CARTESIAN_POINT ( 'NONE',  ( 7.000000000000588862, 0.000000000000000000, 0.000000000000000000 ) ) ;
#8 = ADVANCED_FACE ( 'NONE', ( #11 ), #227, .T. ) ;
#9 = ORIENTED_EDGE ( 'NONE', *, *, #217, .T. ) ;
#10 = DIRECTION ( 'NONE',  ( -0.000000000000000000, 0.000000000000000000, -1.000000000000000000 ) ) ;
#11 = FACE_OUTER_BOUND ( 'NONE', #124, .T. ) ;
#12 = CARTESIAN_POINT ( 'NONE',  ( -154.8395502972293230, 0.000000000000000000, 10.00000000000001954 ) ) ;
#13 = PERSON_AND_ORGANIZATION_ROLE ( 'classification_officer' ) ;
#14 = DIRECTION ( 'NONE',  ( 1.000000000000000000, 0.000000000000000000, 0.000000000000000000 ) ) ;
#15 = VERTEX_POINT ( 'NONE', #341 ) ;
#16 = EDGE_CURVE ( 'NONE', #137, #274, #120, .T. ) ;
#17 = CC_DESIGN_APPROVAL ( #157, ( #146 ) ) ;
#18 = DIRECTION ( 'NONE',  ( 0.000000000000000000, 0.000000000000000000, 1.000000000000000000 ) ) ;
#19 = EDGE_CURVE ( 'NONE', #39, #28, #88, .T. ) ;
#20 = AXIS2_PLACEMENT_3D ( 'NONE', #95, #45, #256 ) ;
#21 = CARTESIAN_POINT ( 'NONE',  ( 7.000000000000301092, 0.000000000000000000, 0.000000000000000000 ) ) ;
#22 = CARTESIAN_POINT ( 'NONE',  ( -5.000000000000022204, 2.450257712371056562E-16, 0.000000000000000000 ) ) ;
#23 = CARTESIAN_POINT ( 'NONE',  ( -154.8395502972293230, 0.000000000000000000, 0.000000000000000000 ) ) ;
#24 = EDGE_CURVE ( 'NONE', #183, #275, #180, .T. ) ;
#25 = AXIS2_PLACEMENT_3D ( 'NONE', #335, #68, #106 ) ;
#26 = EDGE_LOOP ( 'NONE', ( #195, #329, #211, #220, #249 ) ) ;
#27 = CARTESIAN_POINT ( 'NONE',  ( -2.775557561562891351E-14, 1.040949779275252309E-15, -8.500000000000017764 ) ) ;
#28 = VERTEX_POINT ( 'NONE', #130 ) ;
#29 = EDGE_CURVE ( 'NONE', #15, #283, #191, .T. ) ;
#30 = APPLICATION_PROTOCOL_DEFINITION ( 'international standard', 'config_control_design', 1994, #122 ) ;
#31 = ORIENTED_EDGE ( 'NONE', *, *, #24, .F. ) ;
#32 = CARTESIAN_POINT ( 'NONE',  ( 13.16666666666658969, -8.673617379884035472E-16, 0.000000000000000000 ) ) ;
#33 = EDGE_LOOP ( 'NONE', ( #328, #320, #280, #300 ) ) ;
#34 = AXIS2_PLACEMENT_3D ( 'NONE', #156, #313, #76 ) ;
#35 = CC_DESIGN_APPROVAL ( #235, ( #188 ) ) ;
#36 = PERSON_AND_ORGANIZATION ( #174, #232 ) ;
#37 = PERSON_AND_ORGANIZATION ( #174, #232 ) ;
#38 = ORIENTED_EDGE ( 'NONE', *, *, #19, .T. ) ;
#39 = VERTEX_POINT ( 'NONE', #65 ) ;
#40 = COORDINATED_UNIVERSAL_TIME_OFFSET ( 1, 0, .AHEAD. ) ;
#41 = DIRECTION ( 'NONE',  ( -1.000000000000000000, -0.000000000000000000, -0.000000000000000000 ) ) ;
#42 = ADVANCED_FACE ( 'NONE', ( #177 ), #253, .T. ) ;
#43 = COORDINATED_UNIVERSAL_TIME_OFFSET ( 1, 0, .AHEAD. ) ;
#44 = AXIS2_PLACEMENT_3D ( 'NONE', #23, #301, #59 ) ;
#45 = DIRECTION ( 'NONE',  ( 0.000000000000000000, 1.224646799147353207E-16, -1.000000000000000000 ) ) ;
#46 = EDGE_CURVE ( 'NONE', #274, #137, #216, .T. ) ;
#47 = APPLICATION_PROTOCOL_DEFINITION ( 'international standard', 'config_control_design', 1994, #143 ) ;
#48 = ORIENTED_EDGE ( 'NONE', *, *, #129, .F. ) ;
#49 = CARTESIAN_POINT ( 'NONE',  ( 0.000000000000000000, 0.000000000000000000, 0.000000000000000000 ) ) ;
#50 = DIRECTION ( 'NONE',  ( -0.000000000000000000, 0.000000000000000000, 1.000000000000000000 ) ) ;
#51 = CARTESIAN_POINT ( 'NONE',  ( -154.8395502972293230, 0.000000000000000000, 0.000000000000000000 ) ) ;
#52 = DIRECTION ( 'NONE',  ( -1.000000000000000000, -0.000000000000000000, -0.000000000000000000 ) ) ;
#53 = VECTOR ( 'NONE', #317, 1000.000000000000000 ) ;
#54 =( NAMED_UNIT ( * ) PLANE_ANGLE_UNIT ( ) SI_UNIT ( $, .RADIAN. ) );
#55 = CYLINDRICAL_SURFACE ( 'NONE', #305, 8.500000000000017764 ) ;
#56 = DIRECTION ( 'NONE',  ( -0.7071067811865479058, 8.659560562354930393E-17, -0.7071067811865472397 ) ) ;
#57 = AXIS2_PLACEMENT_3D ( 'NONE', #142, #297, #241 ) ;
#58 = DIRECTION ( 'NONE',  ( -1.000000000000000000, -0.000000000000000000, -0.000000000000000000 ) ) ;
#59 = DIRECTION ( 'NONE',  ( 0.000000000000000000, 0.000000000000000000, 1.000000000000000000 ) ) ;
#60 = ORIENTED_EDGE ( 'NONE', *, *, #350, .F. ) ;
#61 = COORDINATED_UNIVERSAL_TIME_OFFSET ( 1, 0, .AHEAD. ) ;
#62 = APPROVAL_PERSON_ORGANIZATION ( #36, #235, #204 ) ;
#63 = EDGE_CURVE ( 'NONE', #283, #183, #221, .T. ) ;
#64 = PERSON_AND_ORGANIZATION ( #174, #232 ) ;
#65 = CARTESIAN_POINT ( 'NONE',  ( 6.000000000000587974, 0.000000000000000000, 8.500000000000019540 ) ) ;
#66 = DIRECTION ( 'NONE',  ( -1.000000000000000000, -0.000000000000000000, -0.000000000000000000 ) ) ;
#67 = APPROVAL_DATE_TIME ( #70, #235 ) ;
#68 = DIRECTION ( 'NONE',  ( -1.000000000000000000, -0.000000000000000000, -0.000000000000000000 ) ) ;
#69 = DIRECTION ( 'NONE',  ( 0.000000000000000000, 0.000000000000000000, 1.000000000000000000 ) ) ;
#70 = DATE_AND_TIME ( #145, #325 ) ;
#71 = ORIENTED_EDGE ( 'NONE', *, *, #240, .T. ) ;
#72 = CYLINDRICAL_SURFACE ( 'NONE', #108, 10.00000000000001954 ) ;
#73 = CC_DESIGN_PERSON_AND_ORGANIZATION_ASSIGNMENT ( #334, #100, ( #146 ) ) ;
#74 = ADVANCED_BREP_SHAPE_REPRESENTATION ( '3D_GR1392_DN20x1.5_18380080', ( #115, #340 ), #238 ) ;
#75 = APPROVAL_STATUS ( 'not_yet_approved' ) ;
#76 = DIRECTION ( 'NONE',  ( 0.000000000000000000, 0.000000000000000000, 1.000000000000000000 ) ) ;
#77 = FACE_OUTER_BOUND ( 'NONE', #298, .T. ) ;
#78 = EDGE_LOOP ( 'NONE', ( #91, #86, #9, #270 ) ) ;
#79 = DIRECTION ( 'NONE',  ( 0.000000000000000000, 0.000000000000000000, 1.000000000000000000 ) ) ;
#80 = VECTOR ( 'NONE', #337, 1000.000000000000000 ) ;
#81 = PRODUCT_RELATED_PRODUCT_CATEGORY ( 'detail', '', ( #234 ) ) ;
#82 = CARTESIAN_POINT ( 'NONE',  ( 0.000000000000000000, 0.000000000000000000, 0.000000000000000000 ) ) ;
#83 = UNCERTAINTY_MEASURE_WITH_UNIT (LENGTH_MEASURE( 1.000000000000000082E-05 ), #327, 'distance_accuracy_value', 'NONE');
#84 = DIRECTION ( 'NONE',  ( -0.7071067811865479058, 0.000000000000000000, 0.7071067811865472397 ) ) ;
#85 = LOCAL_TIME ( 12, 11, 50.00000000000000000, #43 ) ;
#86 = ORIENTED_EDGE ( 'NONE', *, *, #46, .T. ) ;
#87 = DIRECTION ( 'NONE',  ( -1.000000000000000000, -0.000000000000000000, -0.000000000000000000 ) ) ;
#88 = CIRCLE ( 'NONE', #246, 8.500000000000019540 ) ;
#89 = DIRECTION ( 'NONE',  ( 0.000000000000000000, 1.000000000000000000, 0.000000000000000000 ) ) ;
#90 = ORIENTED_EDGE ( 'NONE', *, *, #248, .T. ) ;
#91 = ORIENTED_EDGE ( 'NONE', *, *, #333, .F. ) ;
#92 = APPROVAL_DATE_TIME ( #338, #111 ) ;
#93 = ORIENTED_EDGE ( 'NONE', *, *, #278, .T. ) ;
#94 = CC_DESIGN_DATE_AND_TIME_ASSIGNMENT ( #222, #171, ( #188 ) ) ;
#95 = CARTESIAN_POINT ( 'NONE',  ( 13.16666666666658969, -8.673617379884035472E-16, 0.000000000000000000 ) ) ;
#96 = APPROVAL_PERSON_ORGANIZATION ( #247, #111, #181 ) ;
#97 = PLANE ( 'NONE',  #242 ) ;
#98 = PERSON_AND_ORGANIZATION ( #174, #232 ) ;
#99 = DIRECTION ( 'NONE',  ( -1.000000000000000000, 0.000000000000000000, -0.000000000000000000 ) ) ;
#100 = PERSON_AND_ORGANIZATION_ROLE ( 'creator' ) ;
#101 = CC_DESIGN_DATE_AND_TIME_ASSIGNMENT ( #200, #251, ( #285 ) ) ;
#102 = FACE_OUTER_BOUND ( 'NONE', #26, .T. ) ;
#103 = SHAPE_DEFINITION_REPRESENTATION ( #272, #74 ) ;
#104 = ORIENTED_EDGE ( 'NONE', *, *, #245, .T. ) ;
#105 = AXIS2_PLACEMENT_3D ( 'NONE', #208, #315, #201 ) ;
#106 = DIRECTION ( 'NONE',  ( 0.000000000000000000, 0.000000000000000000, 1.000000000000000000 ) ) ;
#107 = CARTESIAN_POINT ( 'NONE',  ( 6.000000000000587974, 0.000000000000000000, 0.000000000000000000 ) ) ;
#108 = AXIS2_PLACEMENT_3D ( 'NONE', #51, #112, #18 ) ;
#109 = LOCAL_TIME ( 12, 11, 50.00000000000000000, #61 ) ;
#110 = DIRECTION ( 'NONE',  ( -1.000000000000000000, -0.000000000000000000, -0.000000000000000000 ) ) ;
#111 = APPROVAL ( #178, 'UNSPECIFIED' ) ;
#112 = DIRECTION ( 'NONE',  ( -1.000000000000000000, -0.000000000000000000, -0.000000000000000000 ) ) ;
#113 = CIRCLE ( 'NONE', #159, 18.16666666666660745 ) ;
#114 =( NAMED_UNIT ( * ) SI_UNIT ( $, .STERADIAN. ) SOLID_ANGLE_UNIT ( ) );
#115 = MANIFOLD_SOLID_BREP ( 'Rotation1', #265 ) ;
#116 = EDGE_CURVE ( 'NONE', #165, #15, #319, .T. ) ;
#117 = DIRECTION ( 'NONE',  ( -0.000000000000000000, 0.000000000000000000, -1.000000000000000000 ) ) ;
#118 = ORIENTED_EDGE ( 'NONE', *, *, #129, .T. ) ;
#119 = ORIENTED_EDGE ( 'NONE', *, *, #63, .T. ) ;
#120 = CIRCLE ( 'NONE', #25, 7.500000000000019540 ) ;
#121 = AXIS2_PLACEMENT_3D ( 'NONE', #136, #110, #210 ) ;
#122 = APPLICATION_CONTEXT ( 'configuration controlled 3d designs of mechanical parts and assemblies' ) ;
#123 = DIRECTION ( 'NONE',  ( 0.000000000000000000, 0.000000000000000000, 1.000000000000000000 ) ) ;
#124 = EDGE_LOOP ( 'NONE', ( #144, #119, #304, #48 ) ) ;
#125 = CALENDAR_DATE ( 2024, 21, 9 ) ;
#126 = PERSON_AND_ORGANIZATION_ROLE ( 'design_supplier' ) ;
#127 = CARTESIAN_POINT ( 'NONE',  ( 0.000000000000000000, 1.224646799147355426E-15, -10.00000000000001954 ) ) ;
#128 = DIRECTION ( 'NONE',  ( 0.000000000000000000, 0.000000000000000000, 1.000000000000000000 ) ) ;
#129 = EDGE_CURVE ( 'NONE', #15, #275, #113, .T. ) ;
#130 = CARTESIAN_POINT ( 'NONE',  ( 6.000000000000587974, 1.040949779275252506E-15, -8.500000000000019540 ) ) ;
#131 = LINE ( 'NONE', #336, #198 ) ;
#132 = ORIENTED_EDGE ( 'NONE', *, *, #217, .F. ) ;
#133 = DIRECTION ( 'NONE',  ( -1.000000000000000000, -0.000000000000000000, -0.000000000000000000 ) ) ;
#134 = FACE_OUTER_BOUND ( 'NONE', #218, .T. ) ;
#135 = EDGE_CURVE ( 'NONE', #39, #244, #131, .T. ) ;
#136 = CARTESIAN_POINT ( 'NONE',  ( -2.775557561562891351E-14, 0.000000000000000000, 0.000000000000000000 ) ) ;
#137 = VERTEX_POINT ( 'NONE', #252 ) ;
#138 = CARTESIAN_POINT ( 'NONE',  ( 0.000000000000000000, 0.000000000000000000, 10.00000000000001954 ) ) ;
#139 = LINE ( 'NONE', #291, #53 ) ;
#140 = CARTESIAN_POINT ( 'NONE',  ( -154.8395502972293230, 0.000000000000000000, 0.000000000000000000 ) ) ;
#141 = CONICAL_SURFACE ( 'NONE', #331, 7.500000000000019540, 0.7853981633974479459 ) ;
#142 = CARTESIAN_POINT ( 'NONE',  ( -2.775557561562891351E-14, 0.000000000000000000, 0.000000000000000000 ) ) ;
#143 = APPLICATION_CONTEXT ( 'configuration controlled 3d designs of mechanical parts and assemblies' ) ;
#144 = ORIENTED_EDGE ( 'NONE', *, *, #29, .T. ) ;
#145 = CALENDAR_DATE ( 2024, 21, 9 ) ;
#146 = PRODUCT_DEFINITION_FORMATION_WITH_SPECIFIED_SOURCE ( 'ANY', '', #234, .NOT_KNOWN. ) ;
#147 = CC_DESIGN_PERSON_AND_ORGANIZATION_ASSIGNMENT ( #98, #13, ( #188 ) ) ;
#148 = ORIENTED_EDGE ( 'NONE', *, *, #263, .T. ) ;
#149 = EDGE_LOOP ( 'NONE', ( #6, #237, #170, #132 ) ) ;
#150 = CARTESIAN_POINT ( 'NONE',  ( -8.743544344363039869E-15, 8.500000000000017764, 0.000000000000000000 ) ) ;
#151 = PERSON_AND_ORGANIZATION_ROLE ( 'creator' ) ;
#152 = DIRECTION ( 'NONE',  ( 0.000000000000000000, 0.000000000000000000, 1.000000000000000000 ) ) ;
#153 = CIRCLE ( 'NONE', #346, 10.00000000000001954 ) ;
#154 = AXIS2_PLACEMENT_3D ( 'NONE', #32, #117, #89 ) ;
#155 = LINE ( 'NONE', #12, #80 ) ;
#156 = CARTESIAN_POINT ( 'NONE',  ( 7.000000000000588862, 0.000000000000000000, 0.000000000000000000 ) ) ;
#157 = APPROVAL ( #75, 'UNSPECIFIED' ) ;
#158 = CARTESIAN_POINT ( 'NONE',  ( 7.000000000000588862, 9.797174393178849323E-16, -7.500000000000019540 ) ) ;
#159 = AXIS2_PLACEMENT_3D ( 'NONE', #233, #342, #330 ) ;
#160 = FACE_OUTER_BOUND ( 'NONE', #207, .T. ) ;
#161 = ADVANCED_FACE ( 'NONE', ( #77, #289 ), #97, .F. ) ;
#162 = CARTESIAN_POINT ( 'NONE',  ( 7.000000000000588862, 0.000000000000000000, 7.500000000000019540 ) ) ;
#163 = AXIS2_PLACEMENT_3D ( 'NONE', #107, #268, #186 ) ;
#164 = LINE ( 'NONE', #223, #226 ) ;
#165 = VERTEX_POINT ( 'NONE', #260 ) ;
#166 = ADVANCED_FACE ( 'NONE', ( #209 ), #141, .T. ) ;
#167 = AXIS2_PLACEMENT_3D ( 'NONE', #269, #58, #189 ) ;
#168 = CYLINDRICAL_SURFACE ( 'NONE', #167, 10.00000000000001954 ) ;
#169 = ORIENTED_EDGE ( 'NONE', *, *, #16, .F. ) ;
#170 = ORIENTED_EDGE ( 'NONE', *, *, #19, .F. ) ;
#171 = DATE_TIME_ROLE ( 'classification_date' ) ;
#172 = AXIS2_PLACEMENT_3D ( 'NONE', #295, #214, #213 ) ;
#173 = ORIENTED_EDGE ( 'NONE', *, *, #29, .F. ) ;
#174 = PERSON ( 'UNSPECIFIED', 'UNSPECIFIED', 'UNSPECIFIED', ('UNSPECIFIED'), ('UNSPECIFIED'), ('UNSPECIFIED') ) ;
#175 = COORDINATED_UNIVERSAL_TIME_OFFSET ( 1, 0, .AHEAD. ) ;
#176 = DATE_AND_TIME ( #306, #109 ) ;
#177 = FACE_OUTER_BOUND ( 'NONE', #78, .T. ) ;
#178 = APPROVAL_STATUS ( 'not_yet_approved' ) ;
#179 = DIRECTION ( 'NONE',  ( -0.000000000000000000, 0.000000000000000000, 1.000000000000000000 ) ) ;
#180 = CIRCLE ( 'NONE', #20, 18.16666666666661101 ) ;
#181 = APPROVAL_ROLE ( '' ) ;
#182 = CARTESIAN_POINT ( 'NONE',  ( -2.000000000000001776, 0.000000000000000000, 0.000000000000000000 ) ) ;
#183 = VERTEX_POINT ( 'NONE', #284 ) ;
#184 = EDGE_CURVE ( 'NONE', #197, #165, #155, .T. ) ;
#185 = VECTOR ( 'NONE', #84, 999.9999999999998863 ) ;
#186 = DIRECTION ( 'NONE',  ( 0.000000000000000000, 0.000000000000000000, 1.000000000000000000 ) ) ;
#187 = DIRECTION ( 'NONE',  ( -1.000000000000000000, -0.000000000000000000, -0.000000000000000000 ) ) ;
#188 = SECURITY_CLASSIFICATION ( '', '', #257 ) ;
#189 = DIRECTION ( 'NONE',  ( 0.000000000000000000, 0.000000000000000000, 1.000000000000000000 ) ) ;
#190 = ORIENTED_EDGE ( 'NONE', *, *, #135, .F. ) ;
#191 = CIRCLE ( 'NONE', #105, 10.00000000000001776 ) ;
#192 = ORIENTED_EDGE ( 'NONE', *, *, #230, .F. ) ;
#193 = ADVANCED_FACE ( 'NONE', ( #102 ), #72, .T. ) ;
#194 = CYLINDRICAL_SURFACE ( 'NONE', #44, 8.500000000000017764 ) ;
#195 = ORIENTED_EDGE ( 'NONE', *, *, #240, .F. ) ;
#196 = CALENDAR_DATE ( 2024, 21, 9 ) ;
#197 = VERTEX_POINT ( 'NONE', #138 ) ;
#198 = VECTOR ( 'NONE', #202, 1000.000000000000000 ) ;
#199 = CIRCLE ( 'NONE', #57, 8.500000000000017764 ) ;
#200 = DATE_AND_TIME ( #196, #267 ) ;
#201 = DIRECTION ( 'NONE',  ( 0.000000000000000000, 0.000000000000000000, 1.000000000000000000 ) ) ;
#202 = DIRECTION ( 'NONE',  ( -1.000000000000000000, -0.000000000000000000, -0.000000000000000000 ) ) ;
#203 = CARTESIAN_POINT ( 'NONE',  ( 0.000000000000000000, 0.000000000000000000, 0.000000000000000000 ) ) ;
#204 = APPROVAL_ROLE ( '' ) ;
#205 = AXIS2_PLACEMENT_3D ( 'NONE', #231, #10, #224 ) ;
#206 = CIRCLE ( 'NONE', #163, 8.500000000000019540 ) ;
#207 = EDGE_LOOP ( 'NONE', ( #31, #148, #351, #118 ) ) ;
#208 = CARTESIAN_POINT ( 'NONE',  ( -2.000000000000001776, 0.000000000000000000, 0.000000000000000000 ) ) ;
#209 = FACE_OUTER_BOUND ( 'NONE', #149, .T. ) ;
#210 = DIRECTION ( 'NONE',  ( 0.000000000000000000, 0.000000000000000000, 1.000000000000000000 ) ) ;
#211 = ORIENTED_EDGE ( 'NONE', *, *, #184, .T. ) ;
#212 = APPROVAL_PERSON_ORGANIZATION ( #303, #157, #255 ) ;
#213 = DIRECTION ( 'NONE',  ( 0.000000000000000000, 0.000000000000000000, 1.000000000000000000 ) ) ;
#214 = DIRECTION ( 'NONE',  ( -1.000000000000000000, -0.000000000000000000, -0.000000000000000000 ) ) ;
#215 = CARTESIAN_POINT ( 'NONE',  ( -2.775557561562891351E-14, 0.000000000000000000, 8.500000000000017764 ) ) ;
#216 = CIRCLE ( 'NONE', #236, 7.500000000000019540 ) ;
#217 = EDGE_CURVE ( 'NONE', #137, #39, #290, .T. ) ;
#218 = EDGE_LOOP ( 'NONE', ( #169, #5 ) ) ;
#219 = CC_DESIGN_PERSON_AND_ORGANIZATION_ASSIGNMENT ( #37, #151, ( #285 ) ) ;
#220 = ORIENTED_EDGE ( 'NONE', *, *, #263, .F. ) ;
#221 = CIRCLE ( 'NONE', #294, 10.00000000000001776 ) ;
#222 = DATE_AND_TIME ( #254, #286 ) ;
#223 = CARTESIAN_POINT ( 'NONE',  ( 7.000000000000588862, 9.184850993605173582E-16, -7.500000000000019540 ) ) ;
#224 = DIRECTION ( 'NONE',  ( 0.000000000000000000, 1.000000000000000000, 0.000000000000000000 ) ) ;
#225 = ADVANCED_FACE ( 'NONE', ( #134 ), #316, .F. ) ;
#226 = VECTOR ( 'NONE', #56, 999.9999999999998863 ) ;
#227 = SPHERICAL_SURFACE ( 'NONE', #205, 18.16666666666661101 ) ;
#228 = APPROVAL_DATE_TIME ( #176, #157 ) ;
#229 = CARTESIAN_POINT ( 'NONE',  ( 6.000000000000587974, 0.000000000000000000, 0.000000000000000000 ) ) ;
#230 = EDGE_CURVE ( 'NONE', #1, #197, #153, .T. ) ;
#231 = CARTESIAN_POINT ( 'NONE',  ( 13.16666666666658969, -8.673617379884035472E-16, 0.000000000000000000 ) ) ;
#232 = ORGANIZATION ( 'UNSPECIFIED', 'UNSPECIFIED', '' ) ;
#233 = CARTESIAN_POINT ( 'NONE',  ( 13.16666666666658969, -8.673617379884035472E-16, 0.000000000000000000 ) ) ;
#234 = PRODUCT ( '3D_GR1392_DN20x1.5_18380080', '3D_GR1392_DN20x1.5_18380080', '', ( #279 ) ) ;
#235 = APPROVAL ( #250, 'UNSPECIFIED' ) ;
#236 = AXIS2_PLACEMENT_3D ( 'NONE', #276, #66, #128 ) ;
#237 = ORIENTED_EDGE ( 'NONE', *, *, #333, .T. ) ;
#238 =( GEOMETRIC_REPRESENTATION_CONTEXT ( 3 ) GLOBAL_UNCERTAINTY_ASSIGNED_CONTEXT ( ( #83 ) ) GLOBAL_UNIT_ASSIGNED_CONTEXT ( ( #327, #54, #114 ) ) REPRESENTATION_CONTEXT ( 'NONE', 'WORKASPACE' ) );
#239 = LINE ( 'NONE', #318, #266 ) ;
#240 = EDGE_CURVE ( 'NONE', #1, #283, #239, .T. ) ;
#241 = DIRECTION ( 'NONE',  ( 0.000000000000000000, 0.000000000000000000, 1.000000000000000000 ) ) ;
#242 = AXIS2_PLACEMENT_3D ( 'NONE', #150, #99, #179 ) ;
#243 = CIRCLE ( 'NONE', #172, 10.00000000000001776 ) ;
#244 = VERTEX_POINT ( 'NONE', #215 ) ;
#245 = EDGE_CURVE ( 'NONE', #326, #244, #4, .T. ) ;
#246 = AXIS2_PLACEMENT_3D ( 'NONE', #229, #287, #152 ) ;
#247 = PERSON_AND_ORGANIZATION ( #174, #232 ) ;
#248 = EDGE_CURVE ( 'NONE', #197, #1, #311, .T. ) ;
#249 = ORIENTED_EDGE ( 'NONE', *, *, #63, .F. ) ;
#250 = APPROVAL_STATUS ( 'not_yet_approved' ) ;
#251 = DATE_TIME_ROLE ( 'creation_date' ) ;
#252 = CARTESIAN_POINT ( 'NONE',  ( 7.000000000000588862, 0.000000000000000000, 7.500000000000019540 ) ) ;
#253 = CONICAL_SURFACE ( 'NONE', #34, 7.500000000000019540, 0.7853981633974479459 ) ;
#254 = CALENDAR_DATE ( 2024, 21, 9 ) ;
#255 = APPROVAL_ROLE ( '' ) ;
#256 = DIRECTION ( 'NONE',  ( 0.000000000000000000, 1.000000000000000000, 1.224646799147353207E-16 ) ) ;
#257 = SECURITY_CLASSIFICATION_LEVEL ( 'unclassified' ) ;
#258 = DIRECTION ( 'NONE',  ( 0.000000000000000000, 0.000000000000000000, 1.000000000000000000 ) ) ;
#259 = ORIENTED_EDGE ( 'NONE', *, *, #116, .F. ) ;
#260 = CARTESIAN_POINT ( 'NONE',  ( -2.000000000000001776, 0.000000000000000000, 10.00000000000001776 ) ) ;
#261 = AXIS2_PLACEMENT_3D ( 'NONE', #282, #41, #69 ) ;
#262 = CARTESIAN_POINT ( 'NONE',  ( -2.000000000000001776, 1.224646799147355229E-15, -10.00000000000001776 ) ) ;
#263 = EDGE_CURVE ( 'NONE', #183, #165, #243, .T. ) ;
#264 = DIRECTION ( 'NONE',  ( -1.000000000000000000, -0.000000000000000000, -0.000000000000000000 ) ) ;
#265 = CLOSED_SHELL ( 'NONE', ( #166, #321, #343, #8, #302, #193, #161, #309, #42, #225 ) ) ;
#266 = VECTOR ( 'NONE', #187, 1000.000000000000000 ) ;
#267 = LOCAL_TIME ( 12, 11, 50.00000000000000000, #40 ) ;
#268 = DIRECTION ( 'NONE',  ( -1.000000000000000000, -0.000000000000000000, -0.000000000000000000 ) ) ;
#269 = CARTESIAN_POINT ( 'NONE',  ( -154.8395502972293230, 0.000000000000000000, 0.000000000000000000 ) ) ;
#270 = ORIENTED_EDGE ( 'NONE', *, *, #271, .F. ) ;
#271 = EDGE_CURVE ( 'NONE', #28, #39, #206, .T. ) ;
#272 = PRODUCT_DEFINITION_SHAPE ( 'NONE', 'NONE',  #285 ) ;
#273 = EDGE_LOOP ( 'NONE', ( #339, #104 ) ) ;
#274 = VERTEX_POINT ( 'NONE', #158 ) ;
#275 = VERTEX_POINT ( 'NONE', #22 ) ;
#276 = CARTESIAN_POINT ( 'NONE',  ( 7.000000000000588862, 0.000000000000000000, 0.000000000000000000 ) ) ;
#277 = CC_DESIGN_SECURITY_CLASSIFICATION ( #188, ( #146 ) ) ;
#278 = EDGE_CURVE ( 'NONE', #28, #326, #139, .T. ) ;
#279 = MECHANICAL_CONTEXT ( 'NONE', #122, 'mechanical' ) ;
#280 = ORIENTED_EDGE ( 'NONE', *, *, #135, .T. ) ;
#281 = PERSON_AND_ORGANIZATION ( #174, #232 ) ;
#282 = CARTESIAN_POINT ( 'NONE',  ( -2.000000000000001776, 0.000000000000000000, 0.000000000000000000 ) ) ;
#283 = VERTEX_POINT ( 'NONE', #262 ) ;
#284 = CARTESIAN_POINT ( 'NONE',  ( -2.000000000000000888, -10.00000000000001599, -1.224646799147355031E-15 ) ) ;
#285 = PRODUCT_DEFINITION ( 'UNKNOWN', '', #146, #292 ) ;
#286 = LOCAL_TIME ( 12, 11, 50.00000000000000000, #175 ) ;
#287 = DIRECTION ( 'NONE',  ( -1.000000000000000000, -0.000000000000000000, -0.000000000000000000 ) ) ;
#288 = PERSON_AND_ORGANIZATION_ROLE ( 'design_owner' ) ;
#289 = FACE_BOUND ( 'NONE', #273, .T. ) ;
#290 = LINE ( 'NONE', #162, #185 ) ;
#291 = CARTESIAN_POINT ( 'NONE',  ( -154.8395502972293230, 1.040949779275252309E-15, -8.500000000000017764 ) ) ;
#292 = DESIGN_CONTEXT ( 'detailed design', #143, 'design' ) ;
#293 = FACE_OUTER_BOUND ( 'NONE', #33, .T. ) ;
#294 = AXIS2_PLACEMENT_3D ( 'NONE', #182, #133, #314 ) ;
#295 = CARTESIAN_POINT ( 'NONE',  ( -2.000000000000001776, 0.000000000000000000, 0.000000000000000000 ) ) ;
#296 = CC_DESIGN_APPROVAL ( #111, ( #285 ) ) ;
#297 = DIRECTION ( 'NONE',  ( -1.000000000000000000, -0.000000000000000000, -0.000000000000000000 ) ) ;
#298 = EDGE_LOOP ( 'NONE', ( #308, #192 ) ) ;
#299 = AXIS2_PLACEMENT_3D ( 'NONE', #21, #344, #50 ) ;
#300 = ORIENTED_EDGE ( 'NONE', *, *, #245, .F. ) ;
#301 = DIRECTION ( 'NONE',  ( -1.000000000000000000, -0.000000000000000000, -0.000000000000000000 ) ) ;
#302 = ADVANCED_FACE ( 'NONE', ( #160 ), #348, .T. ) ;
#303 = PERSON_AND_ORGANIZATION ( #174, #232 ) ;
#304 = ORIENTED_EDGE ( 'NONE', *, *, #24, .T. ) ;
#305 = AXIS2_PLACEMENT_3D ( 'NONE', #140, #87, #123 ) ;
#306 = CALENDAR_DATE ( 2024, 21, 9 ) ;
#307 = DIRECTION ( 'NONE',  ( 0.000000000000000000, 0.000000000000000000, 1.000000000000000000 ) ) ;
#308 = ORIENTED_EDGE ( 'NONE', *, *, #248, .F. ) ;
#309 = ADVANCED_FACE ( 'NONE', ( #293 ), #55, .T. ) ;
#310 = DIRECTION ( 'NONE',  ( -1.000000000000000000, -0.000000000000000000, -0.000000000000000000 ) ) ;
#311 = CIRCLE ( 'NONE', #332, 10.00000000000001954 ) ;
#312 = COORDINATED_UNIVERSAL_TIME_OFFSET ( 1, 0, .AHEAD. ) ;
#313 = DIRECTION ( 'NONE',  ( -1.000000000000000000, -0.000000000000000000, -0.000000000000000000 ) ) ;
#314 = DIRECTION ( 'NONE',  ( 0.000000000000000000, 0.000000000000000000, 1.000000000000000000 ) ) ;
#315 = DIRECTION ( 'NONE',  ( -1.000000000000000000, -0.000000000000000000, -0.000000000000000000 ) ) ;
#316 = PLANE ( 'NONE',  #299 ) ;
#317 = DIRECTION ( 'NONE',  ( -1.000000000000000000, -0.000000000000000000, -0.000000000000000000 ) ) ;
#318 = CARTESIAN_POINT ( 'NONE',  ( -154.8395502972293230, 1.224646799147355426E-15, -10.00000000000001954 ) ) ;
#319 = CIRCLE ( 'NONE', #261, 10.00000000000001776 ) ;
#320 = ORIENTED_EDGE ( 'NONE', *, *, #271, .T. ) ;
#321 = ADVANCED_FACE ( 'NONE', ( #322 ), #194, .T. ) ;
#322 = FACE_OUTER_BOUND ( 'NONE', #324, .T. ) ;
#323 = FACE_OUTER_BOUND ( 'NONE', #3, .T. ) ;
#324 = EDGE_LOOP ( 'NONE', ( #38, #93, #60, #190 ) ) ;
#325 = LOCAL_TIME ( 12, 11, 50.00000000000000000, #312 ) ;
#326 = VERTEX_POINT ( 'NONE', #27 ) ;
#327 =( LENGTH_UNIT ( ) NAMED_UNIT ( * ) SI_UNIT ( .MILLI., .METRE. ) );
#328 = ORIENTED_EDGE ( 'NONE', *, *, #278, .F. ) ;
#329 = ORIENTED_EDGE ( 'NONE', *, *, #230, .T. ) ;
#330 = DIRECTION ( 'NONE',  ( 1.000000000000000000, 0.000000000000000000, 0.000000000000000000 ) ) ;
#331 = AXIS2_PLACEMENT_3D ( 'NONE', #7, #310, #307 ) ;
#332 = AXIS2_PLACEMENT_3D ( 'NONE', #49, #264, #345 ) ;
#333 = EDGE_CURVE ( 'NONE', #274, #28, #164, .T. ) ;
#334 = PERSON_AND_ORGANIZATION ( #174, #232 ) ;
#335 = CARTESIAN_POINT ( 'NONE',  ( 7.000000000000588862, 0.000000000000000000, 0.000000000000000000 ) ) ;
#336 = CARTESIAN_POINT ( 'NONE',  ( -154.8395502972293230, 0.000000000000000000, 8.500000000000017764 ) ) ;
#337 = DIRECTION ( 'NONE',  ( -1.000000000000000000, -0.000000000000000000, -0.000000000000000000 ) ) ;
#338 = DATE_AND_TIME ( #125, #85 ) ;
#339 = ORIENTED_EDGE ( 'NONE', *, *, #350, .T. ) ;
#340 = AXIS2_PLACEMENT_3D ( 'NONE', #203, #258, #14 ) ;
#341 = CARTESIAN_POINT ( 'NONE',  ( -2.000000000000000888, 10.00000000000001599, 0.000000000000000000 ) ) ;
#342 = DIRECTION ( 'NONE',  ( -0.000000000000000000, 0.000000000000000000, 1.000000000000000000 ) ) ;
#343 = ADVANCED_FACE ( 'NONE', ( #323 ), #168, .T. ) ;
#344 = DIRECTION ( 'NONE',  ( -1.000000000000000000, 0.000000000000000000, -0.000000000000000000 ) ) ;
#345 = DIRECTION ( 'NONE',  ( 0.000000000000000000, 0.000000000000000000, 1.000000000000000000 ) ) ;
#346 = AXIS2_PLACEMENT_3D ( 'NONE', #82, #52, #79 ) ;
#347 = CC_DESIGN_PERSON_AND_ORGANIZATION_ASSIGNMENT ( #64, #288, ( #234 ) ) ;
#348 = SPHERICAL_SURFACE ( 'NONE', #154, 18.16666666666661101 ) ;
#349 = ORIENTED_EDGE ( 'NONE', *, *, #184, .F. ) ;
#350 = EDGE_CURVE ( 'NONE', #244, #326, #199, .T. ) ;
#351 = ORIENTED_EDGE ( 'NONE', *, *, #116, .T. ) ;
ENDSEC;
END-ISO-10303-21;
