ISO-10303-21;
HEADER;
FILE_DESCRIPTION (( 'STEP AP203' ),
    '1' );
FILE_NAME ('OT214-250-254x2_OSTP.step',
    '2021-02-10T12:43:18',
    ( '' ),
    ( '' ),
    'SwSTEP 2.0',
    'SolidWorks 2014',
    '' );
FILE_SCHEMA (( 'CONFIG_CONTROL_DESIGN' ));
ENDSEC;

DATA;
#1 = ORIENTED_EDGE ( 'NONE', *, *, #46, .T. ) ;
#2 = DIRECTION ( 'NONE',  ( 1.000000000000000000, 0.0000000000000000000, 0.0000000000000000000 ) ) ;
#3 = CARTESIAN_POINT ( 'NONE',  ( 349.9999999999999400, 350.0000000000000000, 0.0000000000000000000 ) ) ;
#4 = ADVANCED_BREP_SHAPE_REPRESENTATION ( 'OT214-250-254x2_OSTP', ( #86, #103 ), #142 ) ;
#5 = AXIS2_PLACEMENT_3D ( 'NONE', #68, #191, #44 ) ;
#6 = DATE_AND_TIME ( #59, #195 ) ;
#7 = ORIENTED_EDGE ( 'NONE', *, *, #46, .F. ) ;
#8 = AXIS2_PLACEMENT_3D ( 'NONE', #105, #144, #220 ) ;
#9 = PERSON_AND_ORGANIZATION_ROLE ( 'creator' ) ;
#10 = COORDINATED_UNIVERSAL_TIME_OFFSET ( 1, 0, .AHEAD. ) ;
#11 = VERTEX_POINT ( 'NONE', #140 ) ;
#12 = PERSON_AND_ORGANIZATION_ROLE ( 'design_owner' ) ;
#13 = COORDINATED_UNIVERSAL_TIME_OFFSET ( 1, 0, .AHEAD. ) ;
#14 = CIRCLE ( 'NONE', #133, 224.9999999999999700 ) ;
#15 = LOCAL_TIME ( 13, 43, 18.00000000000000000, #10 ) ;
#16 = DESIGN_CONTEXT ( 'detailed design', #225, 'design' ) ;
#17 = AXIS2_PLACEMENT_3D ( 'NONE', #219, #107, #24 ) ;
#18 = ORIENTED_EDGE ( 'NONE', *, *, #123, .T. ) ;
#19 = AXIS2_PLACEMENT_3D ( 'NONE', #194, #47, #74 ) ;
#20 = CARTESIAN_POINT ( 'NONE',  ( 350.0000000000000000, 0.0000000000000000000, 0.0000000000000000000 ) ) ;
#21 = VERTEX_POINT ( 'NONE', #193 ) ;
#22 = DIRECTION ( 'NONE',  ( 1.000000000000000000, 0.0000000000000000000, 0.0000000000000000000 ) ) ;
#23 = DIRECTION ( 'NONE',  ( 0.0000000000000000000, 0.0000000000000000000, 1.000000000000000000 ) ) ;
#24 = DIRECTION ( 'NONE',  ( 1.000000000000000000, 0.0000000000000000000, 0.0000000000000000000 ) ) ;
#25 = CALENDAR_DATE ( 2021, 10, 2 ) ;
#26 = EDGE_LOOP ( 'NONE', ( #50, #83, #18, #84 ) ) ;
#27 = VERTEX_POINT ( 'NONE', #174 ) ;
#28 = CC_DESIGN_PERSON_AND_ORGANIZATION_ASSIGNMENT ( #215, #9, ( #115 ) ) ;
#29 = CARTESIAN_POINT ( 'NONE',  ( 0.0000000000000000000, 0.0000000000000000000, 0.0000000000000000000 ) ) ;
#30 = CARTESIAN_POINT ( 'NONE',  ( 0.0000000000000000000, 0.0000000000000000000, 0.0000000000000000000 ) ) ;
#31 = ORIENTED_EDGE ( 'NONE', *, *, #217, .T. ) ;
#32 = APPROVAL_ROLE ( '' ) ;
#33 = APPROVAL_ROLE ( '' ) ;
#34 = COORDINATED_UNIVERSAL_TIME_OFFSET ( 1, 0, .AHEAD. ) ;
#35 = ORIENTED_EDGE ( 'NONE', *, *, #170, .T. ) ;
#36 = SECURITY_CLASSIFICATION ( '', '', #148 ) ;
#37 = ORIENTED_EDGE ( 'NONE', *, *, #71, .T. ) ;
#38 = VERTEX_POINT ( 'NONE', #214 ) ;
#39 = ADVANCED_FACE ( 'NONE', ( #147 ), #227, .T. ) ;
#40 = DATE_AND_TIME ( #25, #205 ) ;
#41 = CC_DESIGN_DATE_AND_TIME_ASSIGNMENT ( #79, #204, ( #115 ) ) ;
#42 = DIRECTION ( 'NONE',  ( 1.000000000000000000, 0.0000000000000000000, 0.0000000000000000000 ) ) ;
#43 = VERTEX_POINT ( 'NONE', #211 ) ;
#44 = DIRECTION ( 'NONE',  ( 1.000000000000000000, 0.0000000000000000000, 0.0000000000000000000 ) ) ;
#45 = ORIENTED_EDGE ( 'NONE', *, *, #180, .T. ) ;
#46 = EDGE_CURVE ( 'NONE', #66, #21, #173, .T. ) ;
#47 = DIRECTION ( 'NONE',  ( 1.000000000000000000, 6.123233995736766000E-017, -0.0000000000000000000 ) ) ;
#48 = CALENDAR_DATE ( 2021, 10, 2 ) ;
#49 = PLANE ( 'NONE',  #19 ) ;
#50 = ORIENTED_EDGE ( 'NONE', *, *, #71, .F. ) ;
#51 = APPROVAL ( #241, 'UNSPECIFIED' ) ;
#52 = DIRECTION ( 'NONE',  ( 0.0000000000000000000, 0.0000000000000000000, 1.000000000000000000 ) ) ;
#53 = APPROVAL_STATUS ( 'not_yet_approved' ) ;
#54 = EDGE_CURVE ( 'NONE', #21, #183, #57, .T. ) ;
#55 = APPROVAL_ROLE ( '' ) ;
#56 = PERSON_AND_ORGANIZATION ( #250, #186 ) ;
#57 = CIRCLE ( 'NONE', #208, 475.0000000000000000 ) ;
#58 = AXIS2_PLACEMENT_3D ( 'NONE', #69, #200, #73 ) ;
#59 = CALENDAR_DATE ( 2021, 10, 2 ) ;
#60 = ORIENTED_EDGE ( 'NONE', *, *, #190, .T. ) ;
#61 = ORIENTED_EDGE ( 'NONE', *, *, #170, .F. ) ;
#62 = ADVANCED_FACE ( 'NONE', ( #251 ), #154, .F. ) ;
#63 = COORDINATED_UNIVERSAL_TIME_OFFSET ( 1, 0, .AHEAD. ) ;
#64 = CC_DESIGN_PERSON_AND_ORGANIZATION_ASSIGNMENT ( #114, #162, ( #36 ) ) ;
#65 = LOCAL_TIME ( 13, 43, 18.00000000000000000, #34 ) ;
#66 = VERTEX_POINT ( 'NONE', #117 ) ;
#67 = EDGE_LOOP ( 'NONE', ( #181, #60 ) ) ;
#68 = CARTESIAN_POINT ( 'NONE',  ( 350.0000000000000000, 0.0000000000000000000, 0.0000000000000000000 ) ) ;
#69 = CARTESIAN_POINT ( 'NONE',  ( 350.0000000000000000, 0.0000000000000000000, 0.0000000000000000000 ) ) ;
#70 = DIRECTION ( 'NONE',  ( 0.0000000000000000000, 0.0000000000000000000, 1.000000000000000000 ) ) ;
#71 = EDGE_CURVE ( 'NONE', #43, #228, #171, .T. ) ;
#72 = DIRECTION ( 'NONE',  ( 0.0000000000000000000, 0.0000000000000000000, 1.000000000000000000 ) ) ;
#73 = DIRECTION ( 'NONE',  ( 1.000000000000000000, 0.0000000000000000000, 0.0000000000000000000 ) ) ;
#74 = DIRECTION ( 'NONE',  ( 0.0000000000000000000, 0.0000000000000000000, 1.000000000000000000 ) ) ;
#75 = PLANE ( 'NONE',  #210 ) ;
#76 = TOROIDAL_SURFACE ( 'NONE', #17, 350.0000000000000000, 125.0000000000000000 ) ;
#77 = AXIS2_PLACEMENT_3D ( 'NONE', #20, #70, #22 ) ;
#78 = ORIENTED_EDGE ( 'NONE', *, *, #199, .T. ) ;
#79 = DATE_AND_TIME ( #235, #65 ) ;
#80 = DIRECTION ( 'NONE',  ( 1.000000000000000000, 0.0000000000000000000, 0.0000000000000000000 ) ) ;
#81 = APPLICATION_PROTOCOL_DEFINITION ( 'international standard', 'config_control_design', 1994, #163 ) ;
#82 = APPROVAL ( #130, 'UNSPECIFIED' ) ;
#83 = ORIENTED_EDGE ( 'NONE', *, *, #184, .F. ) ;
#84 = ORIENTED_EDGE ( 'NONE', *, *, #247, .T. ) ;
#85 = AXIS2_PLACEMENT_3D ( 'NONE', #155, #156, #253 ) ;
#86 = MANIFOLD_SOLID_BREP ( 'cut-body', #127 ) ;
#87 = CALENDAR_DATE ( 2021, 10, 2 ) ;
#88 = ORIENTED_EDGE ( 'NONE', *, *, #158, .T. ) ;
#89 = PRODUCT_RELATED_PRODUCT_CATEGORY ( 'detail', '', ( #169 ) ) ;
#90 = CIRCLE ( 'NONE', #8, 127.0000000000000000 ) ;
#91 = DIRECTION ( 'NONE',  ( 0.0000000000000000000, 0.0000000000000000000, 1.000000000000000000 ) ) ;
#92 = CC_DESIGN_DATE_AND_TIME_ASSIGNMENT ( #93, #224, ( #36 ) ) ;
#93 = DATE_AND_TIME ( #87, #15 ) ;
#94 = CARTESIAN_POINT ( 'NONE',  ( 0.0000000000000000000, 0.0000000000000000000, 0.0000000000000000000 ) ) ;
#95 = TOROIDAL_SURFACE ( 'NONE', #58, 350.0000000000000000, 127.0000000000000000 ) ;
#96 = DIRECTION ( 'NONE',  ( 1.000000000000000000, 0.0000000000000000000, 0.0000000000000000000 ) ) ;
#97 = ORIENTED_EDGE ( 'NONE', *, *, #180, .F. ) ;
#98 = CARTESIAN_POINT ( 'NONE',  ( 0.0000000000000000000, 0.0000000000000000000, 0.0000000000000000000 ) ) ;
#99 = CIRCLE ( 'NONE', #231, 125.0000000000000000 ) ;
#100 = CC_DESIGN_APPROVAL ( #51, ( #36 ) ) ;
#101 = ORIENTED_EDGE ( 'NONE', *, *, #247, .F. ) ;
#102 = CARTESIAN_POINT ( 'NONE',  ( 350.0000000000000000, 0.0000000000000000000, 0.0000000000000000000 ) ) ;
#103 = AXIS2_PLACEMENT_3D ( 'NONE', #98, #52, #80 ) ;
#104 = PERSON_AND_ORGANIZATION ( #250, #186 ) ;
#105 = CARTESIAN_POINT ( 'NONE',  ( 349.9999999999999400, 350.0000000000000000, 0.0000000000000000000 ) ) ;
#106 = CARTESIAN_POINT ( 'NONE',  ( 350.0000000000000000, 350.0000000000000000, 0.0000000000000000000 ) ) ;
#107 = DIRECTION ( 'NONE',  ( 0.0000000000000000000, 0.0000000000000000000, 1.000000000000000000 ) ) ;
#108 = FACE_BOUND ( 'NONE', #207, .T. ) ;
#109 =( LENGTH_UNIT ( ) NAMED_UNIT ( * ) SI_UNIT ( .MILLI., .METRE. ) );
#110 =( NAMED_UNIT ( * ) PLANE_ANGLE_UNIT ( ) SI_UNIT ( $, .RADIAN. ) );
#111 = PERSON_AND_ORGANIZATION_ROLE ( 'design_supplier' ) ;
#112 = APPROVAL_DATE_TIME ( #252, #51 ) ;
#113 = ORIENTED_EDGE ( 'NONE', *, *, #190, .F. ) ;
#114 = PERSON_AND_ORGANIZATION ( #250, #186 ) ;
#115 = PRODUCT_DEFINITION ( 'UNKNOWN', '', #187, #16 ) ;
#116 = PERSON_AND_ORGANIZATION ( #250, #186 ) ;
#117 = CARTESIAN_POINT ( 'NONE',  ( 350.0000000000000000, 224.9999999999999700, -1.530808498934191600E-014 ) ) ;
#118 = CIRCLE ( 'NONE', #129, 125.0000000000000000 ) ;
#119 = CC_DESIGN_SECURITY_CLASSIFICATION ( #36, ( #187 ) ) ;
#120 = DIRECTION ( 'NONE',  ( 0.0000000000000000000, 0.0000000000000000000, 1.000000000000000000 ) ) ;
#121 = CARTESIAN_POINT ( 'NONE',  ( -125.0000000000000000, 0.0000000000000000000, 0.0000000000000000000 ) ) ;
#122 = DIRECTION ( 'NONE',  ( 0.0000000000000000000, 1.000000000000000000, 0.0000000000000000000 ) ) ;
#123 = EDGE_CURVE ( 'NONE', #11, #27, #221, .T. ) ;
#124 = DIRECTION ( 'NONE',  ( 0.0000000000000000000, 0.0000000000000000000, 1.000000000000000000 ) ) ;
#125 = PERSON_AND_ORGANIZATION ( #250, #186 ) ;
#126 = FACE_OUTER_BOUND ( 'NONE', #26, .T. ) ;
#127 = CLOSED_SHELL ( 'NONE', ( #212, #39, #139, #249, #185, #62 ) ) ;
#128 = DIRECTION ( 'NONE',  ( 0.0000000000000000000, 1.000000000000000000, 0.0000000000000000000 ) ) ;
#129 = AXIS2_PLACEMENT_3D ( 'NONE', #236, #122, #23 ) ;
#130 = APPROVAL_STATUS ( 'not_yet_approved' ) ;
#131 = COORDINATED_UNIVERSAL_TIME_OFFSET ( 1, 0, .AHEAD. ) ;
#132 = EDGE_LOOP ( 'NONE', ( #188, #35, #88, #97 ) ) ;
#133 = AXIS2_PLACEMENT_3D ( 'NONE', #159, #91, #218 ) ;
#134 = ORIENTED_EDGE ( 'NONE', *, *, #217, .F. ) ;
#135 = EDGE_LOOP ( 'NONE', ( #101, #209 ) ) ;
#136 = APPROVAL_DATE_TIME ( #6, #206 ) ;
#137 = EDGE_LOOP ( 'NONE', ( #1, #160, #134, #177 ) ) ;
#138 = CC_DESIGN_APPROVAL ( #206, ( #187 ) ) ;
#139 = ADVANCED_FACE ( 'NONE', ( #126 ), #95, .T. ) ;
#140 = CARTESIAN_POINT ( 'NONE',  ( 349.9999999999999400, 222.9999999999999700, -1.555301434917138600E-014 ) ) ;
#141 = ORIENTED_EDGE ( 'NONE', *, *, #123, .F. ) ;
#142 =( GEOMETRIC_REPRESENTATION_CONTEXT ( 3 ) GLOBAL_UNCERTAINTY_ASSIGNED_CONTEXT ( ( #189 ) ) GLOBAL_UNIT_ASSIGNED_CONTEXT ( ( #109, #110, #240 ) ) REPRESENTATION_CONTEXT ( 'NONE', 'WORKASPACE' ) );
#143 = LOCAL_TIME ( 13, 43, 18.00000000000000000, #13 ) ;
#144 = DIRECTION ( 'NONE',  ( 1.000000000000000000, 6.123233995736766000E-017, 0.0000000000000000000 ) ) ;
#145 = DIRECTION ( 'NONE',  ( 0.0000000000000000000, 0.0000000000000000000, 1.000000000000000000 ) ) ;
#146 = CC_DESIGN_PERSON_AND_ORGANIZATION_ASSIGNMENT ( #116, #12, ( #169 ) ) ;
#147 = FACE_OUTER_BOUND ( 'NONE', #230, .T. ) ;
#148 = SECURITY_CLASSIFICATION_LEVEL ( 'unclassified' ) ;
#149 = FACE_OUTER_BOUND ( 'NONE', #135, .T. ) ;
#150 = AXIS2_PLACEMENT_3D ( 'NONE', #239, #176, #124 ) ;
#151 = CIRCLE ( 'NONE', #150, 127.0000000000000000 ) ;
#152 = AXIS2_PLACEMENT_3D ( 'NONE', #106, #179, #238 ) ;
#153 = APPROVAL_PERSON_ORGANIZATION ( #182, #206, #55 ) ;
#154 = TOROIDAL_SURFACE ( 'NONE', #5, 350.0000000000000000, 125.0000000000000000 ) ;
#155 = CARTESIAN_POINT ( 'NONE',  ( 350.0000000000000000, 350.0000000000000000, 0.0000000000000000000 ) ) ;
#156 = DIRECTION ( 'NONE',  ( 1.000000000000000000, 6.123233995736766000E-017, 0.0000000000000000000 ) ) ;
#157 = DIRECTION ( 'NONE',  ( 0.0000000000000000000, 1.000000000000000000, 0.0000000000000000000 ) ) ;
#158 = EDGE_CURVE ( 'NONE', #66, #38, #14, .T. ) ;
#159 = CARTESIAN_POINT ( 'NONE',  ( 350.0000000000000000, 0.0000000000000000000, -1.530808498934191600E-014 ) ) ;
#160 = ORIENTED_EDGE ( 'NONE', *, *, #54, .T. ) ;
#161 = DIRECTION ( 'NONE',  ( 0.0000000000000000000, -0.0000000000000000000, 1.000000000000000000 ) ) ;
#162 = PERSON_AND_ORGANIZATION_ROLE ( 'classification_officer' ) ;
#163 = APPLICATION_CONTEXT ( 'configuration controlled 3d designs of mechanical parts and assemblies' ) ;
#164 = CC_DESIGN_APPROVAL ( #82, ( #115 ) ) ;
#165 = APPLICATION_PROTOCOL_DEFINITION ( 'international standard', 'config_control_design', 1994, #225 ) ;
#166 = CIRCLE ( 'NONE', #167, 127.0000000000000000 ) ;
#167 = AXIS2_PLACEMENT_3D ( 'NONE', #3, #234, #198 ) ;
#168 = PERSON_AND_ORGANIZATION ( #250, #186 ) ;
#169 = PRODUCT ( 'OT214-250-254x2_OSTP', 'OT214-250-254x2_OSTP', '', ( #203 ) ) ;
#170 = EDGE_CURVE ( 'NONE', #21, #66, #197, .T. ) ;
#171 = CIRCLE ( 'NONE', #77, 477.0000000000000000 ) ;
#172 = CARTESIAN_POINT ( 'NONE',  ( 350.0000000000000000, 0.0000000000000000000, 0.0000000000000000000 ) ) ;
#173 = CIRCLE ( 'NONE', #85, 125.0000000000000000 ) ;
#174 = CARTESIAN_POINT ( 'NONE',  ( 127.0000000000000000, 0.0000000000000000000, -1.555301434917138600E-014 ) ) ;
#175 = AXIS2_PLACEMENT_3D ( 'NONE', #216, #145, #96 ) ;
#176 = DIRECTION ( 'NONE',  ( 0.0000000000000000000, 1.000000000000000000, 0.0000000000000000000 ) ) ;
#177 = ORIENTED_EDGE ( 'NONE', *, *, #158, .F. ) ;
#178 = DIRECTION ( 'NONE',  ( 0.0000000000000000000, 0.0000000000000000000, 1.000000000000000000 ) ) ;
#179 = DIRECTION ( 'NONE',  ( 1.000000000000000000, 6.123233995736766000E-017, 0.0000000000000000000 ) ) ;
#180 = EDGE_CURVE ( 'NONE', #183, #38, #118, .T. ) ;
#181 = ORIENTED_EDGE ( 'NONE', *, *, #184, .T. ) ;
#182 = PERSON_AND_ORGANIZATION ( #250, #186 ) ;
#183 = VERTEX_POINT ( 'NONE', #121 ) ;
#184 = EDGE_CURVE ( 'NONE', #11, #43, #166, .T. ) ;
#185 = ADVANCED_FACE ( 'NONE', ( #108, #149 ), #75, .F. ) ;
#186 = ORGANIZATION ( 'UNSPECIFIED', 'UNSPECIFIED', '' ) ;
#187 = PRODUCT_DEFINITION_FORMATION_WITH_SPECIFIED_SOURCE ( 'ANY', '', #169, .NOT_KNOWN. ) ;
#188 = ORIENTED_EDGE ( 'NONE', *, *, #54, .F. ) ;
#189 = UNCERTAINTY_MEASURE_WITH_UNIT (LENGTH_MEASURE( 1.000000000000000100E-005 ), #109, 'distance_accuracy_value', 'NONE');
#190 = EDGE_CURVE ( 'NONE', #43, #11, #90, .T. ) ;
#191 = DIRECTION ( 'NONE',  ( 0.0000000000000000000, 0.0000000000000000000, 1.000000000000000000 ) ) ;
#192 = FACE_OUTER_BOUND ( 'NONE', #67, .T. ) ;
#193 = CARTESIAN_POINT ( 'NONE',  ( 350.0000000000000000, 475.0000000000000000, 0.0000000000000000000 ) ) ;
#194 = CARTESIAN_POINT ( 'NONE',  ( 349.9999999999999400, 350.0000000000000000, 0.0000000000000000000 ) ) ;
#195 = LOCAL_TIME ( 13, 43, 18.00000000000000000, #131 ) ;
#196 = CARTESIAN_POINT ( 'NONE',  ( -127.0000000000000000, 0.0000000000000000000, 0.0000000000000000000 ) ) ;
#197 = CIRCLE ( 'NONE', #152, 125.0000000000000000 ) ;
#198 = DIRECTION ( 'NONE',  ( 0.0000000000000000000, 0.0000000000000000000, 1.000000000000000000 ) ) ;
#199 = EDGE_CURVE ( 'NONE', #228, #27, #202, .T. ) ;
#200 = DIRECTION ( 'NONE',  ( 0.0000000000000000000, 0.0000000000000000000, 1.000000000000000000 ) ) ;
#201 = APPROVAL_DATE_TIME ( #40, #82 ) ;
#202 = CIRCLE ( 'NONE', #223, 127.0000000000000000 ) ;
#203 = MECHANICAL_CONTEXT ( 'NONE', #163, 'mechanical' ) ;
#204 = DATE_TIME_ROLE ( 'creation_date' ) ;
#205 = LOCAL_TIME ( 13, 43, 18.00000000000000000, #63 ) ;
#206 = APPROVAL ( #53, 'UNSPECIFIED' ) ;
#207 = EDGE_LOOP ( 'NONE', ( #31, #45 ) ) ;
#208 = AXIS2_PLACEMENT_3D ( 'NONE', #172, #120, #2 ) ;
#209 = ORIENTED_EDGE ( 'NONE', *, *, #199, .F. ) ;
#210 = AXIS2_PLACEMENT_3D ( 'NONE', #30, #157, #161 ) ;
#211 = CARTESIAN_POINT ( 'NONE',  ( 349.9999999999998900, 477.0000000000000000, 0.0000000000000000000 ) ) ;
#212 = ADVANCED_FACE ( 'NONE', ( #213 ), #76, .F. ) ;
#213 = FACE_OUTER_BOUND ( 'NONE', #137, .T. ) ;
#214 = CARTESIAN_POINT ( 'NONE',  ( 125.0000000000000000, 0.0000000000000000000, -1.530808498934191600E-014 ) ) ;
#215 = PERSON_AND_ORGANIZATION ( #250, #186 ) ;
#216 = CARTESIAN_POINT ( 'NONE',  ( 350.0000000000000000, 0.0000000000000000000, -1.555301434917138600E-014 ) ) ;
#217 = EDGE_CURVE ( 'NONE', #38, #183, #99, .T. ) ;
#218 = DIRECTION ( 'NONE',  ( 1.000000000000000000, 0.0000000000000000000, 0.0000000000000000000 ) ) ;
#219 = CARTESIAN_POINT ( 'NONE',  ( 350.0000000000000000, 0.0000000000000000000, 0.0000000000000000000 ) ) ;
#220 = DIRECTION ( 'NONE',  ( 0.0000000000000000000, 0.0000000000000000000, 1.000000000000000000 ) ) ;
#221 = CIRCLE ( 'NONE', #175, 222.9999999999999700 ) ;
#222 = DIRECTION ( 'NONE',  ( 0.0000000000000000000, 1.000000000000000000, 0.0000000000000000000 ) ) ;
#223 = AXIS2_PLACEMENT_3D ( 'NONE', #94, #222, #178 ) ;
#224 = DATE_TIME_ROLE ( 'classification_date' ) ;
#225 = APPLICATION_CONTEXT ( 'configuration controlled 3d designs of mechanical parts and assemblies' ) ;
#226 = APPROVAL_PERSON_ORGANIZATION ( #125, #82, #32 ) ;
#227 = TOROIDAL_SURFACE ( 'NONE', #242, 350.0000000000000000, 127.0000000000000000 ) ;
#228 = VERTEX_POINT ( 'NONE', #196 ) ;
#229 = CC_DESIGN_PERSON_AND_ORGANIZATION_ASSIGNMENT ( #168, #111, ( #187 ) ) ;
#230 = EDGE_LOOP ( 'NONE', ( #113, #37, #78, #141 ) ) ;
#231 = AXIS2_PLACEMENT_3D ( 'NONE', #29, #128, #72 ) ;
#232 = SHAPE_DEFINITION_REPRESENTATION ( #248, #4 ) ;
#233 = DIRECTION ( 'NONE',  ( 0.0000000000000000000, 0.0000000000000000000, 1.000000000000000000 ) ) ;
#234 = DIRECTION ( 'NONE',  ( 1.000000000000000000, 6.123233995736766000E-017, 0.0000000000000000000 ) ) ;
#235 = CALENDAR_DATE ( 2021, 10, 2 ) ;
#236 = CARTESIAN_POINT ( 'NONE',  ( 0.0000000000000000000, 0.0000000000000000000, 0.0000000000000000000 ) ) ;
#237 = CC_DESIGN_PERSON_AND_ORGANIZATION_ASSIGNMENT ( #56, #245, ( #187 ) ) ;
#238 = DIRECTION ( 'NONE',  ( 0.0000000000000000000, 1.000000000000000000, 0.0000000000000000000 ) ) ;
#239 = CARTESIAN_POINT ( 'NONE',  ( 0.0000000000000000000, 0.0000000000000000000, 0.0000000000000000000 ) ) ;
#240 =( NAMED_UNIT ( * ) SI_UNIT ( $, .STERADIAN. ) SOLID_ANGLE_UNIT ( ) );
#241 = APPROVAL_STATUS ( 'not_yet_approved' ) ;
#242 = AXIS2_PLACEMENT_3D ( 'NONE', #102, #233, #42 ) ;
#243 = APPROVAL_PERSON_ORGANIZATION ( #104, #51, #33 ) ;
#244 = EDGE_LOOP ( 'NONE', ( #7, #61 ) ) ;
#245 = PERSON_AND_ORGANIZATION_ROLE ( 'creator' ) ;
#246 = FACE_BOUND ( 'NONE', #244, .T. ) ;
#247 = EDGE_CURVE ( 'NONE', #27, #228, #151, .T. ) ;
#248 = PRODUCT_DEFINITION_SHAPE ( 'NONE', 'NONE',  #115 ) ;
#249 = ADVANCED_FACE ( 'NONE', ( #246, #192 ), #49, .T. ) ;
#250 = PERSON ( 'UNSPECIFIED', 'UNSPECIFIED', 'UNSPECIFIED', ('UNSPECIFIED'), ('UNSPECIFIED'), ('UNSPECIFIED') ) ;
#251 = FACE_OUTER_BOUND ( 'NONE', #132, .T. ) ;
#252 = DATE_AND_TIME ( #48, #143 ) ;
#253 = DIRECTION ( 'NONE',  ( 0.0000000000000000000, 1.000000000000000000, 0.0000000000000000000 ) ) ;
ENDSEC;
END-ISO-10303-21;
