ISO-10303-21;
HEADER;
FILE_DESCRIPTION (( 'STEP AP203' ),
    '1' );
FILE_NAME ('19-0408-43_outokumpu.step',
    '2015-08-11T09:38:12',
    ( '' ),
    ( '' ),
    'SwSTEP 2.0',
    'SolidWorks 2008',
    '' );
FILE_SCHEMA (( 'CONFIG_CONTROL_DESIGN' ));
ENDSEC;

DATA;
#1 = EDGE_CURVE ( 'NONE', #63, #52, #205, .T. ) ;
#2 = ORIENTED_EDGE ( 'NONE', *, *, #206, .F. ) ;
#3 = VERTEX_POINT ( 'NONE', #201 ) ;
#4 = ORIENTED_EDGE ( 'NONE', *, *, #1, .T. ) ;
#5 = ORIENTED_EDGE ( 'NONE', *, *, #60, .F. ) ;
#6 = ORIENTED_EDGE ( 'NONE', *, *, #10, .F. ) ;
#7 = EDGE_CURVE ( 'NONE', #52, #44, #200, .T. ) ;
#8 = EDGE_LOOP ( 'NONE', ( #37, #38, #16, #45, #20 ) ) ;
#9 = VERTEX_POINT ( 'NONE', #192 ) ;
#10 = EDGE_CURVE ( 'NONE', #9, #108, #190, .T. ) ;
#11 = ORIENTED_EDGE ( 'NONE', *, *, #12, .F. ) ;
#12 = EDGE_CURVE ( 'NONE', #197, #9, #191, .T. ) ;
#13 = EDGE_CURVE ( 'NONE', #44, #46, #93, .T. ) ;
#14 = EDGE_LOOP ( 'NONE', ( #75, #126, #6, #11 ) ) ;
#15 = EDGE_CURVE ( 'NONE', #26, #30, #89, .T. ) ;
#16 = ORIENTED_EDGE ( 'NONE', *, *, #154, .F. ) ;
#17 = VERTEX_POINT ( 'NONE', #85 ) ;
#18 = EDGE_LOOP ( 'NONE', ( #27, #22, #23, #53 ) ) ;
#19 = ADVANCED_FACE ( 'NONE', ( #84 ), #82, .F. ) ;
#20 = ORIENTED_EDGE ( 'NONE', *, *, #206, .T. ) ;
#21 = EDGE_CURVE ( 'NONE', #30, #24, #78, .T. ) ;
#22 = ORIENTED_EDGE ( 'NONE', *, *, #25, .T. ) ;
#23 = ORIENTED_EDGE ( 'NONE', *, *, #21, .F. ) ;
#24 = VERTEX_POINT ( 'NONE', #71 ) ;
#25 = EDGE_CURVE ( 'NONE', #31, #24, #70, .T. ) ;
#26 = VERTEX_POINT ( 'NONE', #66 ) ;
#27 = ORIENTED_EDGE ( 'NONE', *, *, #28, .T. ) ;
#28 = EDGE_CURVE ( 'NONE', #26, #31, #65, .T. ) ;
#29 = MANIFOLD_SOLID_BREP ( 'NONE', #150 ) ;
#30 = VERTEX_POINT ( 'NONE', #104 ) ;
#31 = VERTEX_POINT ( 'NONE', #103 ) ;
#32 = ADVANCED_FACE ( 'NONE', ( #102 ), #100, .F. ) ;
#33 = ORIENTED_EDGE ( 'NONE', *, *, #34, .F. ) ;
#34 = EDGE_CURVE ( 'NONE', #35, #47, #136, .T. ) ;
#35 = VERTEX_POINT ( 'NONE', #132 ) ;
#36 = EDGE_LOOP ( 'NONE', ( #43, #54, #56, #167 ) ) ;
#37 = ORIENTED_EDGE ( 'NONE', *, *, #7, .T. ) ;
#38 = ORIENTED_EDGE ( 'NONE', *, *, #13, .T. ) ;
#39 = VERTEX_POINT ( 'NONE', #131 ) ;
#40 = ORIENTED_EDGE ( 'NONE', *, *, #41, .F. ) ;
#41 = EDGE_CURVE ( 'NONE', #3, #35, #130, .T. ) ;
#42 = ADVANCED_FACE ( 'NONE', ( #147 ), #146, .F. ) ;
#43 = ORIENTED_EDGE ( 'NONE', *, *, #28, .F. ) ;
#44 = VERTEX_POINT ( 'NONE', #145 ) ;
#45 = ORIENTED_EDGE ( 'NONE', *, *, #58, .F. ) ;
#46 = VERTEX_POINT ( 'NONE', #140 ) ;
#47 = VERTEX_POINT ( 'NONE', #139 ) ;
#48 = ORIENTED_EDGE ( 'NONE', *, *, #49, .F. ) ;
#49 = EDGE_CURVE ( 'NONE', #39, #197, #118, .T. ) ;
#50 = EDGE_LOOP ( 'NONE', ( #51, #161 ) ) ;
#51 = ORIENTED_EDGE ( 'NONE', *, *, #21, .T. ) ;
#52 = VERTEX_POINT ( 'NONE', #113 ) ;
#53 = ORIENTED_EDGE ( 'NONE', *, *, #15, .F. ) ;
#54 = ORIENTED_EDGE ( 'NONE', *, *, #55, .T. ) ;
#55 = EDGE_CURVE ( 'NONE', #26, #17, #112, .T. ) ;
#56 = ORIENTED_EDGE ( 'NONE', *, *, #154, .T. ) ;
#57 = EDGE_LOOP ( 'NONE', ( #5, #48 ) ) ;
#58 = EDGE_CURVE ( 'NONE', #47, #17, #282, .T. ) ;
#59 = EDGE_CURVE ( 'NONE', #63, #3, #233, .T. ) ;
#60 = EDGE_CURVE ( 'NONE', #197, #39, #299, .T. ) ;
#61 = ADVANCED_FACE ( 'NONE', ( #342 ), #212, .T. ) ;
#62 = ORIENTED_EDGE ( 'NONE', *, *, #59, .F. ) ;
#63 = VERTEX_POINT ( 'NONE', #255 ) ;
#64 = CARTESIAN_POINT ( 'NONE',  ( 0.0000000000000000000, 0.0000000000000000000, -119.7090750693642900 ) ) ;
#65 = CIRCLE ( 'NONE', #107, 8.330999999999997700 ) ;
#66 = CARTESIAN_POINT ( 'NONE',  ( -8.330999999999997700, 1.020219553369422300E-015, -119.7090750693642900 ) ) ;
#67 = DIRECTION ( 'NONE',  ( 0.7071067811865517900, 8.659274570719408400E-017, -0.7071067811865433500 ) ) ;
#68 = VECTOR ( 'NONE', #67, 1000.000000000000000 ) ;
#69 = CARTESIAN_POINT ( 'NONE',  ( 8.621924930635707100, 1.055846405223604600E-015, -120.0000000000000000 ) ) ;
#70 = LINE ( 'NONE', #69, #68 ) ;
#71 = CARTESIAN_POINT ( 'NONE',  ( 8.621924930635707100, 1.055846405223604600E-015, -120.0000000000000000 ) ) ;
#72 = DIRECTION ( 'NONE',  ( 1.000000000000000000, 0.0000000000000000000, 0.0000000000000000000 ) ) ;
#73 = DIRECTION ( 'NONE',  ( -0.0000000000000000000, -0.0000000000000000000, 1.000000000000000000 ) ) ;
#74 = EDGE_CURVE ( 'NONE', #3, #63, #314, .T. ) ;
#75 = ORIENTED_EDGE ( 'NONE', *, *, #60, .T. ) ;
#76 = CARTESIAN_POINT ( 'NONE',  ( 0.0000000000000000000, 0.0000000000000000000, -120.0000000000000000 ) ) ;
#77 = AXIS2_PLACEMENT_3D ( 'NONE', #76, #73, #72 ) ;
#78 = CIRCLE ( 'NONE', #77, 8.621924930635707100 ) ;
#79 = DIRECTION ( 'NONE',  ( -1.000000000000000000, 0.0000000000000000000, 0.0000000000000000000 ) ) ;
#80 = DIRECTION ( 'NONE',  ( 0.0000000000000000000, 0.0000000000000000000, -1.000000000000000000 ) ) ;
#81 = AXIS2_PLACEMENT_3D ( 'NONE', #83, #80, #79 ) ;
#82 = CONICAL_SURFACE ( 'NONE', #81, 8.330999999999997700, 0.9077747214735943900 ) ;
#83 = CARTESIAN_POINT ( 'NONE',  ( 0.0000000000000000000, 0.0000000000000000000, -108.6684999999999800 ) ) ;
#84 = FACE_OUTER_BOUND ( 'NONE', #8, .T. ) ;
#85 = CARTESIAN_POINT ( 'NONE',  ( -8.330999999999997700, 1.020219553369422300E-015, -108.6684999999999800 ) ) ;
#86 = DIRECTION ( 'NONE',  ( -0.7071067811865517900, 0.0000000000000000000, -0.7071067811865433500 ) ) ;
#87 = VECTOR ( 'NONE', #86, 1000.000000000000000 ) ;
#88 = CARTESIAN_POINT ( 'NONE',  ( -8.621924930635707100, 0.0000000000000000000, -120.0000000000000000 ) ) ;
#89 = LINE ( 'NONE', #88, #87 ) ;
#90 = DIRECTION ( 'NONE',  ( 0.7881360308231405400, 9.651563910223668400E-017, -0.6155010941650271800 ) ) ;
#91 = VECTOR ( 'NONE', #90, 1000.000000000000000 ) ;
#92 = CARTESIAN_POINT ( 'NONE',  ( 8.330999999999997700, 1.020219553369422300E-015, -108.6684999999999800 ) ) ;
#93 = LINE ( 'NONE', #92, #91 ) ;
#94 = DIRECTION ( 'NONE',  ( -0.0000000000000000000, -0.0000000000000000000, 1.000000000000000000 ) ) ;
#95 = VECTOR ( 'NONE', #94, 1000.000000000000000 ) ;
#96 = CARTESIAN_POINT ( 'NONE',  ( 0.0000000000000000000, 0.0000000000000000000, -107.9999999999999900 ) ) ;
#97 = DIRECTION ( 'NONE',  ( -1.000000000000000000, 0.0000000000000000000, 0.0000000000000000000 ) ) ;
#98 = DIRECTION ( 'NONE',  ( 0.0000000000000000000, 0.0000000000000000000, -1.000000000000000000 ) ) ;
#99 = AXIS2_PLACEMENT_3D ( 'NONE', #101, #98, #97 ) ;
#100 = CONICAL_SURFACE ( 'NONE', #99, 8.621924930635707100, 0.7853981633974542700 ) ;
#101 = CARTESIAN_POINT ( 'NONE',  ( 0.0000000000000000000, 0.0000000000000000000, -120.0000000000000000 ) ) ;
#102 = FACE_OUTER_BOUND ( 'NONE', #18, .T. ) ;
#103 = CARTESIAN_POINT ( 'NONE',  ( 8.330999999999997700, 0.0000000000000000000, -119.7090750693642900 ) ) ;
#104 = CARTESIAN_POINT ( 'NONE',  ( -8.621924930635707100, 0.0000000000000000000, -120.0000000000000000 ) ) ;
#105 = DIRECTION ( 'NONE',  ( 1.000000000000000000, 0.0000000000000000000, 0.0000000000000000000 ) ) ;
#106 = DIRECTION ( 'NONE',  ( -0.0000000000000000000, -0.0000000000000000000, 1.000000000000000000 ) ) ;
#107 = AXIS2_PLACEMENT_3D ( 'NONE', #64, #106, #105 ) ;
#108 = VERTEX_POINT ( 'NONE', #288 ) ;
#109 = DIRECTION ( 'NONE',  ( -0.0000000000000000000, -0.0000000000000000000, 1.000000000000000000 ) ) ;
#110 = VECTOR ( 'NONE', #109, 1000.000000000000000 ) ;
#111 = CARTESIAN_POINT ( 'NONE',  ( -8.330999999999997700, 1.020219553369422300E-015, -4.336808689942017700E-016 ) ) ;
#112 = LINE ( 'NONE', #111, #110 ) ;
#113 = CARTESIAN_POINT ( 'NONE',  ( 9.153932494822262900E-016, -7.474999999999985400, -107.9999999999999900 ) ) ;
#114 = DIRECTION ( 'NONE',  ( 1.000000000000000000, 0.0000000000000000000, 0.0000000000000000000 ) ) ;
#115 = DIRECTION ( 'NONE',  ( -0.0000000000000000000, -0.0000000000000000000, 1.000000000000000000 ) ) ;
#116 = CARTESIAN_POINT ( 'NONE',  ( 0.0000000000000000000, 0.0000000000000000000, -120.0000000000000000 ) ) ;
#117 = AXIS2_PLACEMENT_3D ( 'NONE', #116, #115, #114 ) ;
#118 = CIRCLE ( 'NONE', #117, 10.74999999999999800 ) ;
#119 = ORIENTED_EDGE ( 'NONE', *, *, #41, .T. ) ;
#120 = ORIENTED_EDGE ( 'NONE', *, *, #121, .F. ) ;
#121 = EDGE_CURVE ( 'NONE', #108, #9, #286, .T. ) ;
#122 = ADVANCED_FACE ( 'NONE', ( #287, #238 ), #237, .F. ) ;
#123 = EDGE_LOOP ( 'NONE', ( #168, #169 ) ) ;
#124 = EDGE_CURVE ( 'NONE', #31, #26, #236, .T. ) ;
#125 = EDGE_LOOP ( 'NONE', ( #172, #173, #174, #175, #176 ) ) ;
#126 = ORIENTED_EDGE ( 'NONE', *, *, #199, .T. ) ;
#127 = DIRECTION ( 'NONE',  ( -0.0000000000000000000, 3.911744792584116700E-017, -1.000000000000000000 ) ) ;
#128 = VECTOR ( 'NONE', #127, 1000.000000000000000 ) ;
#129 = CARTESIAN_POINT ( 'NONE',  ( 0.0000000000000000000, 7.475000000000001400, -120.0000000000000300 ) ) ;
#130 = LINE ( 'NONE', #129, #128 ) ;
#131 = CARTESIAN_POINT ( 'NONE',  ( -10.74999999999999800, 1.316451830359055200E-015, -120.0000000000000000 ) ) ;
#132 = CARTESIAN_POINT ( 'NONE',  ( 0.0000000000000000000, 7.474999999999985400, -107.9999999999999900 ) ) ;
#133 = DIRECTION ( 'NONE',  ( 1.000000000000000000, 0.0000000000000000000, 0.0000000000000000000 ) ) ;
#134 = DIRECTION ( 'NONE',  ( -0.0000000000000000000, -0.0000000000000000000, 1.000000000000000000 ) ) ;
#135 = AXIS2_PLACEMENT_3D ( 'NONE', #96, #134, #133 ) ;
#136 = CIRCLE ( 'NONE', #135, 7.474999999999985400 ) ;
#137 = EDGE_CURVE ( 'NONE', #31, #46, #216, .T. ) ;
#138 = EDGE_LOOP ( 'NONE', ( #62, #4, #2, #33, #40 ) ) ;
#139 = CARTESIAN_POINT ( 'NONE',  ( -7.474999999999985400, 0.0000000000000000000, -107.9999999999999900 ) ) ;
#140 = CARTESIAN_POINT ( 'NONE',  ( 8.330999999999997700, 0.0000000000000000000, -108.6684999999999800 ) ) ;
#141 = DIRECTION ( 'NONE',  ( 1.000000000000000000, 0.0000000000000000000, 0.0000000000000000000 ) ) ;
#142 = DIRECTION ( 'NONE',  ( -0.0000000000000000000, -0.0000000000000000000, 1.000000000000000000 ) ) ;
#143 = CARTESIAN_POINT ( 'NONE',  ( 0.0000000000000000000, 0.0000000000000000000, -4.336808689942017700E-016 ) ) ;
#144 = AXIS2_PLACEMENT_3D ( 'NONE', #143, #142, #141 ) ;
#145 = CARTESIAN_POINT ( 'NONE',  ( 7.474999999999985400, 9.678064014258237800E-016, -107.9999999999999900 ) ) ;
#146 = CYLINDRICAL_SURFACE ( 'NONE', #144, 8.330999999999997700 ) ;
#147 = FACE_OUTER_BOUND ( 'NONE', #36, .T. ) ;
#148 = ADVANCED_FACE ( 'NONE', ( #269 ), #268, .F. ) ;
#149 = ORIENTED_EDGE ( 'NONE', *, *, #152, .F. ) ;
#150 = CLOSED_SHELL ( 'NONE', ( #32, #19, #61, #148, #42, #184, #151, #163, #177, #122, #198, #156 ) ) ;
#151 = ADVANCED_FACE ( 'NONE', ( #267 ), #262, .F. ) ;
#152 = EDGE_CURVE ( 'NONE', #24, #30, #307, .T. ) ;
#153 = ORIENTED_EDGE ( 'NONE', *, *, #121, .T. ) ;
#154 = EDGE_CURVE ( 'NONE', #17, #46, #336, .T. ) ;
#155 = ORIENTED_EDGE ( 'NONE', *, *, #124, .F. ) ;
#156 = ADVANCED_FACE ( 'NONE', ( #331 ), #330, .F. ) ;
#157 = EDGE_LOOP ( 'NONE', ( #158, #159, #211, #149 ) ) ;
#158 = ORIENTED_EDGE ( 'NONE', *, *, #25, .F. ) ;
#159 = ORIENTED_EDGE ( 'NONE', *, *, #124, .T. ) ;
#160 = ORIENTED_EDGE ( 'NONE', *, *, #1, .F. ) ;
#161 = ORIENTED_EDGE ( 'NONE', *, *, #152, .T. ) ;
#162 = EDGE_CURVE ( 'NONE', #46, #17, #253, .T. ) ;
#163 = ADVANCED_FACE ( 'NONE', ( #249 ), #248, .F. ) ;
#164 = ORIENTED_EDGE ( 'NONE', *, *, #162, .T. ) ;
#165 = EDGE_LOOP ( 'NONE', ( #160, #181, #119, #182, #207 ) ) ;
#166 = ORIENTED_EDGE ( 'NONE', *, *, #55, .F. ) ;
#167 = ORIENTED_EDGE ( 'NONE', *, *, #137, .F. ) ;
#168 = ORIENTED_EDGE ( 'NONE', *, *, #74, .T. ) ;
#169 = ORIENTED_EDGE ( 'NONE', *, *, #59, .T. ) ;
#170 = EDGE_LOOP ( 'NONE', ( #171, #153 ) ) ;
#171 = ORIENTED_EDGE ( 'NONE', *, *, #10, .T. ) ;
#172 = ORIENTED_EDGE ( 'NONE', *, *, #13, .F. ) ;
#173 = ORIENTED_EDGE ( 'NONE', *, *, #183, .T. ) ;
#174 = ORIENTED_EDGE ( 'NONE', *, *, #34, .T. ) ;
#175 = ORIENTED_EDGE ( 'NONE', *, *, #58, .T. ) ;
#176 = ORIENTED_EDGE ( 'NONE', *, *, #162, .F. ) ;
#177 = ADVANCED_FACE ( 'NONE', ( #247 ), #298, .T. ) ;
#178 = ORIENTED_EDGE ( 'NONE', *, *, #199, .F. ) ;
#179 = ORIENTED_EDGE ( 'NONE', *, *, #49, .T. ) ;
#180 = ORIENTED_EDGE ( 'NONE', *, *, #12, .T. ) ;
#181 = ORIENTED_EDGE ( 'NONE', *, *, #74, .F. ) ;
#182 = ORIENTED_EDGE ( 'NONE', *, *, #183, .F. ) ;
#183 = EDGE_CURVE ( 'NONE', #44, #35, #297, .T. ) ;
#184 = ADVANCED_FACE ( 'NONE', ( #292, #279 ), #278, .F. ) ;
#185 = CARTESIAN_POINT ( 'NONE',  ( 10.75000000000000000, 0.0000000000000000000, -4.336808689942017700E-016 ) ) ;
#186 = DIRECTION ( 'NONE',  ( 1.000000000000000000, 0.0000000000000000000, 0.0000000000000000000 ) ) ;
#187 = DIRECTION ( 'NONE',  ( -0.0000000000000000000, -0.0000000000000000000, 1.000000000000000000 ) ) ;
#188 = CARTESIAN_POINT ( 'NONE',  ( 0.0000000000000000000, 0.0000000000000000000, 0.0000000000000000000 ) ) ;
#189 = AXIS2_PLACEMENT_3D ( 'NONE', #188, #187, #186 ) ;
#190 = CIRCLE ( 'NONE', #189, 10.75000000000000000 ) ;
#191 = LINE ( 'NONE', #185, #95 ) ;
#192 = CARTESIAN_POINT ( 'NONE',  ( 10.75000000000000000, 0.0000000000000000000, 0.0000000000000000000 ) ) ;
#193 = DIRECTION ( 'NONE',  ( 1.000000000000000000, 0.0000000000000000000, 0.0000000000000000000 ) ) ;
#194 = DIRECTION ( 'NONE',  ( -0.0000000000000000000, -0.0000000000000000000, 1.000000000000000000 ) ) ;
#195 = CARTESIAN_POINT ( 'NONE',  ( 0.0000000000000000000, 0.0000000000000000000, -107.9999999999999900 ) ) ;
#196 = AXIS2_PLACEMENT_3D ( 'NONE', #195, #194, #193 ) ;
#197 = VERTEX_POINT ( 'NONE', #277 ) ;
#198 = ADVANCED_FACE ( 'NONE', ( #272 ), #271, .F. ) ;
#199 = EDGE_CURVE ( 'NONE', #39, #108, #318, .T. ) ;
#200 = CIRCLE ( 'NONE', #196, 7.474999999999985400 ) ;
#201 = CARTESIAN_POINT ( 'NONE',  ( 0.0000000000000000000, 7.474999999999985400, 2.924029232456622900E-016 ) ) ;
#202 = DIRECTION ( 'NONE',  ( -0.0000000000000000000, 3.911744792584116700E-017, -1.000000000000000000 ) ) ;
#203 = VECTOR ( 'NONE', #202, 1000.000000000000000 ) ;
#204 = CARTESIAN_POINT ( 'NONE',  ( 9.153932494822270800E-016, -7.474999999999999600, -120.0000000000000300 ) ) ;
#205 = LINE ( 'NONE', #204, #203 ) ;
#206 = EDGE_CURVE ( 'NONE', #47, #52, #232, .T. ) ;
#207 = ORIENTED_EDGE ( 'NONE', *, *, #7, .F. ) ;
#208 = EDGE_LOOP ( 'NONE', ( #178, #179, #180, #120 ) ) ;
#209 = EDGE_LOOP ( 'NONE', ( #166, #155, #210, #164 ) ) ;
#210 = ORIENTED_EDGE ( 'NONE', *, *, #137, .T. ) ;
#211 = ORIENTED_EDGE ( 'NONE', *, *, #15, .T. ) ;
#212 = CYLINDRICAL_SURFACE ( 'NONE', #223, 10.75000000000000000 ) ;
#213 = DIRECTION ( 'NONE',  ( -0.0000000000000000000, -0.0000000000000000000, 1.000000000000000000 ) ) ;
#214 = VECTOR ( 'NONE', #213, 1000.000000000000000 ) ;
#215 = CARTESIAN_POINT ( 'NONE',  ( 8.330999999999997700, 0.0000000000000000000, -4.336808689942017700E-016 ) ) ;
#216 = LINE ( 'NONE', #215, #214 ) ;
#217 = DIRECTION ( 'NONE',  ( 1.000000000000000000, 0.0000000000000000000, 0.0000000000000000000 ) ) ;
#218 = DIRECTION ( 'NONE',  ( -0.0000000000000000000, -0.0000000000000000000, 1.000000000000000000 ) ) ;
#219 = CARTESIAN_POINT ( 'NONE',  ( 0.0000000000000000000, 0.0000000000000000000, -119.7090750693642900 ) ) ;
#220 = AXIS2_PLACEMENT_3D ( 'NONE', #219, #218, #217 ) ;
#221 = DIRECTION ( 'NONE',  ( -1.000000000000000000, 0.0000000000000000000, -0.0000000000000000000 ) ) ;
#222 = DIRECTION ( 'NONE',  ( 0.0000000000000000000, 0.0000000000000000000, -1.000000000000000000 ) ) ;
#223 = AXIS2_PLACEMENT_3D ( 'NONE', #256, #301, #300 ) ;
#224 = DIRECTION ( 'NONE',  ( -0.0000000000000000000, 3.911744792584116700E-017, -1.000000000000000000 ) ) ;
#225 =( NAMED_UNIT ( * ) PLANE_ANGLE_UNIT ( ) SI_UNIT ( $, .RADIAN. ) );
#226 =( LENGTH_UNIT ( ) NAMED_UNIT ( * ) SI_UNIT ( .MILLI., .METRE. ) );
#227 = CARTESIAN_POINT ( 'NONE',  ( 0.0000000000000000000, 0.0000000000000000000, 0.0000000000000000000 ) ) ;
#228 = DIRECTION ( 'NONE',  ( 1.000000000000000000, 0.0000000000000000000, 0.0000000000000000000 ) ) ;
#229 = DIRECTION ( 'NONE',  ( -0.0000000000000000000, -0.0000000000000000000, 1.000000000000000000 ) ) ;
#230 = CARTESIAN_POINT ( 'NONE',  ( 0.0000000000000000000, 0.0000000000000000000, -107.9999999999999900 ) ) ;
#231 = AXIS2_PLACEMENT_3D ( 'NONE', #230, #229, #228 ) ;
#232 = CIRCLE ( 'NONE', #231, 7.474999999999985400 ) ;
#233 = CIRCLE ( 'NONE', #289, 7.474999999999989000 ) ;
#234 = CARTESIAN_POINT ( 'NONE',  ( 0.0000000000000000000, 10.75000000000000000, -2.168404344971008900E-016 ) ) ;
#235 = AXIS2_PLACEMENT_3D ( 'NONE', #234, #222, #221 ) ;
#236 = CIRCLE ( 'NONE', #220, 8.330999999999997700 ) ;
#237 = PLANE ( 'NONE',  #235 ) ;
#238 = FACE_OUTER_BOUND ( 'NONE', #170, .T. ) ;
#239 = DIRECTION ( 'NONE',  ( 1.000000000000000000, 0.0000000000000000000, 0.0000000000000000000 ) ) ;
#240 = AXIS2_PLACEMENT_3D ( 'NONE', #258, #257, #242 ) ;
#241 = DIRECTION ( 'NONE',  ( 0.0000000000000000000, 1.000000000000000000, 3.911744792584116700E-017 ) ) ;
#242 = DIRECTION ( 'NONE',  ( 1.000000000000000000, 0.0000000000000000000, 0.0000000000000000000 ) ) ;
#243 = DIRECTION ( 'NONE',  ( 0.0000000000000000000, 1.000000000000000000, 0.0000000000000000000 ) ) ;
#244 = DIRECTION ( 'NONE',  ( -0.0000000000000000000, 3.911744792584116700E-017, -1.000000000000000000 ) ) ;
#245 = CARTESIAN_POINT ( 'NONE',  ( 0.0000000000000000000, 1.224646799147325800E-015, -120.0000000000000300 ) ) ;
#246 = AXIS2_PLACEMENT_3D ( 'NONE', #245, #244, #243 ) ;
#247 = FACE_OUTER_BOUND ( 'NONE', #208, .T. ) ;
#248 = CYLINDRICAL_SURFACE ( 'NONE', #246, 7.475000000000000500 ) ;
#249 = FACE_OUTER_BOUND ( 'NONE', #165, .T. ) ;
#250 = DIRECTION ( 'NONE',  ( 1.000000000000000000, 0.0000000000000000000, 0.0000000000000000000 ) ) ;
#251 = DIRECTION ( 'NONE',  ( -0.0000000000000000000, -0.0000000000000000000, 1.000000000000000000 ) ) ;
#252 = AXIS2_PLACEMENT_3D ( 'NONE', #325, #251, #250 ) ;
#253 = CIRCLE ( 'NONE', #252, 8.330999999999997700 ) ;
#254 = CARTESIAN_POINT ( 'NONE',  ( -8.330999999999997700, 0.0000000000000000000, -108.6684999999999800 ) ) ;
#255 = CARTESIAN_POINT ( 'NONE',  ( 9.153932494822266800E-016, -7.474999999999991700, -2.924029232456622900E-016 ) ) ;
#256 = CARTESIAN_POINT ( 'NONE',  ( 0.0000000000000000000, 0.0000000000000000000, -4.336808689942017700E-016 ) ) ;
#257 = DIRECTION ( 'NONE',  ( -0.0000000000000000000, -0.0000000000000000000, 1.000000000000000000 ) ) ;
#258 = CARTESIAN_POINT ( 'NONE',  ( 0.0000000000000000000, 0.0000000000000000000, -120.0000000000000000 ) ) ;
#259 = VECTOR ( 'NONE', #302, 1000.000000000000000 ) ;
#260 = CARTESIAN_POINT ( 'NONE',  ( 0.0000000000000000000, 0.0000000000000000000, -4.336808689942017700E-016 ) ) ;
#261 = AXIS2_PLACEMENT_3D ( 'NONE', #260, #309, #308 ) ;
#262 = CYLINDRICAL_SURFACE ( 'NONE', #261, 8.330999999999997700 ) ;
#263 = DIRECTION ( 'NONE',  ( 0.0000000000000000000, 1.000000000000000000, 0.0000000000000000000 ) ) ;
#264 = DIRECTION ( 'NONE',  ( -0.0000000000000000000, 3.911744792584116700E-017, -1.000000000000000000 ) ) ;
#265 = CARTESIAN_POINT ( 'NONE',  ( 0.0000000000000000000, 1.224646799147325800E-015, -120.0000000000000300 ) ) ;
#266 = AXIS2_PLACEMENT_3D ( 'NONE', #265, #264, #263 ) ;
#267 = FACE_OUTER_BOUND ( 'NONE', #209, .T. ) ;
#268 = CYLINDRICAL_SURFACE ( 'NONE', #266, 7.475000000000000500 ) ;
#269 = FACE_OUTER_BOUND ( 'NONE', #138, .T. ) ;
#270 = CARTESIAN_POINT ( 'NONE',  ( 0.0000000000000000000, 0.0000000000000000000, -108.6684999999999800 ) ) ;
#271 = CONICAL_SURFACE ( 'NONE', #321, 8.330999999999997700, 0.9077747214735943900 ) ;
#272 = FACE_OUTER_BOUND ( 'NONE', #125, .T. ) ;
#273 = DIRECTION ( 'NONE',  ( 1.000000000000000000, 0.0000000000000000000, 0.0000000000000000000 ) ) ;
#274 = DIRECTION ( 'NONE',  ( 0.0000000000000000000, -0.0000000000000000000, 1.000000000000000000 ) ) ;
#275 = CARTESIAN_POINT ( 'NONE',  ( 0.0000000000000000000, 10.74999999999999800, -120.0000000000000000 ) ) ;
#276 = AXIS2_PLACEMENT_3D ( 'NONE', #275, #274, #273 ) ;
#277 = CARTESIAN_POINT ( 'NONE',  ( 10.74999999999999800, 0.0000000000000000000, -120.0000000000000000 ) ) ;
#278 = PLANE ( 'NONE',  #276 ) ;
#279 = FACE_BOUND ( 'NONE', #50, .T. ) ;
#280 = DIRECTION ( 'NONE',  ( 1.000000000000000000, 0.0000000000000000000, 0.0000000000000000000 ) ) ;
#281 = DIRECTION ( 'NONE',  ( -0.0000000000000000000, -0.0000000000000000000, 1.000000000000000000 ) ) ;
#282 = LINE ( 'NONE', #254, #259 ) ;
#283 = DIRECTION ( 'NONE',  ( -0.0000000000000000000, -0.0000000000000000000, 1.000000000000000000 ) ) ;
#284 = CARTESIAN_POINT ( 'NONE',  ( 0.0000000000000000000, 0.0000000000000000000, 0.0000000000000000000 ) ) ;
#285 = AXIS2_PLACEMENT_3D ( 'NONE', #284, #283, #239 ) ;
#286 = CIRCLE ( 'NONE', #285, 10.75000000000000000 ) ;
#287 = FACE_BOUND ( 'NONE', #123, .T. ) ;
#288 = CARTESIAN_POINT ( 'NONE',  ( -10.75000000000000000, 1.316451830359055400E-015, 0.0000000000000000000 ) ) ;
#289 = AXIS2_PLACEMENT_3D ( 'NONE', #337, #224, #241 ) ;
#290 = CARTESIAN_POINT ( 'NONE',  ( 0.0000000000000000000, 0.0000000000000000000, -107.9999999999999900 ) ) ;
#291 = AXIS2_PLACEMENT_3D ( 'NONE', #290, #281, #280 ) ;
#292 = FACE_OUTER_BOUND ( 'NONE', #57, .T. ) ;
#293 = DIRECTION ( 'NONE',  ( 1.000000000000000000, 0.0000000000000000000, 0.0000000000000000000 ) ) ;
#294 = DIRECTION ( 'NONE',  ( -0.0000000000000000000, -0.0000000000000000000, 1.000000000000000000 ) ) ;
#295 = CARTESIAN_POINT ( 'NONE',  ( 0.0000000000000000000, 0.0000000000000000000, -4.336808689942017700E-016 ) ) ;
#296 = AXIS2_PLACEMENT_3D ( 'NONE', #295, #294, #293 ) ;
#297 = CIRCLE ( 'NONE', #291, 7.474999999999985400 ) ;
#298 = CYLINDRICAL_SURFACE ( 'NONE', #296, 10.75000000000000000 ) ;
#299 = CIRCLE ( 'NONE', #240, 10.74999999999999800 ) ;
#300 = DIRECTION ( 'NONE',  ( 1.000000000000000000, 0.0000000000000000000, 0.0000000000000000000 ) ) ;
#301 = DIRECTION ( 'NONE',  ( -0.0000000000000000000, -0.0000000000000000000, 1.000000000000000000 ) ) ;
#302 = DIRECTION ( 'NONE',  ( -0.7881360308231405400, 0.0000000000000000000, -0.6155010941650271800 ) ) ;
#303 = DIRECTION ( 'NONE',  ( 1.000000000000000000, 0.0000000000000000000, 0.0000000000000000000 ) ) ;
#304 = DIRECTION ( 'NONE',  ( -0.0000000000000000000, -0.0000000000000000000, 1.000000000000000000 ) ) ;
#305 = CARTESIAN_POINT ( 'NONE',  ( 0.0000000000000000000, 0.0000000000000000000, -120.0000000000000000 ) ) ;
#306 = AXIS2_PLACEMENT_3D ( 'NONE', #305, #304, #303 ) ;
#307 = CIRCLE ( 'NONE', #306, 8.621924930635707100 ) ;
#308 = DIRECTION ( 'NONE',  ( 1.000000000000000000, 0.0000000000000000000, 0.0000000000000000000 ) ) ;
#309 = DIRECTION ( 'NONE',  ( -0.0000000000000000000, -0.0000000000000000000, 1.000000000000000000 ) ) ;
#310 = DIRECTION ( 'NONE',  ( 0.0000000000000000000, 1.000000000000000000, 3.911744792584116700E-017 ) ) ;
#311 = DIRECTION ( 'NONE',  ( -0.0000000000000000000, 3.911744792584116700E-017, -1.000000000000000000 ) ) ;
#312 = CARTESIAN_POINT ( 'NONE',  ( 0.0000000000000000000, -3.469446951953615000E-015, 0.0000000000000000000 ) ) ;
#313 = AXIS2_PLACEMENT_3D ( 'NONE', #312, #311, #310 ) ;
#314 = CIRCLE ( 'NONE', #313, 7.474999999999989000 ) ;
#315 = DIRECTION ( 'NONE',  ( -0.0000000000000000000, -0.0000000000000000000, 1.000000000000000000 ) ) ;
#316 = VECTOR ( 'NONE', #315, 1000.000000000000000 ) ;
#317 = CARTESIAN_POINT ( 'NONE',  ( -10.75000000000000000, 1.316451830359055400E-015, -4.336808689942017700E-016 ) ) ;
#318 = LINE ( 'NONE', #317, #316 ) ;
#319 = DIRECTION ( 'NONE',  ( -1.000000000000000000, 0.0000000000000000000, 0.0000000000000000000 ) ) ;
#320 = DIRECTION ( 'NONE',  ( 0.0000000000000000000, 0.0000000000000000000, -1.000000000000000000 ) ) ;
#321 = AXIS2_PLACEMENT_3D ( 'NONE', #270, #320, #319 ) ;
#322 = AXIS2_PLACEMENT_3D ( 'NONE', #227, #324, #323 ) ;
#323 = DIRECTION ( 'NONE',  ( 1.000000000000000000, 0.0000000000000000000, 0.0000000000000000000 ) ) ;
#324 = DIRECTION ( 'NONE',  ( 0.0000000000000000000, 0.0000000000000000000, 1.000000000000000000 ) ) ;
#325 = CARTESIAN_POINT ( 'NONE',  ( 0.0000000000000000000, 0.0000000000000000000, -108.6684999999999800 ) ) ;
#326 = DIRECTION ( 'NONE',  ( -1.000000000000000000, 0.0000000000000000000, 0.0000000000000000000 ) ) ;
#327 = DIRECTION ( 'NONE',  ( 0.0000000000000000000, 0.0000000000000000000, -1.000000000000000000 ) ) ;
#328 = CARTESIAN_POINT ( 'NONE',  ( 0.0000000000000000000, 0.0000000000000000000, -120.0000000000000000 ) ) ;
#329 = AXIS2_PLACEMENT_3D ( 'NONE', #328, #327, #326 ) ;
#330 = CONICAL_SURFACE ( 'NONE', #329, 8.621924930635707100, 0.7853981633974542700 ) ;
#331 = FACE_OUTER_BOUND ( 'NONE', #157, .T. ) ;
#332 = DIRECTION ( 'NONE',  ( 1.000000000000000000, 0.0000000000000000000, 0.0000000000000000000 ) ) ;
#333 = DIRECTION ( 'NONE',  ( -0.0000000000000000000, -0.0000000000000000000, 1.000000000000000000 ) ) ;
#334 = CARTESIAN_POINT ( 'NONE',  ( 0.0000000000000000000, 0.0000000000000000000, -108.6684999999999800 ) ) ;
#335 = AXIS2_PLACEMENT_3D ( 'NONE', #334, #333, #332 ) ;
#336 = CIRCLE ( 'NONE', #335, 8.330999999999997700 ) ;
#337 = CARTESIAN_POINT ( 'NONE',  ( 0.0000000000000000000, -3.469446951953615000E-015, 0.0000000000000000000 ) ) ;
#338 = ADVANCED_BREP_SHAPE_REPRESENTATION ( '19-0408-43_outokumpu', ( #29, #322 ), #339 ) ;
#339 =( GEOMETRIC_REPRESENTATION_CONTEXT ( 3 ) GLOBAL_UNCERTAINTY_ASSIGNED_CONTEXT ( ( #340 ) ) GLOBAL_UNIT_ASSIGNED_CONTEXT ( ( #226, #225, #341 ) ) REPRESENTATION_CONTEXT ( 'NONE', 'WORKASPACE' ) );
#340 = UNCERTAINTY_MEASURE_WITH_UNIT (LENGTH_MEASURE( 1.000000000000000100E-005 ), #226, 'distance_accuracy_value', 'NONE');
#341 =( NAMED_UNIT ( * ) SI_UNIT ( $, .STERADIAN. ) SOLID_ANGLE_UNIT ( ) );
#342 = FACE_OUTER_BOUND ( 'NONE', #14, .T. ) ;
#343 = APPLICATION_CONTEXT ( 'configuration controlled 3d designs of mechanical parts and assemblies' ) ;
#344 = ORGANIZATION ( 'UNSPECIFIED', 'UNSPECIFIED', '' ) ;
#345 = PRODUCT_DEFINITION_SHAPE ( 'NONE', 'NONE',  #417 ) ;
#346 = PRODUCT_RELATED_PRODUCT_CATEGORY ( 'detail', '', ( #366 ) ) ;
#347 = CC_DESIGN_SECURITY_CLASSIFICATION ( #352, ( #375 ) ) ;
#348 = CC_DESIGN_APPROVAL ( #392, ( #352 ) ) ;
#349 = APPROVAL_DATE_TIME ( #388, #392 ) ;
#350 = CALENDAR_DATE ( 2015, 11, 8 ) ;
#351 = LOCAL_TIME ( 11, 38, 12.00000000000000000, #389 ) ;
#352 = SECURITY_CLASSIFICATION ( '', '', #353 ) ;
#353 = SECURITY_CLASSIFICATION_LEVEL ( 'unclassified' ) ;
#354 = CC_DESIGN_PERSON_AND_ORGANIZATION_ASSIGNMENT ( #356, #355, ( #375 ) ) ;
#355 = PERSON_AND_ORGANIZATION_ROLE ( 'design_supplier' ) ;
#356 = PERSON_AND_ORGANIZATION ( #365, #344 ) ;
#357 = CC_DESIGN_PERSON_AND_ORGANIZATION_ASSIGNMENT ( #359, #358, ( #375 ) ) ;
#358 = PERSON_AND_ORGANIZATION_ROLE ( 'creator' ) ;
#359 = PERSON_AND_ORGANIZATION ( #365, #344 ) ;
#360 = CC_DESIGN_APPROVAL ( #372, ( #375 ) ) ;
#361 = APPROVAL_DATE_TIME ( #362, #372 ) ;
#362 = DATE_AND_TIME ( #363, #364 ) ;
#363 = CALENDAR_DATE ( 2015, 11, 8 ) ;
#364 = LOCAL_TIME ( 11, 38, 12.00000000000000000, #369 ) ;
#365 = PERSON ( 'UNSPECIFIED', 'UNSPECIFIED', 'UNSPECIFIED', ('UNSPECIFIED'), ('UNSPECIFIED'), ('UNSPECIFIED') ) ;
#366 = PRODUCT ( '19-0408-43_outokumpu', '19-0408-43_outokumpu', '', ( #367 ) ) ;
#367 = MECHANICAL_CONTEXT ( 'NONE', #343, 'mechanical' ) ;
#368 = APPLICATION_PROTOCOL_DEFINITION ( 'international standard', 'config_control_design', 1994, #343 ) ;
#369 = COORDINATED_UNIVERSAL_TIME_OFFSET ( 1, 0, .AHEAD. ) ;
#370 = APPROVAL_PERSON_ORGANIZATION ( #374, #372, #371 ) ;
#371 = APPROVAL_ROLE ( '' ) ;
#372 = APPROVAL ( #373, 'UNSPECIFIED' ) ;
#373 = APPROVAL_STATUS ( 'not_yet_approved' ) ;
#374 = PERSON_AND_ORGANIZATION ( #365, #344 ) ;
#375 = PRODUCT_DEFINITION_FORMATION_WITH_SPECIFIED_SOURCE ( 'ANY', '', #366, .NOT_KNOWN. ) ;
#376 = CC_DESIGN_DATE_AND_TIME_ASSIGNMENT ( #378, #377, ( #417 ) ) ;
#377 = DATE_TIME_ROLE ( 'creation_date' ) ;
#378 = DATE_AND_TIME ( #379, #380 ) ;
#379 = CALENDAR_DATE ( 2015, 11, 8 ) ;
#380 = LOCAL_TIME ( 11, 38, 12.00000000000000000, #381 ) ;
#381 = COORDINATED_UNIVERSAL_TIME_OFFSET ( 1, 0, .AHEAD. ) ;
#382 = CC_DESIGN_PERSON_AND_ORGANIZATION_ASSIGNMENT ( #405, #404, ( #417 ) ) ;
#383 = SHAPE_DEFINITION_REPRESENTATION ( #345, #338 ) ;
#384 = APPLICATION_CONTEXT ( 'configuration controlled 3d designs of mechanical parts and assemblies' ) ;
#385 = CC_DESIGN_PERSON_AND_ORGANIZATION_ASSIGNMENT ( #387, #386, ( #366 ) ) ;
#386 = PERSON_AND_ORGANIZATION_ROLE ( 'design_owner' ) ;
#387 = PERSON_AND_ORGANIZATION ( #365, #344 ) ;
#388 = DATE_AND_TIME ( #350, #351 ) ;
#389 = COORDINATED_UNIVERSAL_TIME_OFFSET ( 1, 0, .AHEAD. ) ;
#390 = APPROVAL_PERSON_ORGANIZATION ( #394, #392, #391 ) ;
#391 = APPROVAL_ROLE ( '' ) ;
#392 = APPROVAL ( #393, 'UNSPECIFIED' ) ;
#393 = APPROVAL_STATUS ( 'not_yet_approved' ) ;
#394 = PERSON_AND_ORGANIZATION ( #365, #344 ) ;
#395 = CC_DESIGN_DATE_AND_TIME_ASSIGNMENT ( #397, #396, ( #352 ) ) ;
#396 = DATE_TIME_ROLE ( 'classification_date' ) ;
#397 = DATE_AND_TIME ( #398, #399 ) ;
#398 = CALENDAR_DATE ( 2015, 11, 8 ) ;
#399 = LOCAL_TIME ( 11, 38, 12.00000000000000000, #400 ) ;
#400 = COORDINATED_UNIVERSAL_TIME_OFFSET ( 1, 0, .AHEAD. ) ;
#401 = CC_DESIGN_PERSON_AND_ORGANIZATION_ASSIGNMENT ( #403, #402, ( #352 ) ) ;
#402 = PERSON_AND_ORGANIZATION_ROLE ( 'classification_officer' ) ;
#403 = PERSON_AND_ORGANIZATION ( #365, #344 ) ;
#404 = PERSON_AND_ORGANIZATION_ROLE ( 'creator' ) ;
#405 = PERSON_AND_ORGANIZATION ( #365, #344 ) ;
#406 = CC_DESIGN_APPROVAL ( #414, ( #417 ) ) ;
#407 = APPROVAL_DATE_TIME ( #408, #414 ) ;
#408 = DATE_AND_TIME ( #409, #410 ) ;
#409 = CALENDAR_DATE ( 2015, 11, 8 ) ;
#410 = LOCAL_TIME ( 11, 38, 12.00000000000000000, #411 ) ;
#411 = COORDINATED_UNIVERSAL_TIME_OFFSET ( 1, 0, .AHEAD. ) ;
#412 = APPROVAL_PERSON_ORGANIZATION ( #416, #414, #413 ) ;
#413 = APPROVAL_ROLE ( '' ) ;
#414 = APPROVAL ( #415, 'UNSPECIFIED' ) ;
#415 = APPROVAL_STATUS ( 'not_yet_approved' ) ;
#416 = PERSON_AND_ORGANIZATION ( #365, #344 ) ;
#417 = PRODUCT_DEFINITION ( 'UNKNOWN', '', #375, #418 ) ;
#418 = DESIGN_CONTEXT ( 'detailed design', #384, 'design' ) ;
#419 = APPLICATION_PROTOCOL_DEFINITION ( 'international standard', 'config_control_design', 1994, #384 ) ;
ENDSEC;
END-ISO-10303-21;
