ISO-10303-21;
HEADER;
/****************************************************************
 * Generated by software with PDElib inside                    *
 * PDElib Version v51a, created Wed 07/06/2011                  *
 * ITI Transcendata (http://www.transcendata.com/)              *
 ****************************************************************/
FILE_DESCRIPTION(('RE_42,4x2-26,9x1,6_L80_V10'),'2;1');
FILE_NAME('RE_42,4x2-26,9x1,6_L80_V10.stp','2013-11-02T16:29:58',('DOCKWEILER AG'),('DOCKWEILER AG'),'Autodesk Inventor 2012','Autodesk Inventor 2012','');
FILE_SCHEMA(('CONFIG_CONTROL_DESIGN'));
ENDSEC;
DATA;
#5=APPLICATION_CONTEXT('configuration controlled 3D designs of mechanical parts and assemblies');
#6=APPLICATION_PROTOCOL_DEFINITION('International Standard','ap203_configuration_controlled_3d_design_of_mechanical_parts_and_assemblies_mim_lf',2004,#5);
#7=PRODUCT_CONTEXT('',#5,'mechanical');
#8=PRODUCT('N0006_002_001_009','N0006_002_001_009',$,(#7));
#9=PRODUCT_RELATED_PRODUCT_CATEGORY('part',$,(#8));
#10=PRODUCT_DEFINITION_FORMATION('',$,#8);
#11=PRODUCT_DEFINITION_CONTEXT('part definition',#5,'design');
#12=PRODUCT_DEFINITION('',$,#10,#11);
#18=(NAMED_UNIT(*)PLANE_ANGLE_UNIT()SI_UNIT($,.RADIAN.));
#19=DIMENSIONAL_EXPONENTS(0.0,0.0,0.0,0.0,0.0,0.0,0.0);
#20=PLANE_ANGLE_MEASURE_WITH_UNIT(PLANE_ANGLE_MEASURE(0.0174532925),#18);
#24=(CONVERSION_BASED_UNIT('DEGREE',#20)NAMED_UNIT(#19)PLANE_ANGLE_UNIT());
#28=(NAMED_UNIT(*)SI_UNIT($,.STERADIAN.)SOLID_ANGLE_UNIT());
#32=(LENGTH_UNIT()NAMED_UNIT(*)SI_UNIT(.MILLI.,.METRE.));
#34=UNCERTAINTY_MEASURE_WITH_UNIT(LENGTH_MEASURE(0.01),#32,'DISTANCE_ACCURACY_VALUE','');
#36=(GEOMETRIC_REPRESENTATION_CONTEXT(3)GLOBAL_UNCERTAINTY_ASSIGNED_CONTEXT((#34))GLOBAL_UNIT_ASSIGNED_CONTEXT((#24,#28,#32))REPRESENTATION_CONTEXT('None','None'));
#37=AXIS2_PLACEMENT_3D('',#38,#39,#40);
#38=CARTESIAN_POINT('',(0.0,0.0,0.0));
#39=DIRECTION('',(0.0,0.0,1.0));
#40=DIRECTION('',(1.0,0.0,0.0));
#41=SHAPE_REPRESENTATION('',(#37),#36);
#42=PRODUCT_DEFINITION_SHAPE('','',#12);
#43=SHAPE_DEFINITION_REPRESENTATION(#42,#41);
#49=(NAMED_UNIT(*)PLANE_ANGLE_UNIT()SI_UNIT($,.RADIAN.));
#50=DIMENSIONAL_EXPONENTS(0.0,0.0,0.0,0.0,0.0,0.0,0.0);
#51=PLANE_ANGLE_MEASURE_WITH_UNIT(PLANE_ANGLE_MEASURE(0.0174532925),#49);
#55=(CONVERSION_BASED_UNIT('DEGREE',#51)NAMED_UNIT(#50)PLANE_ANGLE_UNIT());
#59=(NAMED_UNIT(*)SI_UNIT($,.STERADIAN.)SOLID_ANGLE_UNIT());
#63=(LENGTH_UNIT()NAMED_UNIT(*)SI_UNIT(.MILLI.,.METRE.));
#65=UNCERTAINTY_MEASURE_WITH_UNIT(LENGTH_MEASURE(0.000001),#63,'DISTANCE_ACCURACY_VALUE','');
#67=(GEOMETRIC_REPRESENTATION_CONTEXT(3)GLOBAL_UNCERTAINTY_ASSIGNED_CONTEXT((#65))GLOBAL_UNIT_ASSIGNED_CONTEXT((#55,#59,#63))REPRESENTATION_CONTEXT('','3D'));
#68=CARTESIAN_POINT('',(7.987116392514538,54.86367380123302,11.52704084961548));
#69=CARTESIAN_POINT('',(-4.364364E-015,6.808801532570443,19.737936472012365));
#70=CARTESIAN_POINT('',(19.199999999999974,53.000000000000021,11.52704084961548));
#71=CARTESIAN_POINT('',(19.199999999999928,3.617603065140897,19.737936472012365));
#72=CARTESIAN_POINT('',(19.199999999999982,53.000000000000021,4.800544E-015));
#73=CARTESIAN_POINT('',(19.199999999999935,3.617603065140895,5.568827E-015));
#74=CARTESIAN_POINT('',(19.199999999999982,53.000000000000021,-11.527040849615471));
#75=CARTESIAN_POINT('',(19.199999999999935,3.617603065140895,-19.73793647201235));
#76=CARTESIAN_POINT('',(7.987116392514543,54.86367380123302,-11.527040849615476));
#77=CARTESIAN_POINT('',(2.367486E-015,6.808801532570441,-19.737936472012358));
#78=CARTESIAN_POINT('',(-3.225767214970897,56.727347602466025,-11.527040849615476));
#79=CARTESIAN_POINT('',(-19.199999999999928,9.999999999999988,-19.737936472012358));
#80=CARTESIAN_POINT('',(-3.225767214970901,56.727347602466018,-3.596519E-016));
#81=CARTESIAN_POINT('',(-19.199999999999935,9.999999999999989,-1.127935E-015));
#82=CARTESIAN_POINT('',(-3.225767214970902,56.727347602466025,11.527040849615476));
#83=CARTESIAN_POINT('',(-19.199999999999935,9.999999999999988,19.737936472012358));
#84=CARTESIAN_POINT('',(7.987116392514538,54.86367380123302,11.52704084961548));
#85=CARTESIAN_POINT('',(-4.364364E-015,6.808801532570443,19.737936472012365));
#93=(BOUNDED_SURFACE()B_SPLINE_SURFACE(1,2,((#68,#70,#72,#74,#76,#78,#80,#82,#84),(#69,#71,#73,#75,#77,#79,#81,#83,#85)),.UNSPECIFIED.,.F.,.T.,.U.)B_SPLINE_SURFACE_WITH_KNOTS((2,2),(3,2,2,2,3),(-2.405791586845283,0.166208253511956),(0.0,30.170804107855083,60.341608215710167,90.512412323565258,120.68321643142033),.UNSPECIFIED.)GEOMETRIC_REPRESENTATION_ITEM()RATIONAL_B_SPLINE_SURFACE(((1.0,0.707106781186548,1.0,0.707106781186548,1.0,0.707106781186548,1.0,0.707106781186548,1.0),(1.0,0.707106781186548,1.0,0.707106781186548,1.0,0.707106781186548,1.0,0.707106781186548,1.0)))REPRESENTATION_ITEM('')SURFACE());
#94=CARTESIAN_POINT('',(19.199999999999999,10.0,-2.351322E-015));
#95=VERTEX_POINT('',#94);
#96=CARTESIAN_POINT('',(0.0,10.0,0.0));
#97=DIRECTION('',(0.0,1.0,0.0));
#98=DIRECTION('',(-1.0,0.0,0.0));
#99=AXIS2_PLACEMENT_3D('',#96,#97,#98);
#100=CIRCLE('',#99,19.199999999999999);
#101=EDGE_CURVE('',#95,#95,#100,.T.);
#102=ORIENTED_EDGE('',*,*,#101,.F.);
#103=EDGE_LOOP('',(#102));
#104=FACE_OUTER_BOUND('',#103,.T.);
#105=CARTESIAN_POINT('',(19.199999999999996,53.000000000000014,-1.451206E-015));
#106=VERTEX_POINT('',#105);
#107=CARTESIAN_POINT('',(7.349999999999999,53.000000000000007,0.0));
#108=DIRECTION('',(0.0,1.0,0.0));
#109=DIRECTION('',(-1.0,0.0,0.0));
#110=AXIS2_PLACEMENT_3D('',#107,#108,#109);
#111=CIRCLE('',#110,11.849999999999996);
#112=EDGE_CURVE('',#106,#106,#111,.T.);
#113=ORIENTED_EDGE('',*,*,#112,.T.);
#114=EDGE_LOOP('',(#113));
#115=FACE_BOUND('',#114,.T.);
#116=ADVANCED_FACE('',(#104,#115),#93,.F.);
#117=CARTESIAN_POINT('',(7.349999999999985,79.999999999999986,0.0));
#118=DIRECTION('',(5.482583E-016,-1.0,0.0));
#119=DIRECTION('',(-1.0,0.0,0.0));
#120=AXIS2_PLACEMENT_3D('',#117,#118,#119);
#121=CYLINDRICAL_SURFACE('',#120,11.849999999999996);
#122=ORIENTED_EDGE('',*,*,#112,.F.);
#123=EDGE_LOOP('',(#122));
#124=FACE_OUTER_BOUND('',#123,.T.);
#125=CARTESIAN_POINT('',(19.199999999999982,80.0,1.451206E-015));
#126=VERTEX_POINT('',#125);
#127=CARTESIAN_POINT('',(7.349999999999985,80.0,0.0));
#128=DIRECTION('',(0.0,-1.0,0.0));
#129=DIRECTION('',(-1.0,0.0,0.0));
#130=AXIS2_PLACEMENT_3D('',#127,#128,#129);
#131=CIRCLE('',#130,11.849999999999996);
#132=EDGE_CURVE('',#126,#126,#131,.T.);
#133=ORIENTED_EDGE('',*,*,#132,.F.);
#134=EDGE_LOOP('',(#133));
#135=FACE_BOUND('',#134,.T.);
#136=ADVANCED_FACE('',(#124,#135),#121,.F.);
#137=CARTESIAN_POINT('',(0.0,5.551115E-015,0.0));
#138=DIRECTION('',(0.0,1.0,0.0));
#139=DIRECTION('',(-1.0,0.0,0.0));
#140=AXIS2_PLACEMENT_3D('',#137,#138,#139);
#141=CYLINDRICAL_SURFACE('',#140,19.199999999999999);
#142=CARTESIAN_POINT('',(19.199999999999999,5.551115E-015,2.351322E-015));
#143=VERTEX_POINT('',#142);
#144=CARTESIAN_POINT('',(0.0,5.551115E-015,0.0));
#145=DIRECTION('',(0.0,1.0,0.0));
#146=DIRECTION('',(-1.0,0.0,0.0));
#147=AXIS2_PLACEMENT_3D('',#144,#145,#146);
#148=CIRCLE('',#147,19.199999999999999);
#149=EDGE_CURVE('',#143,#143,#148,.T.);
#150=ORIENTED_EDGE('',*,*,#149,.F.);
#151=EDGE_LOOP('',(#150));
#152=FACE_OUTER_BOUND('',#151,.T.);
#153=ORIENTED_EDGE('',*,*,#101,.T.);
#154=EDGE_LOOP('',(#153));
#155=FACE_BOUND('',#154,.T.);
#156=ADVANCED_FACE('',(#152,#155),#141,.F.);
#157=CARTESIAN_POINT('',(7.349999999999991,67.500000000000014,0.0));
#158=DIRECTION('',(-5.551115E-016,1.0,0.0));
#159=DIRECTION('',(-1.0,0.0,0.0));
#160=AXIS2_PLACEMENT_3D('',#157,#158,#159);
#161=CYLINDRICAL_SURFACE('',#160,13.449999999999797);
#162=CARTESIAN_POINT('',(-6.099999999999819,80.0,0.0));
#163=VERTEX_POINT('',#162);
#164=CARTESIAN_POINT('',(7.349999999999985,80.0,0.0));
#165=DIRECTION('',(0.0,1.0,0.0));
#166=DIRECTION('',(-1.0,0.0,0.0));
#167=AXIS2_PLACEMENT_3D('',#164,#165,#166);
#168=CIRCLE('',#167,13.449999999999802);
#169=EDGE_CURVE('',#163,#163,#168,.T.);
#170=ORIENTED_EDGE('',*,*,#169,.F.);
#171=EDGE_LOOP('',(#170));
#172=FACE_OUTER_BOUND('',#171,.T.);
#173=CARTESIAN_POINT('',(-6.099999999999792,55.0,0.0));
#174=VERTEX_POINT('',#173);
#175=CARTESIAN_POINT('',(7.349999999999999,55.000000000000007,0.0));
#176=DIRECTION('',(0.0,1.0,0.0));
#177=DIRECTION('',(-1.0,0.0,0.0));
#178=AXIS2_PLACEMENT_3D('',#175,#176,#177);
#179=CIRCLE('',#178,13.449999999999791);
#180=EDGE_CURVE('',#174,#174,#179,.T.);
#181=ORIENTED_EDGE('',*,*,#180,.T.);
#182=EDGE_LOOP('',(#181));
#183=FACE_BOUND('',#182,.T.);
#184=ADVANCED_FACE('',(#172,#183),#161,.T.);
#185=CARTESIAN_POINT('',(0.625000000000083,80.0,0.0));
#186=DIRECTION('',(0.0,1.0,0.0));
#187=DIRECTION('',(0.0,0.0,1.0));
#188=AXIS2_PLACEMENT_3D('',#185,#186,#187);
#189=PLANE('',#188);
#190=ORIENTED_EDGE('',*,*,#169,.T.);
#191=EDGE_LOOP('',(#190));
#192=FACE_OUTER_BOUND('',#191,.T.);
#193=ORIENTED_EDGE('',*,*,#132,.T.);
#194=EDGE_LOOP('',(#193));
#195=FACE_BOUND('',#194,.T.);
#196=ADVANCED_FACE('',(#192,#195),#189,.T.);
#197=CARTESIAN_POINT('',(7.350000000000005,42.500000000000007,0.0));
#198=DIRECTION('',(5.551115E-016,-1.0,0.0));
#199=DIRECTION('',(-1.0,0.0,0.0));
#200=AXIS2_PLACEMENT_3D('',#197,#198,#199);
#201=CONICAL_SURFACE('',#200,20.999999999999901,31.131976188218228);
#202=CARTESIAN_POINT('',(-21.200000000000003,30.0,0.0));
#203=VERTEX_POINT('',#202);
#204=CARTESIAN_POINT('',(-21.200000000000014,29.999999999999979,0.0));
#205=CARTESIAN_POINT('',(-21.200000000000014,29.999999999999979,1.700320702809945));
#206=CARTESIAN_POINT('',(-20.981608230181791,30.092767407285137,3.543533139058424));
#207=CARTESIAN_POINT('',(-20.06480115161299,30.485945204445937,7.08436772903932));
#208=CARTESIAN_POINT('',(-19.367032487769485,30.786506981330334,8.782140471755142));
#209=CARTESIAN_POINT('',(-17.732383492462723,31.500423158656208,11.745806353229549));
#210=CARTESIAN_POINT('',(-16.64404503298567,31.979989723057667,13.256369711794777));
#211=CARTESIAN_POINT('',(-14.139764300897804,33.108106966702778,15.900397648375906));
#212=CARTESIAN_POINT('',(-12.725048987325973,33.757143655408761,17.03481672124299));
#213=CARTESIAN_POINT('',(-9.965961825914828,35.054043725361616,18.782470140921621));
#214=CARTESIAN_POINT('',(-8.466578801999047,35.773639081957931,19.506351489508759));
#215=CARTESIAN_POINT('',(-5.335909427430638,37.322605276518111,20.584187527526883));
#216=CARTESIAN_POINT('',(-3.704775862101081,38.152124747622274,20.93837237072141));
#217=CARTESIAN_POINT('',(-0.433595781457791,39.87491737035603,21.259185380200137));
#218=CARTESIAN_POINT('',(1.208870798410609,40.769676884056274,21.226117786652395));
#219=CARTESIAN_POINT('',(4.386728279009578,42.568160564897973,20.803030086755378));
#220=CARTESIAN_POINT('',(5.922042827486596,43.471997014553622,20.412913803209509));
#221=CARTESIAN_POINT('',(9.537343860004988,45.684413687444575,19.076614132783355));
#222=CARTESIAN_POINT('',(11.760253034890301,47.134784754930841,17.821761343708154));
#223=CARTESIAN_POINT('',(15.64468528147623,49.854656301940466,14.531435652513739));
#224=CARTESIAN_POINT('',(17.307727384049461,51.122593893175349,12.496464514576445));
#225=CARTESIAN_POINT('',(19.320052324014544,52.733312160789474,8.87938405610663));
#226=CARTESIAN_POINT('',(20.026199037088979,53.325241633163181,7.196200637467946));
#227=CARTESIAN_POINT('',(20.732045216590016,53.929347049815426,4.524465483746941));
#228=CARTESIAN_POINT('',(20.910679801028543,54.084714769321167,3.60956410110634));
#229=CARTESIAN_POINT('',(21.144678735613947,54.288966495086946,1.785509425218756));
#230=CARTESIAN_POINT('',(21.200000000000014,54.337748344370517,0.876339167230414));
#231=CARTESIAN_POINT('',(21.200000000000014,54.337748344370517,-0.87633916723041));
#232=CARTESIAN_POINT('',(21.144678735613947,54.288966495086946,-1.785509425218757));
#233=CARTESIAN_POINT('',(20.910679801028543,54.084714769321167,-3.609564101106337));
#234=CARTESIAN_POINT('',(20.732045216590016,53.929347049815426,-4.524465483746933));
#235=CARTESIAN_POINT('',(20.026199037088986,53.325241633163181,-7.196200637467932));
#236=CARTESIAN_POINT('',(19.320052324014547,52.733312160789481,-8.879384056106616));
#237=CARTESIAN_POINT('',(17.307727384049464,51.122593893175349,-12.496464514576434));
#238=CARTESIAN_POINT('',(15.644685281476235,49.854656301940466,-14.531435652513736));
#239=CARTESIAN_POINT('',(11.760253034890306,47.134784754930841,-17.82176134370815));
#240=CARTESIAN_POINT('',(9.537343860004992,45.684413687444575,-19.076614132783355));
#241=CARTESIAN_POINT('',(5.9220428274866,43.471997014553629,-20.412913803209509));
#242=CARTESIAN_POINT('',(4.386728279009592,42.568160564897966,-20.803030086755374));
#243=CARTESIAN_POINT('',(1.20887079841062,40.769676884056267,-21.226117786652388));
#244=CARTESIAN_POINT('',(-0.433595781457795,39.87491737035603,-21.259185380200144));
#245=CARTESIAN_POINT('',(-3.70477586210109,38.152124747622267,-20.93837237072141));
#246=CARTESIAN_POINT('',(-5.335909427430646,37.322605276518104,-20.584187527526883));
#247=CARTESIAN_POINT('',(-8.466578801999052,35.773639081957924,-19.506351489508759));
#248=CARTESIAN_POINT('',(-9.965961825914834,35.054043725361616,-18.782470140921621));
#249=CARTESIAN_POINT('',(-12.725048987325975,33.757143655408761,-17.034816721242986));
#250=CARTESIAN_POINT('',(-14.139764300897804,33.108106966702778,-15.900397648375906));
#251=CARTESIAN_POINT('',(-16.644045032985666,31.979989723057663,-13.256369711794783));
#252=CARTESIAN_POINT('',(-17.732383492462716,31.500423158656218,-11.745806353229556));
#253=CARTESIAN_POINT('',(-19.367032487769478,30.786506981330337,-8.782140471755156));
#254=CARTESIAN_POINT('',(-20.064801151612983,30.485945204445937,-7.084367729039336));
#255=CARTESIAN_POINT('',(-20.981608230181781,30.092767407285137,-3.543533139058437));
#256=CARTESIAN_POINT('',(-21.200000000000014,29.999999999999979,-1.70032070280995));
#257=CARTESIAN_POINT('',(-21.200000000000014,29.999999999999979,5.551115E-016));
#258=B_SPLINE_CURVE_WITH_KNOTS('',3,(#204,#205,#206,#207,#208,#209,#210,#211,#212,#213,#214,#215,#216,#217,#218,#219,#220,#221,#222,#223,#224,#225,#226,#227,#228,#229,#230,#231,#232,#233,#234,#235,#236,#237,#238,#239,#240,#241,#242,#243,#244,#245,#246,#247,#248,#249,#250,#251,#252,#253,#254,#255,#256,#257),.UNSPECIFIED.,.T.,.U.,(4,2,2,2,2,2,2,2,2,2,2,2,2,2,2,2,2,2,2,2,2,2,2,2,2,2,4),(0.0,0.510096210842984,1.020192421685967,1.547813040850497,2.075433660015027,2.602039003721824,3.128644347428621,3.655249691135417,4.181855034842214,4.98850875483819,5.795162474834164,6.320965975172411,6.583867725341536,6.846769475510659,7.109671225679783,7.372572975848907,7.898376476187154,8.705030196183129,9.511683916179104,10.0382892598859,10.564894603592698,11.091499947299495,11.618105291006291,12.145725910170821,12.673346529335349,13.183442740178332,13.693538951021317),.UNSPECIFIED.);
#259=EDGE_CURVE('',#203,#203,#258,.T.);
#260=ORIENTED_EDGE('',*,*,#259,.T.);
#261=EDGE_LOOP('',(#260));
#262=FACE_OUTER_BOUND('',#261,.T.);
#263=ORIENTED_EDGE('',*,*,#180,.F.);
#264=EDGE_LOOP('',(#263));
#265=FACE_BOUND('',#264,.T.);
#266=ADVANCED_FACE('',(#262,#265),#201,.T.);
#267=CARTESIAN_POINT('',(0.0,15.000000000000004,0.0));
#268=DIRECTION('',(0.0,-1.0,0.0));
#269=DIRECTION('',(1.0,0.0,0.0));
#270=AXIS2_PLACEMENT_3D('',#267,#268,#269);
#271=CYLINDRICAL_SURFACE('',#270,21.200000000000014);
#272=CARTESIAN_POINT('',(21.200000000000014,8.881784E-015,0.0));
#273=VERTEX_POINT('',#272);
#274=CARTESIAN_POINT('',(0.0,8.881784E-015,0.0));
#275=DIRECTION('',(0.0,-1.0,0.0));
#276=DIRECTION('',(1.0,0.0,0.0));
#277=AXIS2_PLACEMENT_3D('',#274,#275,#276);
#278=CIRCLE('',#277,21.200000000000014);
#279=EDGE_CURVE('',#273,#273,#278,.T.);
#280=ORIENTED_EDGE('',*,*,#279,.F.);
#281=EDGE_LOOP('',(#280));
#282=FACE_OUTER_BOUND('',#281,.T.);
#283=ORIENTED_EDGE('',*,*,#259,.F.);
#284=EDGE_LOOP('',(#283));
#285=FACE_BOUND('',#284,.T.);
#286=ADVANCED_FACE('',(#282,#285),#271,.T.);
#287=CARTESIAN_POINT('',(10.600000000000007,5.551115E-015,0.0));
#288=DIRECTION('',(0.0,-1.0,0.0));
#289=DIRECTION('',(0.0,0.0,-1.0));
#290=AXIS2_PLACEMENT_3D('',#287,#288,#289);
#291=PLANE('',#290);
#292=ORIENTED_EDGE('',*,*,#279,.T.);
#293=EDGE_LOOP('',(#292));
#294=FACE_OUTER_BOUND('',#293,.T.);
#295=ORIENTED_EDGE('',*,*,#149,.T.);
#296=EDGE_LOOP('',(#295));
#297=FACE_BOUND('',#296,.T.);
#298=ADVANCED_FACE('',(#294,#297),#291,.T.);
#299=CLOSED_SHELL('',(#116,#136,#156,#184,#196,#266,#286,#298));
#300=MANIFOLD_SOLID_BREP('Volumenk\S\vrper2',#299);
#301=COLOUR_RGB('Metall - Stahl',0.639216005802155,0.639216005802155,0.686275005340576);
#302=FILL_AREA_STYLE_COLOUR('Metall - Stahl',#301);
#303=FILL_AREA_STYLE('Metall - Stahl',(#302));
#304=SURFACE_STYLE_FILL_AREA(#303);
#305=SURFACE_SIDE_STYLE('Metall - Stahl',(#304));
#306=SURFACE_STYLE_USAGE(.BOTH.,#305);
#307=PRESENTATION_STYLE_ASSIGNMENT((#306));
#308=STYLED_ITEM('',(#307),#300);
#309=MECHANICAL_DESIGN_GEOMETRIC_PRESENTATION_REPRESENTATION('',(#308),#36);
#310=ADVANCED_BREP_SHAPE_REPRESENTATION('ABSR',(#300),#36);
#311=SHAPE_REPRESENTATION_RELATIONSHIP('SRR','None',#310,#41);
ENDSEC;
END-ISO-10303-21;
