ISO-10303-21;
HEADER;
/****************************************************************
 * Generated by software with PDElib inside                    *
 * PDElib Version v51a, created Wed 07/06/2011                  *
 * ITI Transcendata (http://www.transcendata.com/)              *
 ****************************************************************/
FILE_DESCRIPTION(('RE_48,3x2-33,7x2_L90_V10'),'2;1');
FILE_NAME('RE_48,3x2-33,7x2_L90_V10.stp','2013-11-02T16:33:04',('DOCKWEILER AG'),('DOCKWEILER AG'),'Autodesk Inventor 2012','Autodesk Inventor 2012','');
FILE_SCHEMA(('CONFIG_CONTROL_DESIGN'));
ENDSEC;
DATA;
#5=APPLICATION_CONTEXT('configuration controlled 3D designs of mechanical parts and assemblies');
#6=APPLICATION_PROTOCOL_DEFINITION('International Standard','ap203_configuration_controlled_3d_design_of_mechanical_parts_and_assemblies_mim_lf',2004,#5);
#7=PRODUCT_CONTEXT('',#5,'mechanical');
#8=PRODUCT('N0006_002_001_009','N0006_002_001_009',$,(#7));
#9=PRODUCT_RELATED_PRODUCT_CATEGORY('part',$,(#8));
#10=PRODUCT_DEFINITION_FORMATION('',$,#8);
#11=PRODUCT_DEFINITION_CONTEXT('part definition',#5,'design');
#12=PRODUCT_DEFINITION('',$,#10,#11);
#18=(NAMED_UNIT(*)PLANE_ANGLE_UNIT()SI_UNIT($,.RADIAN.));
#19=DIMENSIONAL_EXPONENTS(0.0,0.0,0.0,0.0,0.0,0.0,0.0);
#20=PLANE_ANGLE_MEASURE_WITH_UNIT(PLANE_ANGLE_MEASURE(0.0174532925),#18);
#24=(CONVERSION_BASED_UNIT('DEGREE',#20)NAMED_UNIT(#19)PLANE_ANGLE_UNIT());
#28=(NAMED_UNIT(*)SI_UNIT($,.STERADIAN.)SOLID_ANGLE_UNIT());
#32=(LENGTH_UNIT()NAMED_UNIT(*)SI_UNIT(.MILLI.,.METRE.));
#34=UNCERTAINTY_MEASURE_WITH_UNIT(LENGTH_MEASURE(0.01),#32,'DISTANCE_ACCURACY_VALUE','');
#36=(GEOMETRIC_REPRESENTATION_CONTEXT(3)GLOBAL_UNCERTAINTY_ASSIGNED_CONTEXT((#34))GLOBAL_UNIT_ASSIGNED_CONTEXT((#24,#28,#32))REPRESENTATION_CONTEXT('None','None'));
#37=AXIS2_PLACEMENT_3D('',#38,#39,#40);
#38=CARTESIAN_POINT('',(0.0,0.0,0.0));
#39=DIRECTION('',(0.0,0.0,1.0));
#40=DIRECTION('',(1.0,0.0,0.0));
#41=SHAPE_REPRESENTATION('',(#37),#36);
#42=PRODUCT_DEFINITION_SHAPE('','',#12);
#43=SHAPE_DEFINITION_REPRESENTATION(#42,#41);
#49=(NAMED_UNIT(*)PLANE_ANGLE_UNIT()SI_UNIT($,.RADIAN.));
#50=DIMENSIONAL_EXPONENTS(0.0,0.0,0.0,0.0,0.0,0.0,0.0);
#51=PLANE_ANGLE_MEASURE_WITH_UNIT(PLANE_ANGLE_MEASURE(0.0174532925),#49);
#55=(CONVERSION_BASED_UNIT('DEGREE',#51)NAMED_UNIT(#50)PLANE_ANGLE_UNIT());
#59=(NAMED_UNIT(*)SI_UNIT($,.STERADIAN.)SOLID_ANGLE_UNIT());
#63=(LENGTH_UNIT()NAMED_UNIT(*)SI_UNIT(.MILLI.,.METRE.));
#65=UNCERTAINTY_MEASURE_WITH_UNIT(LENGTH_MEASURE(0.000001),#63,'DISTANCE_ACCURACY_VALUE','');
#67=(GEOMETRIC_REPRESENTATION_CONTEXT(3)GLOBAL_UNCERTAINTY_ASSIGNED_CONTEXT((#65))GLOBAL_UNIT_ASSIGNED_CONTEXT((#55,#59,#63))REPRESENTATION_CONTEXT('','3D'));
#68=CARTESIAN_POINT('',(7.942676150024304,60.112907890491087,14.525107888485415));
#69=CARTESIAN_POINT('',(-7.746726E-014,6.705860282444588,22.645442810153359));
#70=CARTESIAN_POINT('',(22.149999999999906,58.000000000000021,14.525107888485461));
#71=CARTESIAN_POINT('',(22.149999999999817,3.41172056488918,22.645442810153433));
#72=CARTESIAN_POINT('',(22.149999999999956,58.000000000000007,4.896575E-014));
#73=CARTESIAN_POINT('',(22.149999999999892,3.411720564889168,7.552625E-014));
#74=CARTESIAN_POINT('',(22.149999999999999,57.999999999999993,-14.525107888485362));
#75=CARTESIAN_POINT('',(22.149999999999967,3.411720564889158,-22.645442810153277));
#76=CARTESIAN_POINT('',(7.9426761500244,60.112907890491059,-14.525107888485415));
#77=CARTESIAN_POINT('',(7.391577E-014,6.705860282444567,-22.645442810153359));
#78=CARTESIAN_POINT('',(-6.264647699951203,62.225815780982124,-14.525107888485461));
#79=CARTESIAN_POINT('',(-22.149999999999817,9.999999999999975,-22.645442810153433));
#80=CARTESIAN_POINT('',(-6.264647699951254,62.225815780982138,-4.896575E-014));
#81=CARTESIAN_POINT('',(-22.149999999999899,9.999999999999988,-7.552625E-014));
#82=CARTESIAN_POINT('',(-6.2646476999513,62.225815780982153,14.525107888485362));
#83=CARTESIAN_POINT('',(-22.149999999999967,9.999999999999996,22.645442810153277));
#84=CARTESIAN_POINT('',(7.942676150024304,60.112907890491087,14.525107888485415));
#85=CARTESIAN_POINT('',(-7.746726E-014,6.705860282444588,22.645442810153359));
#93=(BOUNDED_SURFACE()B_SPLINE_SURFACE(1,2,((#68,#70,#72,#74,#76,#78,#80,#82,#84),(#69,#71,#73,#75,#77,#79,#81,#83,#85)),.UNSPECIFIED.,.F.,.T.,.U.)B_SPLINE_SURFACE_WITH_KNOTS((2,2),(3,2,2,2,3),(-2.315762515465246,0.148719626074736),(0.0,34.801651902966661,69.603303805933322,104.40495570889999,139.20660761186664),.UNSPECIFIED.)GEOMETRIC_REPRESENTATION_ITEM()RATIONAL_B_SPLINE_SURFACE(((1.0,0.707106781186548,1.0,0.707106781186548,1.0,0.707106781186548,1.0,0.707106781186548,1.0),(1.0,0.707106781186548,1.0,0.707106781186548,1.0,0.707106781186548,1.0,0.707106781186548,1.0)))REPRESENTATION_ITEM('')SURFACE());
#94=CARTESIAN_POINT('',(22.149999999999999,10.0,-2.712593E-015));
#95=VERTEX_POINT('',#94);
#96=CARTESIAN_POINT('',(0.0,10.0,0.0));
#97=DIRECTION('',(0.0,1.0,0.0));
#98=DIRECTION('',(-1.0,0.0,0.0));
#99=AXIS2_PLACEMENT_3D('',#96,#97,#98);
#100=CIRCLE('',#99,22.149999999999999);
#101=EDGE_CURVE('',#95,#95,#100,.T.);
#102=ORIENTED_EDGE('',*,*,#101,.F.);
#103=EDGE_LOOP('',(#102));
#104=FACE_OUTER_BOUND('',#103,.T.);
#105=CARTESIAN_POINT('',(22.149999999999991,58.000000000000014,-1.818600E-015));
#106=VERTEX_POINT('',#105);
#107=CARTESIAN_POINT('',(7.299999999999987,58.000000000000007,0.0));
#108=DIRECTION('',(0.0,1.0,0.0));
#109=DIRECTION('',(-1.0,0.0,0.0));
#110=AXIS2_PLACEMENT_3D('',#107,#108,#109);
#111=CIRCLE('',#110,14.850000000000003);
#112=EDGE_CURVE('',#106,#106,#111,.T.);
#113=ORIENTED_EDGE('',*,*,#112,.T.);
#114=EDGE_LOOP('',(#113));
#115=FACE_BOUND('',#114,.T.);
#116=ADVANCED_FACE('',(#104,#115),#93,.F.);
#117=CARTESIAN_POINT('',(7.299999999999969,90.0,0.0));
#118=DIRECTION('',(5.551115E-016,-1.0,0.0));
#119=DIRECTION('',(-1.0,0.0,0.0));
#120=AXIS2_PLACEMENT_3D('',#117,#118,#119);
#121=CYLINDRICAL_SURFACE('',#120,14.850000000000003);
#122=ORIENTED_EDGE('',*,*,#112,.F.);
#123=EDGE_LOOP('',(#122));
#124=FACE_OUTER_BOUND('',#123,.T.);
#125=CARTESIAN_POINT('',(22.14999999999997,90.0,1.818600E-015));
#126=VERTEX_POINT('',#125);
#127=CARTESIAN_POINT('',(7.299999999999969,90.0,0.0));
#128=DIRECTION('',(0.0,-1.0,0.0));
#129=DIRECTION('',(-1.0,0.0,0.0));
#130=AXIS2_PLACEMENT_3D('',#127,#128,#129);
#131=CIRCLE('',#130,14.850000000000003);
#132=EDGE_CURVE('',#126,#126,#131,.T.);
#133=ORIENTED_EDGE('',*,*,#132,.F.);
#134=EDGE_LOOP('',(#133));
#135=FACE_BOUND('',#134,.T.);
#136=ADVANCED_FACE('',(#124,#135),#121,.F.);
#137=CARTESIAN_POINT('',(0.0,4.996004E-015,0.0));
#138=DIRECTION('',(0.0,1.0,0.0));
#139=DIRECTION('',(-1.0,0.0,0.0));
#140=AXIS2_PLACEMENT_3D('',#137,#138,#139);
#141=CYLINDRICAL_SURFACE('',#140,22.149999999999999);
#142=CARTESIAN_POINT('',(22.149999999999999,4.996004E-015,2.712593E-015));
#143=VERTEX_POINT('',#142);
#144=CARTESIAN_POINT('',(0.0,4.996004E-015,0.0));
#145=DIRECTION('',(0.0,1.0,0.0));
#146=DIRECTION('',(-1.0,0.0,0.0));
#147=AXIS2_PLACEMENT_3D('',#144,#145,#146);
#148=CIRCLE('',#147,22.149999999999999);
#149=EDGE_CURVE('',#143,#143,#148,.T.);
#150=ORIENTED_EDGE('',*,*,#149,.F.);
#151=EDGE_LOOP('',(#150));
#152=FACE_OUTER_BOUND('',#151,.T.);
#153=ORIENTED_EDGE('',*,*,#101,.T.);
#154=EDGE_LOOP('',(#153));
#155=FACE_BOUND('',#154,.T.);
#156=ADVANCED_FACE('',(#152,#155),#141,.F.);
#157=CARTESIAN_POINT('',(7.299999999999978,75.000000000000014,0.0));
#158=DIRECTION('',(-5.551115E-016,1.0,0.0));
#159=DIRECTION('',(-1.0,0.0,0.0));
#160=AXIS2_PLACEMENT_3D('',#157,#158,#159);
#161=CYLINDRICAL_SURFACE('',#160,16.849999999999799);
#162=CARTESIAN_POINT('',(-9.549999999999837,90.0,0.0));
#163=VERTEX_POINT('',#162);
#164=CARTESIAN_POINT('',(7.299999999999969,90.0,0.0));
#165=DIRECTION('',(0.0,1.0,0.0));
#166=DIRECTION('',(-1.0,0.0,0.0));
#167=AXIS2_PLACEMENT_3D('',#164,#165,#166);
#168=CIRCLE('',#167,16.849999999999806);
#169=EDGE_CURVE('',#163,#163,#168,.T.);
#170=ORIENTED_EDGE('',*,*,#169,.F.);
#171=EDGE_LOOP('',(#170));
#172=FACE_OUTER_BOUND('',#171,.T.);
#173=CARTESIAN_POINT('',(24.150000000000009,60.0,2.957522E-015));
#174=VERTEX_POINT('',#173);
#175=CARTESIAN_POINT('',(7.299999999999986,60.000000000000007,0.0));
#176=DIRECTION('',(0.0,1.0,0.0));
#177=DIRECTION('',(-1.0,0.0,0.0));
#178=AXIS2_PLACEMENT_3D('',#175,#176,#177);
#179=CIRCLE('',#178,16.849999999999792);
#180=EDGE_CURVE('',#174,#174,#179,.T.);
#181=ORIENTED_EDGE('',*,*,#180,.T.);
#182=EDGE_LOOP('',(#181));
#183=FACE_BOUND('',#182,.T.);
#184=ADVANCED_FACE('',(#172,#183),#161,.T.);
#185=CARTESIAN_POINT('',(-1.124999999999934,90.0,0.0));
#186=DIRECTION('',(0.0,1.0,0.0));
#187=DIRECTION('',(0.0,0.0,1.0));
#188=AXIS2_PLACEMENT_3D('',#185,#186,#187);
#189=PLANE('',#188);
#190=ORIENTED_EDGE('',*,*,#169,.T.);
#191=EDGE_LOOP('',(#190));
#192=FACE_OUTER_BOUND('',#191,.T.);
#193=ORIENTED_EDGE('',*,*,#132,.T.);
#194=EDGE_LOOP('',(#193));
#195=FACE_BOUND('',#194,.T.);
#196=ADVANCED_FACE('',(#192,#195),#189,.T.);
#197=CARTESIAN_POINT('',(7.299999999999995,45.000000000000014,0.0));
#198=DIRECTION('',(5.551115E-016,-1.0,0.0));
#199=DIRECTION('',(-1.0,0.0,0.0));
#200=AXIS2_PLACEMENT_3D('',#197,#198,#199);
#201=CONICAL_SURFACE('',#200,24.149999999999899,25.950642777038052);
#202=ORIENTED_EDGE('',*,*,#180,.F.);
#203=CARTESIAN_POINT('',(-24.149999999999999,30.0,0.0));
#204=VERTEX_POINT('',#203);
#205=CARTESIAN_POINT('',(24.150000000000009,59.999999999999559,2.498002E-015));
#206=CARTESIAN_POINT('',(24.150000000000009,59.999999999999559,-1.060653525972292));
#207=CARTESIAN_POINT('',(24.078849978387989,59.936466636598354,-2.159085173696588));
#208=CARTESIAN_POINT('',(23.779585323165403,59.671558462269971,-4.3570617312642));
#209=CARTESIAN_POINT('',(23.551541149118293,59.470319227193485,-5.456632571867978));
#210=CARTESIAN_POINT('',(22.653754941963857,58.688935168492577,-8.656767003508762));
#211=CARTESIAN_POINT('',(21.759126640974628,57.924123290569511,-10.657806466631275));
#212=CARTESIAN_POINT('',(20.006281530352492,56.484202288221454,-13.60682623707798));
#213=CARTESIAN_POINT('',(19.125029614301631,55.775871467667272,-14.822148920574795));
#214=CARTESIAN_POINT('',(17.148380467472183,54.238018317947613,-17.070322307592395));
#215=CARTESIAN_POINT('',(16.05299201038936,53.408756828926244,-18.103359140291751));
#216=CARTESIAN_POINT('',(13.71272418659505,51.694269237894019,-19.934676288483683));
#217=CARTESIAN_POINT('',(12.466794261977608,50.808358259357064,-20.73368591527753));
#218=CARTESIAN_POINT('',(9.907941599971371,49.04384568122785,-22.071234305510355));
#219=CARTESIAN_POINT('',(8.594975587102304,48.165183690369737,-22.609610604019945));
#220=CARTESIAN_POINT('',(5.673343854234209,46.261448865612294,-23.536094885401909));
#221=CARTESIAN_POINT('',(3.932758098576649,45.163846453944394,-23.89557703308202));
#222=CARTESIAN_POINT('',(0.345421050066906,42.976665900911676,-24.214579723803666));
#223=CARTESIAN_POINT('',(-1.501260905464255,41.886990346771057,-24.174212085060859));
#224=CARTESIAN_POINT('',(-5.166479438627121,39.786666021546331,-23.663338424003481));
#225=CARTESIAN_POINT('',(-6.987528165113382,38.774362575947698,-23.192403028802168));
#226=CARTESIAN_POINT('',(-10.471503683645178,36.883630172043148,-21.841719666150333));
#227=CARTESIAN_POINT('',(-12.134252139228414,36.005056505265678,-20.961714284467572));
#228=CARTESIAN_POINT('',(-15.146083819766192,34.442477891946538,-18.89647214989866));
#229=CARTESIAN_POINT('',(-16.584023879912252,33.711932535225763,-17.660590733804938));
#230=CARTESIAN_POINT('',(-19.171721421652627,32.416304251874649,-14.811192061872035));
#231=CARTESIAN_POINT('',(-20.321491790071878,31.850880521719667,-13.197841486083384));
#232=CARTESIAN_POINT('',(-22.200413851440391,30.934991674930945,-9.710182012560574));
#233=CARTESIAN_POINT('',(-22.932159336021609,30.583053606714884,-7.831157019340532));
#234=CARTESIAN_POINT('',(-23.907054904723644,30.115552621777603,-3.957736453312824));
#235=CARTESIAN_POINT('',(-24.150000000000009,29.999999999999982,-1.963288047517002));
#236=CARTESIAN_POINT('',(-24.150000000000009,29.999999999999982,-8.326673E-015));
#237=B_SPLINE_CURVE_WITH_KNOTS('',3,(#205,#206,#207,#208,#209,#210,#211,#212,#213,#214,#215,#216,#217,#218,#219,#220,#221,#222,#223,#224,#225,#226,#227,#228,#229,#230,#231,#232,#233,#234,#235,#236),.UNSPECIFIED.,.F.,.U.,(4,2,2,2,2,2,2,2,2,2,2,2,2,2,2,4),(7.958470804266,8.276666862057688,8.594862919849378,9.231255035432756,9.711030491192878,10.190805946952999,10.670581402713122,11.150356858473243,11.753016631732834,12.355676404992424,12.958336178252015,13.560995951511606,14.149982365766704,14.738968780021803,15.327955194276901,15.916941608531999),.UNSPECIFIED.);
#238=EDGE_CURVE('',#174,#204,#237,.T.);
#239=ORIENTED_EDGE('',*,*,#238,.T.);
#240=CARTESIAN_POINT('',(-24.150000000000009,29.999999999999982,0.0));
#241=CARTESIAN_POINT('',(-24.150000000000009,29.999999999999982,1.963288047516992));
#242=CARTESIAN_POINT('',(-23.907054904723644,30.115552621777613,3.957736453312819));
#243=CARTESIAN_POINT('',(-22.932159336021609,30.583053606714895,7.831157019340525));
#244=CARTESIAN_POINT('',(-22.200413851440395,30.934991674930927,9.710182012560571));
#245=CARTESIAN_POINT('',(-20.321491790071882,31.85088052171966,13.197841486083369));
#246=CARTESIAN_POINT('',(-19.171721421652641,32.416304251874649,14.811192061872013));
#247=CARTESIAN_POINT('',(-16.584023879912277,33.711932535225756,17.660590733804916));
#248=CARTESIAN_POINT('',(-15.146083819766215,34.442477891946496,18.896472149898642));
#249=CARTESIAN_POINT('',(-12.134252139228444,36.005056505265642,20.961714284467558));
#250=CARTESIAN_POINT('',(-10.47150368364521,36.883630172043134,21.841719666150322));
#251=CARTESIAN_POINT('',(-6.987528165113409,38.774362575947684,23.192403028802161));
#252=CARTESIAN_POINT('',(-5.16647943862715,39.786666021546317,23.663338424003484));
#253=CARTESIAN_POINT('',(-1.501260905464273,41.886990346771043,24.174212085060862));
#254=CARTESIAN_POINT('',(0.345421050066887,42.976665900911684,24.214579723803663));
#255=CARTESIAN_POINT('',(3.932758098576636,45.163846453944402,23.895577033082013));
#256=CARTESIAN_POINT('',(5.673343854234203,46.261448865612294,23.536094885401916));
#257=CARTESIAN_POINT('',(8.594975587102303,48.165183690369737,22.609610604019942));
#258=CARTESIAN_POINT('',(9.907941599971389,49.043845681227857,22.071234305510352));
#259=CARTESIAN_POINT('',(12.466794261977622,50.808358259357071,20.733685915277526));
#260=CARTESIAN_POINT('',(13.712724186595048,51.694269237894019,19.934676288483683));
#261=CARTESIAN_POINT('',(16.052992010389353,53.408756828926244,18.103359140291758));
#262=CARTESIAN_POINT('',(17.148380467472176,54.238018317947606,17.070322307592395));
#263=CARTESIAN_POINT('',(19.125029614301631,55.77587146766728,14.822148920574794));
#264=CARTESIAN_POINT('',(20.006281530352481,56.484202288221468,13.606826237077987));
#265=CARTESIAN_POINT('',(21.759126640974618,57.924123290569526,10.657806466631284));
#266=CARTESIAN_POINT('',(22.653754941963857,58.688935168492584,8.656767003508769));
#267=CARTESIAN_POINT('',(23.5515411491183,59.470319227193507,5.45663257186799));
#268=CARTESIAN_POINT('',(23.779585323165403,59.671558462269971,4.357061731264213));
#269=CARTESIAN_POINT('',(24.078849978387989,59.936466636598354,2.159085173696599));
#270=CARTESIAN_POINT('',(24.150000000000009,59.999999999999559,1.060653525972304));
#271=CARTESIAN_POINT('',(24.150000000000009,59.999999999999559,7.494005E-015));
#272=B_SPLINE_CURVE_WITH_KNOTS('',3,(#240,#241,#242,#243,#244,#245,#246,#247,#248,#249,#250,#251,#252,#253,#254,#255,#256,#257,#258,#259,#260,#261,#262,#263,#264,#265,#266,#267,#268,#269,#270,#271),.UNSPECIFIED.,.F.,.U.,(4,2,2,2,2,2,2,2,2,2,2,2,2,2,2,4),(0.0,0.588986414255098,1.177972828510195,1.766959242765293,2.35594565702039,2.958605430279982,3.561265203539574,4.163924976799166,4.766584750058757,5.246360205818879,5.726135661579001,6.205911117339122,6.685686573099243,7.322078688682622,7.640274746474311,7.958470804266),.UNSPECIFIED.);
#273=EDGE_CURVE('',#204,#174,#272,.T.);
#274=ORIENTED_EDGE('',*,*,#273,.T.);
#275=EDGE_LOOP('',(#202,#239,#274));
#276=FACE_OUTER_BOUND('',#275,.T.);
#277=ADVANCED_FACE('',(#276),#201,.T.);
#278=CARTESIAN_POINT('',(0.0,15.000000000000004,0.0));
#279=DIRECTION('',(0.0,-1.0,0.0));
#280=DIRECTION('',(1.0,0.0,0.0));
#281=AXIS2_PLACEMENT_3D('',#278,#279,#280);
#282=CYLINDRICAL_SURFACE('',#281,24.150000000000009);
#283=CARTESIAN_POINT('',(24.150000000000009,7.771561E-015,0.0));
#284=VERTEX_POINT('',#283);
#285=CARTESIAN_POINT('',(0.0,8.881784E-015,0.0));
#286=DIRECTION('',(0.0,-1.0,0.0));
#287=DIRECTION('',(1.0,0.0,0.0));
#288=AXIS2_PLACEMENT_3D('',#285,#286,#287);
#289=CIRCLE('',#288,24.150000000000009);
#290=EDGE_CURVE('',#284,#284,#289,.T.);
#291=ORIENTED_EDGE('',*,*,#290,.F.);
#292=EDGE_LOOP('',(#291));
#293=FACE_OUTER_BOUND('',#292,.T.);
#294=ORIENTED_EDGE('',*,*,#238,.F.);
#295=ORIENTED_EDGE('',*,*,#273,.F.);
#296=EDGE_LOOP('',(#294,#295));
#297=FACE_BOUND('',#296,.T.);
#298=ADVANCED_FACE('',(#293,#297),#282,.T.);
#299=CARTESIAN_POINT('',(12.075000000000005,4.996004E-015,0.0));
#300=DIRECTION('',(0.0,-1.0,0.0));
#301=DIRECTION('',(0.0,0.0,-1.0));
#302=AXIS2_PLACEMENT_3D('',#299,#300,#301);
#303=PLANE('',#302);
#304=ORIENTED_EDGE('',*,*,#290,.T.);
#305=EDGE_LOOP('',(#304));
#306=FACE_OUTER_BOUND('',#305,.T.);
#307=ORIENTED_EDGE('',*,*,#149,.T.);
#308=EDGE_LOOP('',(#307));
#309=FACE_BOUND('',#308,.T.);
#310=ADVANCED_FACE('',(#306,#309),#303,.T.);
#311=CLOSED_SHELL('',(#116,#136,#156,#184,#196,#277,#298,#310));
#312=MANIFOLD_SOLID_BREP('Volumenk\S\vrper2',#311);
#313=COLOUR_RGB('Metall - Stahl',0.639216005802155,0.639216005802155,0.686275005340576);
#314=FILL_AREA_STYLE_COLOUR('Metall - Stahl',#313);
#315=FILL_AREA_STYLE('Metall - Stahl',(#314));
#316=SURFACE_STYLE_FILL_AREA(#315);
#317=SURFACE_SIDE_STYLE('Metall - Stahl',(#316));
#318=SURFACE_STYLE_USAGE(.BOTH.,#317);
#319=PRESENTATION_STYLE_ASSIGNMENT((#318));
#320=STYLED_ITEM('',(#319),#312);
#321=MECHANICAL_DESIGN_GEOMETRIC_PRESENTATION_REPRESENTATION('',(#320),#36);
#322=ADVANCED_BREP_SHAPE_REPRESENTATION('ABSR',(#312),#36);
#323=SHAPE_REPRESENTATION_RELATIONSHIP('SRR','None',#322,#41);
ENDSEC;
END-ISO-10303-21;
