ISO-10303-21;
HEADER;
FILE_DESCRIPTION (( 'STEP AP203' ),
    '1' );
FILE_NAME ('3D_M-2030P_65_174774050.STEP',
    '2024-09-10T06:58:42',
    ( '' ),
    ( '' ),
    'SwSTEP 2.0',
    'SolidWorks 2024',
    '' );
FILE_SCHEMA (( 'CONFIG_CONTROL_DESIGN' ));
ENDSEC;

DATA;
#1 = DIRECTION ( 'NONE',  ( 1.000000000000000000, 0.000000000000000000, 0.000000000000000000 ) ) ;
#2 = DIRECTION ( 'NONE',  ( -1.000000000000000000, -0.000000000000000000, -0.000000000000000000 ) ) ;
#3 = FACE_OUTER_BOUND ( 'NONE', #238, .T. ) ;
#4 = PERSON_AND_ORGANIZATION_ROLE ( 'creator' ) ;
#5 = APPROVAL_DATE_TIME ( #154, #213 ) ;
#6 = PERSON_AND_ORGANIZATION_ROLE ( 'creator' ) ;
#7 = PRODUCT_DEFINITION ( 'UNKNOWN', '', #102, #112 ) ;
#8 = CARTESIAN_POINT ( 'NONE',  ( -3.999999999999989786, 0.000000000000000000, 0.000000000000000000 ) ) ;
#9 = FACE_OUTER_BOUND ( 'NONE', #95, .T. ) ;
#10 = CARTESIAN_POINT ( 'NONE',  ( -3.999999999999989786, 5.265981236333613737E-15, 42.99999999999996447 ) ) ;
#11 = VECTOR ( 'NONE', #187, 1000.000000000000000 ) ;
#12 = LOCAL_TIME ( 8, 58, 42.00000000000000000, #135 ) ;
#13 = EDGE_CURVE ( 'NONE', #159, #248, #76, .T. ) ;
#14 = EDGE_LOOP ( 'NONE', ( #77, #161 ) ) ;
#15 = DIRECTION ( 'NONE',  ( -1.000000000000000000, -0.000000000000000000, -0.000000000000000000 ) ) ;
#16 = FACE_OUTER_BOUND ( 'NONE', #251, .T. ) ;
#17 = ADVANCED_FACE ( 'NONE', ( #214 ), #143, .F. ) ;
#18 = CARTESIAN_POINT ( 'NONE',  ( -3.999999999999989786, 0.000000000000000000, 0.000000000000000000 ) ) ;
#19 =( NAMED_UNIT ( * ) PLANE_ANGLE_UNIT ( ) SI_UNIT ( $, .RADIAN. ) );
#20 = CYLINDRICAL_SURFACE ( 'NONE', #115, 39.49999999999996447 ) ;
#21 = MANIFOLD_SOLID_BREP ( 'Rotation1', #103 ) ;
#22 = LINE ( 'NONE', #204, #226 ) ;
#23 = EDGE_CURVE ( 'NONE', #159, #140, #48, .T. ) ;
#24 = APPROVAL_PERSON_ORGANIZATION ( #169, #39, #189 ) ;
#25 = CC_DESIGN_APPROVAL ( #39, ( #7 ) ) ;
#26 = PERSON_AND_ORGANIZATION ( #249, #147 ) ;
#27 = ADVANCED_FACE ( 'NONE', ( #9 ), #111, .T. ) ;
#28 = ORIENTED_EDGE ( 'NONE', *, *, #82, .T. ) ;
#29 = DIRECTION ( 'NONE',  ( -0.000000000000000000, 0.000000000000000000, 1.000000000000000000 ) ) ;
#30 = CARTESIAN_POINT ( 'NONE',  ( -15.99999999999998579, 0.000000000000000000, 0.000000000000000000 ) ) ;
#31 = DIRECTION ( 'NONE',  ( 0.000000000000000000, 0.000000000000000000, -1.000000000000000000 ) ) ;
#32 = ADVANCED_FACE ( 'NONE', ( #121, #200 ), #179, .F. ) ;
#33 = ORIENTED_EDGE ( 'NONE', *, *, #13, .F. ) ;
#34 = PRODUCT_DEFINITION_SHAPE ( 'NONE', 'NONE',  #7 ) ;
#35 =( GEOMETRIC_REPRESENTATION_CONTEXT ( 3 ) GLOBAL_UNCERTAINTY_ASSIGNED_CONTEXT ( ( #151 ) ) GLOBAL_UNIT_ASSIGNED_CONTEXT ( ( #240, #19, #223 ) ) REPRESENTATION_CONTEXT ( 'NONE', 'WORKASPACE' ) );
#36 = CIRCLE ( 'NONE', #148, 39.49999999999996447 ) ;
#37 = CARTESIAN_POINT ( 'NONE',  ( 0.000000000000000000, 0.000000000000000000, 0.000000000000000000 ) ) ;
#38 = PERSON_AND_ORGANIZATION_ROLE ( 'design_owner' ) ;
#39 = APPROVAL ( #63, 'UNSPECIFIED' ) ;
#40 = AXIS2_PLACEMENT_3D ( 'NONE', #18, #185, #59 ) ;
#41 = DIRECTION ( 'NONE',  ( -1.000000000000000000, -0.000000000000000000, -0.000000000000000000 ) ) ;
#42 = PERSON_AND_ORGANIZATION ( #249, #147 ) ;
#43 = CALENDAR_DATE ( 2024, 10, 9 ) ;
#44 = DATE_AND_TIME ( #210, #12 ) ;
#45 = APPROVAL_STATUS ( 'not_yet_approved' ) ;
#46 = CC_DESIGN_PERSON_AND_ORGANIZATION_ASSIGNMENT ( #230, #6, ( #102 ) ) ;
#47 = SECURITY_CLASSIFICATION ( '', '', #113 ) ;
#48 = CIRCLE ( 'NONE', #132, 39.49999999999996447 ) ;
#49 = ORIENTED_EDGE ( 'NONE', *, *, #145, .F. ) ;
#50 = VERTEX_POINT ( 'NONE', #183 ) ;
#51 = AXIS2_PLACEMENT_3D ( 'NONE', #131, #255, #146 ) ;
#52 = CARTESIAN_POINT ( 'NONE',  ( -3.999999999999989786, 0.000000000000000000, -42.99999999999996447 ) ) ;
#53 = VERTEX_POINT ( 'NONE', #10 ) ;
#54 = DIRECTION ( 'NONE',  ( -1.000000000000000000, 0.000000000000000000, -0.000000000000000000 ) ) ;
#55 = DIRECTION ( 'NONE',  ( -1.000000000000000000, -0.000000000000000000, -0.000000000000000000 ) ) ;
#56 = CC_DESIGN_PERSON_AND_ORGANIZATION_ASSIGNMENT ( #202, #38, ( #60 ) ) ;
#57 = FACE_OUTER_BOUND ( 'NONE', #124, .T. ) ;
#58 = APPROVAL_PERSON_ORGANIZATION ( #42, #74, #152 ) ;
#59 = DIRECTION ( 'NONE',  ( 0.000000000000000000, 0.000000000000000000, -1.000000000000000000 ) ) ;
#60 = PRODUCT ( '3D_M-2030P_65_174774050', '3D_M-2030P_65_174774050', '', ( #83 ) ) ;
#61 = CARTESIAN_POINT ( 'NONE',  ( -108.2865231617622612, 0.000000000000000000, 0.000000000000000000 ) ) ;
#62 = LOCAL_TIME ( 8, 58, 42.00000000000000000, #173 ) ;
#63 = APPROVAL_STATUS ( 'not_yet_approved' ) ;
#64 = EDGE_CURVE ( 'NONE', #248, #78, #85, .T. ) ;
#65 = ADVANCED_BREP_SHAPE_REPRESENTATION ( '3D_M-2030P_65_174774050', ( #21, #114 ), #35 ) ;
#66 = CALENDAR_DATE ( 2024, 10, 9 ) ;
#67 = DATE_TIME_ROLE ( 'classification_date' ) ;
#68 = CC_DESIGN_PERSON_AND_ORGANIZATION_ASSIGNMENT ( #26, #117, ( #47 ) ) ;
#69 = EDGE_LOOP ( 'NONE', ( #105, #155, #176, #181 ) ) ;
#70 = LOCAL_TIME ( 8, 58, 42.00000000000000000, #71 ) ;
#71 = COORDINATED_UNIVERSAL_TIME_OFFSET ( 1, 0, .AHEAD. ) ;
#72 = ORIENTED_EDGE ( 'NONE', *, *, #23, .T. ) ;
#73 = DIRECTION ( 'NONE',  ( 0.000000000000000000, 0.000000000000000000, 1.000000000000000000 ) ) ;
#74 = APPROVAL ( #45, 'UNSPECIFIED' ) ;
#75 = AXIS2_PLACEMENT_3D ( 'NONE', #125, #2, #84 ) ;
#76 = LINE ( 'NONE', #215, #252 ) ;
#77 = ORIENTED_EDGE ( 'NONE', *, *, #130, .T. ) ;
#78 = VERTEX_POINT ( 'NONE', #142 ) ;
#79 = EDGE_CURVE ( 'NONE', #50, #138, #218, .T. ) ;
#80 = CYLINDRICAL_SURFACE ( 'NONE', #225, 39.49999999999996447 ) ;
#81 = DIRECTION ( 'NONE',  ( 0.9396926207859092051, 4.188538737676964648E-17, 0.3420201433256664925 ) ) ;
#82 = EDGE_CURVE ( 'NONE', #138, #50, #88, .T. ) ;
#83 = MECHANICAL_CONTEXT ( 'NONE', #209, 'mechanical' ) ;
#84 = DIRECTION ( 'NONE',  ( 0.000000000000000000, 0.000000000000000000, 1.000000000000000000 ) ) ;
#85 = CIRCLE ( 'NONE', #123, 39.49999999999996447 ) ;
#86 = DIRECTION ( 'NONE',  ( -1.000000000000000000, -0.000000000000000000, -0.000000000000000000 ) ) ;
#87 = CC_DESIGN_DATE_AND_TIME_ASSIGNMENT ( #244, #231, ( #7 ) ) ;
#88 = CIRCLE ( 'NONE', #211, 38.63235718880557101 ) ;
#89 = APPROVAL_DATE_TIME ( #44, #74 ) ;
#90 = DATE_AND_TIME ( #133, #197 ) ;
#91 = CC_DESIGN_APPROVAL ( #74, ( #47 ) ) ;
#92 = DATE_AND_TIME ( #208, #70 ) ;
#93 = COORDINATED_UNIVERSAL_TIME_OFFSET ( 1, 0, .AHEAD. ) ;
#94 = ADVANCED_FACE ( 'NONE', ( #184 ), #80, .T. ) ;
#95 = EDGE_LOOP ( 'NONE', ( #236, #139, #174, #49 ) ) ;
#96 = PERSON_AND_ORGANIZATION ( #249, #147 ) ;
#97 = VERTEX_POINT ( 'NONE', #52 ) ;
#98 = ORIENTED_EDGE ( 'NONE', *, *, #79, .F. ) ;
#99 = CC_DESIGN_PERSON_AND_ORGANIZATION_ASSIGNMENT ( #96, #4, ( #7 ) ) ;
#100 = ORIENTED_EDGE ( 'NONE', *, *, #23, .F. ) ;
#101 = CARTESIAN_POINT ( 'NONE',  ( -15.99999999999998579, 0.000000000000000000, 0.000000000000000000 ) ) ;
#102 = PRODUCT_DEFINITION_FORMATION_WITH_SPECIFIED_SOURCE ( 'ANY', '', #60, .NOT_KNOWN. ) ;
#103 = CLOSED_SHELL ( 'NONE', ( #94, #27, #119, #199, #32, #175, #17 ) ) ;
#104 = EDGE_LOOP ( 'NONE', ( #134, #100 ) ) ;
#105 = ORIENTED_EDGE ( 'NONE', *, *, #171, .T. ) ;
#106 = CONICAL_SURFACE ( 'NONE', #40, 42.99999999999996447, 0.3490658503988635086 ) ;
#107 = DIRECTION ( 'NONE',  ( 0.000000000000000000, 0.000000000000000000, 1.000000000000000000 ) ) ;
#108 = CARTESIAN_POINT ( 'NONE',  ( 0.000000000000000000, 4.837354856632040719E-15, -39.49999999999996447 ) ) ;
#109 = DIRECTION ( 'NONE',  ( -1.000000000000000000, -0.000000000000000000, -0.000000000000000000 ) ) ;
#110 = CARTESIAN_POINT ( 'NONE',  ( 0.000000000000000000, 0.000000000000000000, 0.000000000000000000 ) ) ;
#111 = CONICAL_SURFACE ( 'NONE', #136, 42.99999999999996447, 0.3490658503988635086 ) ;
#112 = DESIGN_CONTEXT ( 'detailed design', #149, 'design' ) ;
#113 = SECURITY_CLASSIFICATION_LEVEL ( 'unclassified' ) ;
#114 = AXIS2_PLACEMENT_3D ( 'NONE', #110, #222, #1 ) ;
#115 = AXIS2_PLACEMENT_3D ( 'NONE', #61, #86, #107 ) ;
#116 = ORIENTED_EDGE ( 'NONE', *, *, #245, .F. ) ;
#117 = PERSON_AND_ORGANIZATION_ROLE ( 'classification_officer' ) ;
#118 = CIRCLE ( 'NONE', #220, 39.49999999999996447 ) ;
#119 = ADVANCED_FACE ( 'NONE', ( #57 ), #144, .F. ) ;
#120 = ORIENTED_EDGE ( 'NONE', *, *, #163, .F. ) ;
#121 = FACE_OUTER_BOUND ( 'NONE', #247, .T. ) ;
#122 = DIRECTION ( 'NONE',  ( 0.000000000000000000, 0.000000000000000000, 1.000000000000000000 ) ) ;
#123 = AXIS2_PLACEMENT_3D ( 'NONE', #237, #55, #73 ) ;
#124 = EDGE_LOOP ( 'NONE', ( #177, #28 ) ) ;
#125 = CARTESIAN_POINT ( 'NONE',  ( -3.999999999999989786, 0.000000000000000000, 0.000000000000000000 ) ) ;
#126 = CC_DESIGN_DATE_AND_TIME_ASSIGNMENT ( #90, #67, ( #47 ) ) ;
#127 = LOCAL_TIME ( 8, 58, 42.00000000000000000, #93 ) ;
#128 = DIRECTION ( 'NONE',  ( 0.000000000000000000, 0.000000000000000000, 1.000000000000000000 ) ) ;
#129 = DIRECTION ( 'NONE',  ( 0.000000000000000000, 0.000000000000000000, -1.000000000000000000 ) ) ;
#130 = EDGE_CURVE ( 'NONE', #78, #248, #118, .T. ) ;
#131 = CARTESIAN_POINT ( 'NONE',  ( -3.999999999999989786, 0.000000000000000000, 0.000000000000000000 ) ) ;
#132 = AXIS2_PLACEMENT_3D ( 'NONE', #178, #160, #217 ) ;
#133 = CALENDAR_DATE ( 2024, 10, 9 ) ;
#134 = ORIENTED_EDGE ( 'NONE', *, *, #171, .F. ) ;
#135 = COORDINATED_UNIVERSAL_TIME_OFFSET ( 1, 0, .AHEAD. ) ;
#136 = AXIS2_PLACEMENT_3D ( 'NONE', #8, #141, #31 ) ;
#137 = COORDINATED_UNIVERSAL_TIME_OFFSET ( 1, 0, .AHEAD. ) ;
#138 = VERTEX_POINT ( 'NONE', #165 ) ;
#139 = ORIENTED_EDGE ( 'NONE', *, *, #245, .T. ) ;
#140 = VERTEX_POINT ( 'NONE', #150 ) ;
#141 = DIRECTION ( 'NONE',  ( 1.000000000000000000, 0.000000000000000000, 0.000000000000000000 ) ) ;
#142 = CARTESIAN_POINT ( 'NONE',  ( -3.999999999999989786, 0.000000000000000000, 39.49999999999996447 ) ) ;
#143 = PLANE ( 'NONE',  #168 ) ;
#144 = PLANE ( 'NONE',  #157 ) ;
#145 = EDGE_CURVE ( 'NONE', #50, #97, #241, .T. ) ;
#146 = DIRECTION ( 'NONE',  ( 0.000000000000000000, 0.000000000000000000, 1.000000000000000000 ) ) ;
#147 = ORGANIZATION ( 'UNSPECIFIED', 'UNSPECIFIED', '' ) ;
#148 = AXIS2_PLACEMENT_3D ( 'NONE', #37, #41, #128 ) ;
#149 = APPLICATION_CONTEXT ( 'configuration controlled 3d designs of mechanical parts and assemblies' ) ;
#150 = CARTESIAN_POINT ( 'NONE',  ( 0.000000000000000000, 0.000000000000000000, 39.49999999999996447 ) ) ;
#151 = UNCERTAINTY_MEASURE_WITH_UNIT (LENGTH_MEASURE( 1.000000000000000082E-05 ), #240, 'distance_accuracy_value', 'NONE');
#152 = APPROVAL_ROLE ( '' ) ;
#153 = PERSON_AND_ORGANIZATION_ROLE ( 'design_supplier' ) ;
#154 = DATE_AND_TIME ( #43, #127 ) ;
#155 = ORIENTED_EDGE ( 'NONE', *, *, #13, .T. ) ;
#156 = PERSON_AND_ORGANIZATION ( #249, #147 ) ;
#157 = AXIS2_PLACEMENT_3D ( 'NONE', #219, #228, #129 ) ;
#158 = DIRECTION ( 'NONE',  ( -1.000000000000000000, -0.000000000000000000, -0.000000000000000000 ) ) ;
#159 = VERTEX_POINT ( 'NONE', #108 ) ;
#160 = DIRECTION ( 'NONE',  ( -1.000000000000000000, -0.000000000000000000, -0.000000000000000000 ) ) ;
#161 = ORIENTED_EDGE ( 'NONE', *, *, #64, .T. ) ;
#162 = DIRECTION ( 'NONE',  ( -1.000000000000000000, -0.000000000000000000, -0.000000000000000000 ) ) ;
#163 = EDGE_CURVE ( 'NONE', #53, #97, #180, .T. ) ;
#164 = LINE ( 'NONE', #167, #190 ) ;
#165 = CARTESIAN_POINT ( 'NONE',  ( -15.99999999999998579, 4.998540246906205189E-15, 38.63235718880557101 ) ) ;
#166 = APPROVAL_PERSON_ORGANIZATION ( #156, #213, #229 ) ;
#167 = CARTESIAN_POINT ( 'NONE',  ( -108.2865231617622612, 0.000000000000000000, 39.49999999999996447 ) ) ;
#168 = AXIS2_PLACEMENT_3D ( 'NONE', #193, #254, #29 ) ;
#169 = PERSON_AND_ORGANIZATION ( #249, #147 ) ;
#170 = SHAPE_DEFINITION_REPRESENTATION ( #34, #65 ) ;
#171 = EDGE_CURVE ( 'NONE', #140, #159, #36, .T. ) ;
#172 = APPROVAL_STATUS ( 'not_yet_approved' ) ;
#173 = COORDINATED_UNIVERSAL_TIME_OFFSET ( 1, 0, .AHEAD. ) ;
#174 = ORIENTED_EDGE ( 'NONE', *, *, #163, .T. ) ;
#175 = ADVANCED_FACE ( 'NONE', ( #16 ), #20, .T. ) ;
#176 = ORIENTED_EDGE ( 'NONE', *, *, #130, .F. ) ;
#177 = ORIENTED_EDGE ( 'NONE', *, *, #79, .T. ) ;
#178 = CARTESIAN_POINT ( 'NONE',  ( 0.000000000000000000, 0.000000000000000000, 0.000000000000000000 ) ) ;
#179 = PLANE ( 'NONE',  #198 ) ;
#180 = CIRCLE ( 'NONE', #75, 42.99999999999996447 ) ;
#181 = ORIENTED_EDGE ( 'NONE', *, *, #207, .F. ) ;
#182 = CC_DESIGN_SECURITY_CLASSIFICATION ( #47, ( #102 ) ) ;
#183 = CARTESIAN_POINT ( 'NONE',  ( -15.99999999999998579, 0.000000000000000000, -38.63235718880557101 ) ) ;
#184 = FACE_OUTER_BOUND ( 'NONE', #69, .T. ) ;
#185 = DIRECTION ( 'NONE',  ( 1.000000000000000000, 0.000000000000000000, 0.000000000000000000 ) ) ;
#186 = CARTESIAN_POINT ( 'NONE',  ( -3.999999999999989786, 0.000000000000000000, 0.000000000000000000 ) ) ;
#187 = DIRECTION ( 'NONE',  ( 0.9396926207859092051, 0.000000000000000000, -0.3420201433256664925 ) ) ;
#188 = APPLICATION_PROTOCOL_DEFINITION ( 'international standard', 'config_control_design', 1994, #209 ) ;
#189 = APPROVAL_ROLE ( '' ) ;
#190 = VECTOR ( 'NONE', #206, 1000.000000000000000 ) ;
#191 = PERSON_AND_ORGANIZATION ( #249, #147 ) ;
#192 = ORIENTED_EDGE ( 'NONE', *, *, #145, .T. ) ;
#193 = CARTESIAN_POINT ( 'NONE',  ( 1.951563910473907981E-15, 39.49999999999996447, 0.000000000000000000 ) ) ;
#194 = PRODUCT_RELATED_PRODUCT_CATEGORY ( 'detail', '', ( #60 ) ) ;
#195 = DIRECTION ( 'NONE',  ( -0.000000000000000000, 0.000000000000000000, 1.000000000000000000 ) ) ;
#196 = DIRECTION ( 'NONE',  ( -1.000000000000000000, -0.000000000000000000, -0.000000000000000000 ) ) ;
#197 = LOCAL_TIME ( 8, 58, 42.00000000000000000, #137 ) ;
#198 = AXIS2_PLACEMENT_3D ( 'NONE', #250, #54, #195 ) ;
#199 = ADVANCED_FACE ( 'NONE', ( #3 ), #106, .T. ) ;
#200 = FACE_BOUND ( 'NONE', #14, .T. ) ;
#201 = DIRECTION ( 'NONE',  ( 0.000000000000000000, 0.000000000000000000, 1.000000000000000000 ) ) ;
#202 = PERSON_AND_ORGANIZATION ( #249, #147 ) ;
#203 = CARTESIAN_POINT ( 'NONE',  ( -3.999999999999989786, 4.837354856632040719E-15, -39.49999999999996447 ) ) ;
#204 = CARTESIAN_POINT ( 'NONE',  ( -3.999999999999989786, 5.265981236333613737E-15, 42.99999999999996447 ) ) ;
#205 = CIRCLE ( 'NONE', #51, 42.99999999999996447 ) ;
#206 = DIRECTION ( 'NONE',  ( -1.000000000000000000, -0.000000000000000000, -0.000000000000000000 ) ) ;
#207 = EDGE_CURVE ( 'NONE', #140, #78, #164, .T. ) ;
#208 = CALENDAR_DATE ( 2024, 10, 9 ) ;
#209 = APPLICATION_CONTEXT ( 'configuration controlled 3d designs of mechanical parts and assemblies' ) ;
#210 = CALENDAR_DATE ( 2024, 10, 9 ) ;
#211 = AXIS2_PLACEMENT_3D ( 'NONE', #30, #158, #122 ) ;
#212 = ORIENTED_EDGE ( 'NONE', *, *, #64, .F. ) ;
#213 = APPROVAL ( #172, 'UNSPECIFIED' ) ;
#214 = FACE_OUTER_BOUND ( 'NONE', #104, .T. ) ;
#215 = CARTESIAN_POINT ( 'NONE',  ( -108.2865231617622612, 4.837354856632040719E-15, -39.49999999999996447 ) ) ;
#216 = DIRECTION ( 'NONE',  ( 0.000000000000000000, 0.000000000000000000, 1.000000000000000000 ) ) ;
#217 = DIRECTION ( 'NONE',  ( 0.000000000000000000, 0.000000000000000000, 1.000000000000000000 ) ) ;
#218 = CIRCLE ( 'NONE', #242, 38.63235718880557101 ) ;
#219 = CARTESIAN_POINT ( 'NONE',  ( -15.99999999999998934, -3.315318599521195210E-14, 0.000000000000000000 ) ) ;
#220 = AXIS2_PLACEMENT_3D ( 'NONE', #186, #109, #201 ) ;
#221 = CARTESIAN_POINT ( 'NONE',  ( -3.999999999999989786, 0.000000000000000000, -42.99999999999996447 ) ) ;
#222 = DIRECTION ( 'NONE',  ( 0.000000000000000000, 0.000000000000000000, 1.000000000000000000 ) ) ;
#223 =( NAMED_UNIT ( * ) SI_UNIT ( $, .STERADIAN. ) SOLID_ANGLE_UNIT ( ) );
#224 = APPLICATION_PROTOCOL_DEFINITION ( 'international standard', 'config_control_design', 1994, #149 ) ;
#225 = AXIS2_PLACEMENT_3D ( 'NONE', #235, #162, #239 ) ;
#226 = VECTOR ( 'NONE', #81, 1000.000000000000000 ) ;
#227 = CC_DESIGN_PERSON_AND_ORGANIZATION_ASSIGNMENT ( #191, #153, ( #102 ) ) ;
#228 = DIRECTION ( 'NONE',  ( 1.000000000000000000, 0.000000000000000000, 0.000000000000000000 ) ) ;
#229 = APPROVAL_ROLE ( '' ) ;
#230 = PERSON_AND_ORGANIZATION ( #249, #147 ) ;
#231 = DATE_TIME_ROLE ( 'creation_date' ) ;
#232 = ORIENTED_EDGE ( 'NONE', *, *, #234, .F. ) ;
#233 = CC_DESIGN_APPROVAL ( #213, ( #102 ) ) ;
#234 = EDGE_CURVE ( 'NONE', #97, #53, #205, .T. ) ;
#235 = CARTESIAN_POINT ( 'NONE',  ( -108.2865231617622612, 0.000000000000000000, 0.000000000000000000 ) ) ;
#236 = ORIENTED_EDGE ( 'NONE', *, *, #82, .F. ) ;
#237 = CARTESIAN_POINT ( 'NONE',  ( -3.999999999999989786, 0.000000000000000000, 0.000000000000000000 ) ) ;
#238 = EDGE_LOOP ( 'NONE', ( #116, #98, #192, #246 ) ) ;
#239 = DIRECTION ( 'NONE',  ( 0.000000000000000000, 0.000000000000000000, 1.000000000000000000 ) ) ;
#240 =( LENGTH_UNIT ( ) NAMED_UNIT ( * ) SI_UNIT ( .MILLI., .METRE. ) );
#241 = LINE ( 'NONE', #221, #11 ) ;
#242 = AXIS2_PLACEMENT_3D ( 'NONE', #101, #15, #216 ) ;
#243 = APPROVAL_DATE_TIME ( #92, #39 ) ;
#244 = DATE_AND_TIME ( #66, #62 ) ;
#245 = EDGE_CURVE ( 'NONE', #138, #53, #22, .T. ) ;
#246 = ORIENTED_EDGE ( 'NONE', *, *, #234, .T. ) ;
#247 = EDGE_LOOP ( 'NONE', ( #232, #120 ) ) ;
#248 = VERTEX_POINT ( 'NONE', #203 ) ;
#249 = PERSON ( 'UNSPECIFIED', 'UNSPECIFIED', 'UNSPECIFIED', ('UNSPECIFIED'), ('UNSPECIFIED'), ('UNSPECIFIED') ) ;
#250 = CARTESIAN_POINT ( 'NONE',  ( -3.999999999999989786, 42.99999999999996447, 0.000000000000000000 ) ) ;
#251 = EDGE_LOOP ( 'NONE', ( #33, #72, #253, #212 ) ) ;
#252 = VECTOR ( 'NONE', #196, 1000.000000000000000 ) ;
#253 = ORIENTED_EDGE ( 'NONE', *, *, #207, .T. ) ;
#254 = DIRECTION ( 'NONE',  ( -1.000000000000000000, 0.000000000000000000, -0.000000000000000000 ) ) ;
#255 = DIRECTION ( 'NONE',  ( -1.000000000000000000, -0.000000000000000000, -0.000000000000000000 ) ) ;
ENDSEC;
END-ISO-10303-21;
