ISO-10303-21;
HEADER;
FILE_DESCRIPTION (( 'STEP AP203' ),
    '1' );
FILE_NAME ('6018278_OSTP.step',
    '2024-03-20T08:45:33',
    ( '' ),
    ( '' ),
    'SwSTEP 2.0',
    'SolidWorks 2014',
    '' );
FILE_SCHEMA (( 'CONFIG_CONTROL_DESIGN' ));
ENDSEC;

DATA;
#1 = EDGE_CURVE ( 'NONE', #132, #218, #274, .T. ) ;
#2 = EDGE_CURVE ( 'NONE', #76, #223, #114, .T. ) ;
#3 = CALENDAR_DATE ( 2024, 20, 3 ) ;
#4 = CIRCLE ( 'NONE', #361, 133.0000000000000000 ) ;
#5 = PERSON_AND_ORGANIZATION ( #160, #259 ) ;
#6 = AXIS2_PLACEMENT_3D ( 'NONE', #346, #153, #57 ) ;
#7 = ORIENTED_EDGE ( 'NONE', *, *, #116, .T. ) ;
#8 = CC_DESIGN_SECURITY_CLASSIFICATION ( #301, ( #98 ) ) ;
#9 = PRODUCT_RELATED_PRODUCT_CATEGORY ( 'detail', '', ( #393 ) ) ;
#10 = CARTESIAN_POINT ( 'NONE',  ( 7.929957982662888700E-016, 4.000000000000032000, 0.0000000000000000000 ) ) ;
#11 = COORDINATED_UNIVERSAL_TIME_OFFSET ( 1, 0, .AHEAD. ) ;
#12 = VECTOR ( 'NONE', #298, 1000.000000000000000 ) ;
#13 = AXIS2_PLACEMENT_3D ( 'NONE', #237, #275, #311 ) ;
#14 = ORIENTED_EDGE ( 'NONE', *, *, #213, .T. ) ;
#15 = ORIENTED_EDGE ( 'NONE', *, *, #136, .F. ) ;
#16 = CARTESIAN_POINT ( 'NONE',  ( 7.929957982662894600E-016, 4.000000000000032000, 0.0000000000000000000 ) ) ;
#17 = DIRECTION ( 'NONE',  ( 1.982489495665708100E-016, 1.000000000000000000, -0.0000000000000000000 ) ) ;
#18 = EDGE_CURVE ( 'NONE', #25, #268, #324, .T. ) ;
#19 = LOCAL_TIME ( 9, 45, 33.00000000000000000, #206 ) ;
#20 = VECTOR ( 'NONE', #175, 1000.000000000000000 ) ;
#21 = FACE_OUTER_BOUND ( 'NONE', #353, .T. ) ;
#22 = EDGE_CURVE ( 'NONE', #218, #132, #87, .T. ) ;
#23 = DIRECTION ( 'NONE',  ( 0.0000000000000000000, -0.0000000000000000000, -1.000000000000000000 ) ) ;
#24 = ORIENTED_EDGE ( 'NONE', *, *, #348, .F. ) ;
#25 = VERTEX_POINT ( 'NONE', #192 ) ;
#26 = DIRECTION ( 'NONE',  ( 1.982489495665708100E-016, 1.000000000000000000, -0.0000000000000000000 ) ) ;
#27 = ORIENTED_EDGE ( 'NONE', *, *, #43, .T. ) ;
#28 = CIRCLE ( 'NONE', #70, 125.0000000000000900 ) ;
#29 = ORIENTED_EDGE ( 'NONE', *, *, #1, .F. ) ;
#30 =( NAMED_UNIT ( * ) PLANE_ANGLE_UNIT ( ) SI_UNIT ( $, .RADIAN. ) );
#31 = AXIS2_PLACEMENT_3D ( 'NONE', #32, #99, #127 ) ;
#32 = CARTESIAN_POINT ( 'NONE',  ( 1.585991596532572400E-015, 8.000000000000032000, 0.0000000000000000000 ) ) ;
#33 = PERSON_AND_ORGANIZATION_ROLE ( 'design_owner' ) ;
#34 = PERSON_AND_ORGANIZATION_ROLE ( 'classification_officer' ) ;
#35 = LINE ( 'NONE', #343, #219 ) ;
#36 = ORIENTED_EDGE ( 'NONE', *, *, #38, .F. ) ;
#37 = PERSON_AND_ORGANIZATION_ROLE ( 'creator' ) ;
#38 = EDGE_CURVE ( 'NONE', #351, #191, #4, .T. ) ;
#39 = FACE_BOUND ( 'NONE', #91, .T. ) ;
#40 = CARTESIAN_POINT ( 'NONE',  ( -125.0000000000000000, 24.00000000000003200, 1.530808498934191600E-014 ) ) ;
#41 = APPROVAL_PERSON_ORGANIZATION ( #248, #355, #130 ) ;
#42 = ORIENTED_EDGE ( 'NONE', *, *, #325, .T. ) ;
#43 = EDGE_CURVE ( 'NONE', #191, #351, #331, .T. ) ;
#44 = AXIS2_PLACEMENT_3D ( 'NONE', #320, #67, #185 ) ;
#45 = AXIS2_PLACEMENT_3D ( 'NONE', #283, #179, #135 ) ;
#46 = DIRECTION ( 'NONE',  ( 1.000000000000000000, -1.956455048094143400E-016, 0.0000000000000000000 ) ) ;
#47 = APPROVAL ( #288, 'UNSPECIFIED' ) ;
#48 = CARTESIAN_POINT ( 'NONE',  ( -125.0000000000000600, 1.253950803024761600E-013, 0.0000000000000000000 ) ) ;
#49 = CIRCLE ( 'NONE', #45, 129.0000000000000000 ) ;
#50 = EDGE_LOOP ( 'NONE', ( #168, #238 ) ) ;
#51 = CARTESIAN_POINT ( 'NONE',  ( 125.0000000000000000, 23.99999999999998200, 0.0000000000000000000 ) ) ;
#52 = DIRECTION ( 'NONE',  ( -1.000000000000000000, 1.982489495665707400E-016, 0.0000000000000000000 ) ) ;
#53 = CARTESIAN_POINT ( 'NONE',  ( 125.0000000000000600, 7.583284291083343900E-014, 1.530808498934192200E-014 ) ) ;
#54 = CARTESIAN_POINT ( 'NONE',  ( 4.757974789597700900E-015, 24.00000000000000700, 0.0000000000000000000 ) ) ;
#55 = DIRECTION ( 'NONE',  ( 1.224646799147353200E-016, -2.427849415210259900E-032, 1.000000000000000000 ) ) ;
#56 = FACE_OUTER_BOUND ( 'NONE', #356, .T. ) ;
#57 = DIRECTION ( 'NONE',  ( -1.000000000000000000, 0.0000000000000000000, 0.0000000000000000000 ) ) ;
#58 = CARTESIAN_POINT ( 'NONE',  ( -129.0000000000000000, 27.99999999999999600, 0.0000000000000000000 ) ) ;
#59 = DIRECTION ( 'NONE',  ( 1.982489495665708100E-016, 1.000000000000000000, -0.0000000000000000000 ) ) ;
#60 = DIRECTION ( 'NONE',  ( 1.982489495665708100E-016, 1.000000000000000000, -0.0000000000000000000 ) ) ;
#61 = APPLICATION_CONTEXT ( 'configuration controlled 3d designs of mechanical parts and assemblies' ) ;
#62 = FACE_OUTER_BOUND ( 'NONE', #162, .T. ) ;
#63 = VERTEX_POINT ( 'NONE', #75 ) ;
#64 = AXIS2_PLACEMENT_3D ( 'NONE', #303, #334, #141 ) ;
#65 =( GEOMETRIC_REPRESENTATION_CONTEXT ( 3 ) GLOBAL_UNCERTAINTY_ASSIGNED_CONTEXT ( ( #227 ) ) GLOBAL_UNIT_ASSIGNED_CONTEXT ( ( #105, #30, #211 ) ) REPRESENTATION_CONTEXT ( 'NONE', 'WORKASPACE' ) );
#66 = CARTESIAN_POINT ( 'NONE',  ( 5.550970587863977100E-015, 27.99999999999997200, 0.0000000000000000000 ) ) ;
#67 = DIRECTION ( 'NONE',  ( -1.982489495665708100E-016, -1.000000000000000000, 0.0000000000000000000 ) ) ;
#68 = EDGE_CURVE ( 'NONE', #132, #120, #266, .T. ) ;
#69 = DATE_AND_TIME ( #229, #395 ) ;
#70 = AXIS2_PLACEMENT_3D ( 'NONE', #210, #60, #316 ) ;
#71 = CYLINDRICAL_SURFACE ( 'NONE', #199, 129.0000000000000000 ) ;
#72 = ORIENTED_EDGE ( 'NONE', *, *, #325, .F. ) ;
#73 = ADVANCED_FACE ( 'NONE', ( #21 ), #242, .T. ) ;
#74 = CARTESIAN_POINT ( 'NONE',  ( 129.0000000000000000, 27.99999999999995000, 1.579794370900085600E-014 ) ) ;
#75 = CARTESIAN_POINT ( 'NONE',  ( -129.0000000000000000, 8.000000000000056800, 0.0000000000000000000 ) ) ;
#76 = VERTEX_POINT ( 'NONE', #270 ) ;
#77 = PERSON_AND_ORGANIZATION ( #160, #259 ) ;
#78 = EDGE_LOOP ( 'NONE', ( #269, #290 ) ) ;
#79 = AXIS2_PLACEMENT_3D ( 'NONE', #310, #55, #340 ) ;
#80 = CALENDAR_DATE ( 2024, 20, 3 ) ;
#81 = ORIENTED_EDGE ( 'NONE', *, *, #38, .T. ) ;
#82 = ORIENTED_EDGE ( 'NONE', *, *, #189, .T. ) ;
#83 = APPROVAL_PERSON_ORGANIZATION ( #252, #47, #101 ) ;
#84 = DIRECTION ( 'NONE',  ( 0.0000000000000000000, -0.0000000000000000000, -1.000000000000000000 ) ) ;
#85 = DIRECTION ( 'NONE',  ( 1.982489495665708100E-016, 1.000000000000000000, -0.0000000000000000000 ) ) ;
#86 = DATE_AND_TIME ( #323, #256 ) ;
#87 = CIRCLE ( 'NONE', #221, 151.0000000000000000 ) ;
#88 = EDGE_CURVE ( 'NONE', #120, #339, #190, .T. ) ;
#89 = DIRECTION ( 'NONE',  ( -1.000000000000000000, 1.982489495665707900E-016, 0.0000000000000000000 ) ) ;
#90 = ORIENTED_EDGE ( 'NONE', *, *, #136, .T. ) ;
#91 = EDGE_LOOP ( 'NONE', ( #27, #81 ) ) ;
#92 = DIRECTION ( 'NONE',  ( 1.982489495665708100E-016, 1.000000000000000000, -0.0000000000000000000 ) ) ;
#93 = FACE_OUTER_BOUND ( 'NONE', #169, .T. ) ;
#94 = ORIENTED_EDGE ( 'NONE', *, *, #68, .F. ) ;
#95 = CARTESIAN_POINT ( 'NONE',  ( 5.550970587863980300E-015, 27.99999999999998900, 0.0000000000000000000 ) ) ;
#96 = CARTESIAN_POINT ( 'NONE',  ( -133.0000000000000000, 8.000000000000056800, 1.628780242865980000E-014 ) ) ;
#97 = AXIS2_PLACEMENT_3D ( 'NONE', #96, #398, #243 ) ;
#98 = PRODUCT_DEFINITION_FORMATION_WITH_SPECIFIED_SOURCE ( 'ANY', '', #393, .NOT_KNOWN. ) ;
#99 = DIRECTION ( 'NONE',  ( 1.982489495665708100E-016, 1.000000000000000000, -0.0000000000000000000 ) ) ;
#100 = APPLICATION_CONTEXT ( 'configuration controlled 3d designs of mechanical parts and assemblies' ) ;
#101 = APPROVAL_ROLE ( '' ) ;
#102 = CARTESIAN_POINT ( 'NONE',  ( 1.585991596532572400E-015, 8.000000000000032000, 0.0000000000000000000 ) ) ;
#103 = APPROVAL_PERSON_ORGANIZATION ( #176, #291, #217 ) ;
#104 = EDGE_LOOP ( 'NONE', ( #7, #220 ) ) ;
#105 =( LENGTH_UNIT ( ) NAMED_UNIT ( * ) SI_UNIT ( .MILLI., .METRE. ) );
#106 = CLOSED_SHELL ( 'NONE', ( #375, #358, #73, #261, #255, #378, #196, #293, #379, #111, #299, #222 ) ) ;
#107 = EDGE_CURVE ( 'NONE', #25, #63, #326, .T. ) ;
#108 = CIRCLE ( 'NONE', #6, 4.000000000000003600 ) ;
#109 = EDGE_LOOP ( 'NONE', ( #138, #297, #236, #72 ) ) ;
#110 = CARTESIAN_POINT ( 'NONE',  ( 5.392603844284260400E-030, 3.122502256758252800E-014, 0.0000000000000000000 ) ) ;
#111 = ADVANCED_FACE ( 'NONE', ( #151 ), #186, .T. ) ;
#112 = DESIGN_CONTEXT ( 'detailed design', #61, 'design' ) ;
#113 = CIRCLE ( 'NONE', #140, 129.0000000000000000 ) ;
#114 = CIRCLE ( 'NONE', #341, 4.000000000000003600 ) ;
#115 = EDGE_CURVE ( 'NONE', #223, #268, #113, .T. ) ;
#116 = EDGE_CURVE ( 'NONE', #177, #344, #304, .T. ) ;
#117 = CC_DESIGN_DATE_AND_TIME_ASSIGNMENT ( #69, #253, ( #301 ) ) ;
#118 = FACE_OUTER_BOUND ( 'NONE', #50, .T. ) ;
#119 = CARTESIAN_POINT ( 'NONE',  ( 133.0000000000000000, 4.000000000000005300, 0.0000000000000000000 ) ) ;
#120 = VERTEX_POINT ( 'NONE', #202 ) ;
#121 = CARTESIAN_POINT ( 'NONE',  ( 151.0000000000000000, 4.000000000000001800, 0.0000000000000000000 ) ) ;
#122 = PLANE ( 'NONE',  #13 ) ;
#123 = CARTESIAN_POINT ( 'NONE',  ( 125.0000000000000900, 27.99999999999996400, 1.530808498934192500E-014 ) ) ;
#124 = AXIS2_PLACEMENT_3D ( 'NONE', #338, #17, #200 ) ;
#125 = DIRECTION ( 'NONE',  ( 1.982489495665708100E-016, 1.000000000000000000, -0.0000000000000000000 ) ) ;
#126 = DIRECTION ( 'NONE',  ( 1.000000000000000000, -1.982489495665708100E-016, 0.0000000000000000000 ) ) ;
#127 = DIRECTION ( 'NONE',  ( 1.000000000000000000, -2.017120320903263900E-016, 0.0000000000000000000 ) ) ;
#128 = DIRECTION ( 'NONE',  ( 1.000000000000000000, 0.0000000000000000000, 0.0000000000000000000 ) ) ;
#129 = CARTESIAN_POINT ( 'NONE',  ( 5.550970587863977100E-015, 27.99999999999997200, 0.0000000000000000000 ) ) ;
#130 = APPROVAL_ROLE ( '' ) ;
#131 = FACE_OUTER_BOUND ( 'NONE', #109, .T. ) ;
#132 = VERTEX_POINT ( 'NONE', #389 ) ;
#133 = APPROVAL_STATUS ( 'not_yet_approved' ) ;
#134 = AXIS2_PLACEMENT_3D ( 'NONE', #247, #254, #128 ) ;
#135 = DIRECTION ( 'NONE',  ( 1.000000000000000000, -1.882645632843046400E-016, 0.0000000000000000000 ) ) ;
#136 = EDGE_CURVE ( 'NONE', #150, #268, #139, .T. ) ;
#137 = CYLINDRICAL_SURFACE ( 'NONE', #245, 125.0000000000000600 ) ;
#138 = ORIENTED_EDGE ( 'NONE', *, *, #300, .T. ) ;
#139 = CIRCLE ( 'NONE', #180, 4.000000000000003600 ) ;
#140 = AXIS2_PLACEMENT_3D ( 'NONE', #314, #271, #342 ) ;
#141 = DIRECTION ( 'NONE',  ( 1.000000000000000000, -1.956455048094143400E-016, 0.0000000000000000000 ) ) ;
#142 = FACE_OUTER_BOUND ( 'NONE', #319, .T. ) ;
#143 = ORIENTED_EDGE ( 'NONE', *, *, #295, .T. ) ;
#144 = DIRECTION ( 'NONE',  ( 1.982489495665708100E-016, 1.000000000000000000, -0.0000000000000000000 ) ) ;
#145 = DIRECTION ( 'NONE',  ( -1.982489495665708100E-016, -1.000000000000000000, 0.0000000000000000000 ) ) ;
#146 = CC_DESIGN_PERSON_AND_ORGANIZATION_ASSIGNMENT ( #158, #37, ( #98 ) ) ;
#147 = ORIENTED_EDGE ( 'NONE', *, *, #278, .T. ) ;
#148 = CARTESIAN_POINT ( 'NONE',  ( 1.585991596532572400E-015, 8.000000000000032000, 0.0000000000000000000 ) ) ;
#149 = DIRECTION ( 'NONE',  ( -1.000000000000000000, 1.942890293094023000E-016, 0.0000000000000000000 ) ) ;
#150 = VERTEX_POINT ( 'NONE', #123 ) ;
#151 = FACE_OUTER_BOUND ( 'NONE', #374, .T. ) ;
#152 = ORIENTED_EDGE ( 'NONE', *, *, #267, .F. ) ;
#153 = DIRECTION ( 'NONE',  ( 0.0000000000000000000, -0.0000000000000000000, -1.000000000000000000 ) ) ;
#154 = PERSON_AND_ORGANIZATION_ROLE ( 'design_supplier' ) ;
#155 = ADVANCED_BREP_SHAPE_REPRESENTATION ( '6018278_OSTP', ( #336, #134 ), #65 ) ;
#156 = ORIENTED_EDGE ( 'NONE', *, *, #332, .F. ) ;
#157 = CARTESIAN_POINT ( 'NONE',  ( 1.925929944387235900E-029, 1.006139616066548100E-013, 0.0000000000000000000 ) ) ;
#158 = PERSON_AND_ORGANIZATION ( #160, #259 ) ;
#159 = EDGE_LOOP ( 'NONE', ( #156, #249, #369, #15 ) ) ;
#160 = PERSON ( 'UNSPECIFIED', 'UNSPECIFIED', 'UNSPECIFIED', ('UNSPECIFIED'), ('UNSPECIFIED'), ('UNSPECIFIED') ) ;
#161 = AXIS2_PLACEMENT_3D ( 'NONE', #54, #277, #312 ) ;
#162 = EDGE_LOOP ( 'NONE', ( #171, #260, #42, #390 ) ) ;
#163 = COORDINATED_UNIVERSAL_TIME_OFFSET ( 1, 0, .AHEAD. ) ;
#164 = ORIENTED_EDGE ( 'NONE', *, *, #116, .F. ) ;
#165 = DIRECTION ( 'NONE',  ( 1.982489495665708100E-016, 1.000000000000000000, -0.0000000000000000000 ) ) ;
#166 = CC_DESIGN_PERSON_AND_ORGANIZATION_ASSIGNMENT ( #5, #33, ( #393 ) ) ;
#167 = PERSON_AND_ORGANIZATION ( #160, #259 ) ;
#168 = ORIENTED_EDGE ( 'NONE', *, *, #22, .T. ) ;
#169 = EDGE_LOOP ( 'NONE', ( #380, #164, #82, #233 ) ) ;
#170 = CIRCLE ( 'NONE', #193, 125.0000000000000900 ) ;
#171 = ORIENTED_EDGE ( 'NONE', *, *, #18, .F. ) ;
#172 = AXIS2_PLACEMENT_3D ( 'NONE', #382, #165, #195 ) ;
#173 = DIRECTION ( 'NONE',  ( 1.000000000000000000, 0.0000000000000000000, -1.224646799147349500E-016 ) ) ;
#174 = CC_DESIGN_APPROVAL ( #47, ( #301 ) ) ;
#175 = DIRECTION ( 'NONE',  ( 1.982489495665708100E-016, 1.000000000000000000, -0.0000000000000000000 ) ) ;
#176 = PERSON_AND_ORGANIZATION ( #160, #259 ) ;
#177 = VERTEX_POINT ( 'NONE', #48 ) ;
#178 = CARTESIAN_POINT ( 'NONE',  ( -125.0000000000000600, 27.99999999999999600, 0.0000000000000000000 ) ) ;
#179 = DIRECTION ( 'NONE',  ( -1.982489495665708100E-016, -1.000000000000000000, 0.0000000000000000000 ) ) ;
#180 = AXIS2_PLACEMENT_3D ( 'NONE', #51, #84, #235 ) ;
#181 = DIRECTION ( 'NONE',  ( -1.982489495665708100E-016, -1.000000000000000000, 0.0000000000000000000 ) ) ;
#182 = CYLINDRICAL_SURFACE ( 'NONE', #262, 125.0000000000000600 ) ;
#183 = ORIENTED_EDGE ( 'NONE', *, *, #267, .T. ) ;
#184 = CARTESIAN_POINT ( 'NONE',  ( 5.550970587863977100E-015, 27.99999999999997200, 0.0000000000000000000 ) ) ;
#185 = DIRECTION ( 'NONE',  ( 1.000000000000000000, -1.982489495665708100E-016, 0.0000000000000000000 ) ) ;
#186 = TOROIDAL_SURFACE ( 'NONE', #367, 151.0000000000000000, 4.000000000000000000 ) ;
#187 = EDGE_LOOP ( 'NONE', ( #225, #143, #404, #366 ) ) ;
#188 = CARTESIAN_POINT ( 'NONE',  ( -133.0000000000000000, 4.000000000000057700, 1.628780242865980000E-014 ) ) ;
#189 = EDGE_CURVE ( 'NONE', #177, #76, #214, .T. ) ;
#190 = CIRCLE ( 'NONE', #328, 155.0000000000000000 ) ;
#191 = VERTEX_POINT ( 'NONE', #119 ) ;
#192 = CARTESIAN_POINT ( 'NONE',  ( 129.0000000000000000, 8.000000000000005300, 1.579794370900085600E-014 ) ) ;
#193 = AXIS2_PLACEMENT_3D ( 'NONE', #95, #59, #284 ) ;
#194 = SHAPE_DEFINITION_REPRESENTATION ( #305, #155 ) ;
#195 = DIRECTION ( 'NONE',  ( 1.000000000000000000, -2.010441114542657300E-016, 0.0000000000000000000 ) ) ;
#196 = ADVANCED_FACE ( 'NONE', ( #118, #39 ), #122, .F. ) ;
#197 = APPROVAL_DATE_TIME ( #289, #355 ) ;
#198 = ORIENTED_EDGE ( 'NONE', *, *, #364, .F. ) ;
#199 = AXIS2_PLACEMENT_3D ( 'NONE', #208, #26, #394 ) ;
#200 = DIRECTION ( 'NONE',  ( 1.000000000000000000, -2.017120320903263900E-016, 0.0000000000000000000 ) ) ;
#201 = CIRCLE ( 'NONE', #349, 125.0000000000000600 ) ;
#202 = CARTESIAN_POINT ( 'NONE',  ( -155.0000000000000000, 1.556286774531485800E-013, 1.898202538678397600E-014 ) ) ;
#203 = ORIENTED_EDGE ( 'NONE', *, *, #68, .T. ) ;
#204 = DIRECTION ( 'NONE',  ( 1.000000000000000000, -1.982489495665708400E-016, 0.0000000000000000000 ) ) ;
#205 = CARTESIAN_POINT ( 'NONE',  ( 151.0000000000000000, 1.289431183030333700E-015, 0.0000000000000000000 ) ) ;
#206 = COORDINATED_UNIVERSAL_TIME_OFFSET ( 1, 0, .AHEAD. ) ;
#207 = AXIS2_PLACEMENT_3D ( 'NONE', #335, #85, #52 ) ;
#208 = CARTESIAN_POINT ( 'NONE',  ( 5.550970587863977100E-015, 27.99999999999997200, 0.0000000000000000000 ) ) ;
#209 = VECTOR ( 'NONE', #372, 1000.000000000000000 ) ;
#210 = CARTESIAN_POINT ( 'NONE',  ( 5.550970587863980300E-015, 27.99999999999998900, 0.0000000000000000000 ) ) ;
#211 =( NAMED_UNIT ( * ) SI_UNIT ( $, .STERADIAN. ) SOLID_ANGLE_UNIT ( ) );
#212 = MECHANICAL_CONTEXT ( 'NONE', #100, 'mechanical' ) ;
#213 = EDGE_CURVE ( 'NONE', #218, #339, #282, .T. ) ;
#214 = LINE ( 'NONE', #178, #20 ) ;
#215 = ORIENTED_EDGE ( 'NONE', *, *, #348, .T. ) ;
#216 = SECURITY_CLASSIFICATION_LEVEL ( 'unclassified' ) ;
#217 = APPROVAL_ROLE ( '' ) ;
#218 = VERTEX_POINT ( 'NONE', #121 ) ;
#219 = VECTOR ( 'NONE', #370, 1000.000000000000000 ) ;
#220 = ORIENTED_EDGE ( 'NONE', *, *, #381, .T. ) ;
#221 = AXIS2_PLACEMENT_3D ( 'NONE', #10, #226, #264 ) ;
#222 = ADVANCED_FACE ( 'NONE', ( #318 ), #273, .T. ) ;
#223 = VERTEX_POINT ( 'NONE', #368 ) ;
#224 = CIRCLE ( 'NONE', #31, 129.0000000000000000 ) ;
#225 = ORIENTED_EDGE ( 'NONE', *, *, #381, .F. ) ;
#226 = DIRECTION ( 'NONE',  ( 1.982489495665708100E-016, 1.000000000000000000, -0.0000000000000000000 ) ) ;
#227 = UNCERTAINTY_MEASURE_WITH_UNIT (LENGTH_MEASURE( 1.000000000000000100E-005 ), #105, 'distance_accuracy_value', 'NONE');
#228 = COORDINATED_UNIVERSAL_TIME_OFFSET ( 1, 0, .AHEAD. ) ;
#229 = CALENDAR_DATE ( 2024, 20, 3 ) ;
#230 = ORIENTED_EDGE ( 'NONE', *, *, #43, .F. ) ;
#231 = DIRECTION ( 'NONE',  ( -1.982489495665708100E-016, -1.000000000000000000, 0.0000000000000000000 ) ) ;
#232 = TOROIDAL_SURFACE ( 'NONE', #44, 125.0000000000000000, 4.000000000000000000 ) ;
#233 = ORIENTED_EDGE ( 'NONE', *, *, #332, .T. ) ;
#234 = AXIS2_PLACEMENT_3D ( 'NONE', #102, #145, #126 ) ;
#235 = DIRECTION ( 'NONE',  ( -1.000000000000000000, 0.0000000000000000000, 0.0000000000000000000 ) ) ;
#236 = ORIENTED_EDGE ( 'NONE', *, *, #306, .T. ) ;
#237 = CARTESIAN_POINT ( 'NONE',  ( 129.0000000000000000, 4.000000000000007100, 0.0000000000000000000 ) ) ;
#238 = ORIENTED_EDGE ( 'NONE', *, *, #1, .T. ) ;
#239 = DATE_AND_TIME ( #287, #19 ) ;
#240 = APPROVAL_DATE_TIME ( #330, #291 ) ;
#241 = DIRECTION ( 'NONE',  ( -1.000000000000000000, 0.0000000000000000000, 0.0000000000000000000 ) ) ;
#242 = TOROIDAL_SURFACE ( 'NONE', #383, 151.0000000000000000, 4.000000000000000000 ) ;
#243 = DIRECTION ( 'NONE',  ( 1.000000000000000000, 0.0000000000000000000, -1.224646799147349500E-016 ) ) ;
#244 = DIRECTION ( 'NONE',  ( -1.000000000000000000, 1.942890293094023000E-016, 0.0000000000000000000 ) ) ;
#245 = AXIS2_PLACEMENT_3D ( 'NONE', #129, #403, #244 ) ;
#246 = DIRECTION ( 'NONE',  ( -1.000000000000000000, 1.982489495665708100E-016, 0.0000000000000000000 ) ) ;
#247 = CARTESIAN_POINT ( 'NONE',  ( 0.0000000000000000000, 0.0000000000000000000, 0.0000000000000000000 ) ) ;
#248 = PERSON_AND_ORGANIZATION ( #160, #259 ) ;
#249 = ORIENTED_EDGE ( 'NONE', *, *, #2, .T. ) ;
#250 = DIRECTION ( 'NONE',  ( 1.000000000000000000, -1.982489495665708100E-016, 0.0000000000000000000 ) ) ;
#251 = DIRECTION ( 'NONE',  ( 1.982489495665708100E-016, 1.000000000000000000, -0.0000000000000000000 ) ) ;
#252 = PERSON_AND_ORGANIZATION ( #160, #259 ) ;
#253 = DATE_TIME_ROLE ( 'classification_date' ) ;
#254 = DIRECTION ( 'NONE',  ( 0.0000000000000000000, 0.0000000000000000000, 1.000000000000000000 ) ) ;
#255 = ADVANCED_FACE ( 'NONE', ( #131 ), #71, .T. ) ;
#256 = LOCAL_TIME ( 9, 45, 33.00000000000000000, #350 ) ;
#257 = ORIENTED_EDGE ( 'NONE', *, *, #300, .F. ) ;
#258 = DIRECTION ( 'NONE',  ( 1.982489495665708100E-016, 1.000000000000000000, -0.0000000000000000000 ) ) ;
#259 = ORGANIZATION ( 'UNSPECIFIED', 'UNSPECIFIED', '' ) ;
#260 = ORIENTED_EDGE ( 'NONE', *, *, #107, .T. ) ;
#261 = ADVANCED_FACE ( 'NONE', ( #362 ), #137, .F. ) ;
#262 = AXIS2_PLACEMENT_3D ( 'NONE', #184, #321, #149 ) ;
#263 = DIRECTION ( 'NONE',  ( 1.224646799147353200E-016, -2.427849415210259900E-032, 1.000000000000000000 ) ) ;
#264 = DIRECTION ( 'NONE',  ( 1.000000000000000000, -2.010441114542657300E-016, 0.0000000000000000000 ) ) ;
#265 = LOCAL_TIME ( 9, 45, 33.00000000000000000, #228 ) ;
#266 = CIRCLE ( 'NONE', #79, 4.000000000000003600 ) ;
#267 = EDGE_CURVE ( 'NONE', #191, #25, #108, .T. ) ;
#268 = VERTEX_POINT ( 'NONE', #285 ) ;
#269 = ORIENTED_EDGE ( 'NONE', *, *, #278, .F. ) ;
#270 = CARTESIAN_POINT ( 'NONE',  ( -125.0000000000000900, 28.00000000000001400, 0.0000000000000000000 ) ) ;
#271 = DIRECTION ( 'NONE',  ( -1.982489495665708100E-016, -1.000000000000000000, 0.0000000000000000000 ) ) ;
#272 = CARTESIAN_POINT ( 'NONE',  ( 2.388153131040172500E-029, 1.249000902703301100E-013, 0.0000000000000000000 ) ) ;
#273 = TOROIDAL_SURFACE ( 'NONE', #161, 125.0000000000000000, 4.000000000000000000 ) ;
#274 = CIRCLE ( 'NONE', #172, 151.0000000000000000 ) ;
#275 = DIRECTION ( 'NONE',  ( -1.982489495665708100E-016, -1.000000000000000000, 0.0000000000000000000 ) ) ;
#276 = CC_DESIGN_PERSON_AND_ORGANIZATION_ASSIGNMENT ( #167, #347, ( #396 ) ) ;
#277 = DIRECTION ( 'NONE',  ( -1.982489495665708100E-016, -1.000000000000000000, 0.0000000000000000000 ) ) ;
#278 = EDGE_CURVE ( 'NONE', #339, #120, #384, .T. ) ;
#279 = CC_DESIGN_PERSON_AND_ORGANIZATION_ASSIGNMENT ( #77, #34, ( #301 ) ) ;
#280 = DIRECTION ( 'NONE',  ( -1.982489495665708100E-016, -1.000000000000000000, 0.0000000000000000000 ) ) ;
#281 = CARTESIAN_POINT ( 'NONE',  ( 155.0000000000000000, 8.256769295022424100E-014, 0.0000000000000000000 ) ) ;
#282 = CIRCLE ( 'NONE', #399, 4.000000000000003600 ) ;
#283 = CARTESIAN_POINT ( 'NONE',  ( 4.757974789597700900E-015, 24.00000000000000700, 0.0000000000000000000 ) ) ;
#284 = DIRECTION ( 'NONE',  ( -1.000000000000000000, 1.942890293094022700E-016, 0.0000000000000000000 ) ) ;
#285 = CARTESIAN_POINT ( 'NONE',  ( 129.0000000000000000, 23.99999999999998200, 1.579794370900085600E-014 ) ) ;
#286 = APPLICATION_PROTOCOL_DEFINITION ( 'international standard', 'config_control_design', 1994, #61 ) ;
#287 = CALENDAR_DATE ( 2024, 20, 3 ) ;
#288 = APPROVAL_STATUS ( 'not_yet_approved' ) ;
#289 = DATE_AND_TIME ( #80, #365 ) ;
#290 = ORIENTED_EDGE ( 'NONE', *, *, #88, .F. ) ;
#291 = APPROVAL ( #405, 'UNSPECIFIED' ) ;
#292 = DIRECTION ( 'NONE',  ( -1.000000000000000000, 1.982489495665707400E-016, 0.0000000000000000000 ) ) ;
#293 = ADVANCED_FACE ( 'NONE', ( #388, #313 ), #345, .F. ) ;
#294 = CYLINDRICAL_SURFACE ( 'NONE', #352, 129.0000000000000000 ) ;
#295 = EDGE_CURVE ( 'NONE', #344, #150, #35, .T. ) ;
#296 = TOROIDAL_SURFACE ( 'NONE', #234, 133.0000000000000000, 4.000000000000000000 ) ;
#297 = ORIENTED_EDGE ( 'NONE', *, *, #18, .T. ) ;
#298 = DIRECTION ( 'NONE',  ( 1.982489495665708100E-016, 1.000000000000000000, -0.0000000000000000000 ) ) ;
#299 = ADVANCED_FACE ( 'NONE', ( #56 ), #359, .F. ) ;
#300 = EDGE_CURVE ( 'NONE', #63, #25, #224, .T. ) ;
#301 = SECURITY_CLASSIFICATION ( '', '', #216 ) ;
#302 = LINE ( 'NONE', #58, #209 ) ;
#303 = CARTESIAN_POINT ( 'NONE',  ( 7.929957982662894600E-016, 4.000000000000032000, 0.0000000000000000000 ) ) ;
#304 = CIRCLE ( 'NONE', #207, 125.0000000000000600 ) ;
#305 = PRODUCT_DEFINITION_SHAPE ( 'NONE', 'NONE',  #396 ) ;
#306 = EDGE_CURVE ( 'NONE', #268, #223, #49, .T. ) ;
#307 = CARTESIAN_POINT ( 'NONE',  ( 5.392603844284260400E-030, 3.122502256758252800E-014, 0.0000000000000000000 ) ) ;
#308 = ORIENTED_EDGE ( 'NONE', *, *, #2, .F. ) ;
#309 = CARTESIAN_POINT ( 'NONE',  ( 155.0000000000000000, 9.417150308751163900E-014, 0.0000000000000000000 ) ) ;
#310 = CARTESIAN_POINT ( 'NONE',  ( -151.0000000000000000, 6.116061395213471400E-014, 1.849216666712503300E-014 ) ) ;
#311 = DIRECTION ( 'NONE',  ( 1.000000000000000000, -1.982489495665708100E-016, 0.0000000000000000000 ) ) ;
#312 = DIRECTION ( 'NONE',  ( 1.000000000000000000, -1.982489495665708100E-016, 0.0000000000000000000 ) ) ;
#313 = FACE_BOUND ( 'NONE', #104, .T. ) ;
#314 = CARTESIAN_POINT ( 'NONE',  ( 4.757974789597700900E-015, 24.00000000000000700, 0.0000000000000000000 ) ) ;
#315 = DIRECTION ( 'NONE',  ( -1.000000000000000000, 1.982489495665707900E-016, 0.0000000000000000000 ) ) ;
#316 = DIRECTION ( 'NONE',  ( -1.000000000000000000, 1.942890293094022700E-016, 0.0000000000000000000 ) ) ;
#317 = DIRECTION ( 'NONE',  ( -1.000000000000000000, 1.882645632843046400E-016, 0.0000000000000000000 ) ) ;
#318 = FACE_OUTER_BOUND ( 'NONE', #360, .T. ) ;
#319 = EDGE_LOOP ( 'NONE', ( #36, #215, #397, #152 ) ) ;
#320 = CARTESIAN_POINT ( 'NONE',  ( 4.757974789597700900E-015, 24.00000000000000700, 0.0000000000000000000 ) ) ;
#321 = DIRECTION ( 'NONE',  ( 1.982489495665708100E-016, 1.000000000000000000, -0.0000000000000000000 ) ) ;
#322 = DATE_TIME_ROLE ( 'creation_date' ) ;
#323 = CALENDAR_DATE ( 2024, 20, 3 ) ;
#324 = LINE ( 'NONE', #74, #12 ) ;
#325 = EDGE_CURVE ( 'NONE', #63, #223, #302, .T. ) ;
#326 = CIRCLE ( 'NONE', #124, 129.0000000000000000 ) ;
#327 = ORIENTED_EDGE ( 'NONE', *, *, #22, .F. ) ;
#328 = AXIS2_PLACEMENT_3D ( 'NONE', #272, #144, #89 ) ;
#329 = CC_DESIGN_APPROVAL ( #291, ( #98 ) ) ;
#330 = DATE_AND_TIME ( #3, #265 ) ;
#331 = CIRCLE ( 'NONE', #64, 133.0000000000000000 ) ;
#332 = EDGE_CURVE ( 'NONE', #76, #150, #28, .T. ) ;
#333 = ORIENTED_EDGE ( 'NONE', *, *, #213, .F. ) ;
#334 = DIRECTION ( 'NONE',  ( -1.982489495665708100E-016, -1.000000000000000000, 0.0000000000000000000 ) ) ;
#335 = CARTESIAN_POINT ( 'NONE',  ( 1.925929944387235900E-029, 1.006139616066548100E-013, 0.0000000000000000000 ) ) ;
#336 = MANIFOLD_SOLID_BREP ( 'Cosmetic_Fillet', #106 ) ;
#337 = PERSON_AND_ORGANIZATION ( #160, #259 ) ;
#338 = CARTESIAN_POINT ( 'NONE',  ( 1.585991596532572400E-015, 8.000000000000032000, 0.0000000000000000000 ) ) ;
#339 = VERTEX_POINT ( 'NONE', #309 ) ;
#340 = DIRECTION ( 'NONE',  ( 1.000000000000000000, 0.0000000000000000000, -1.224646799147349500E-016 ) ) ;
#341 = AXIS2_PLACEMENT_3D ( 'NONE', #40, #263, #173 ) ;
#342 = DIRECTION ( 'NONE',  ( 1.000000000000000000, -1.882645632843046400E-016, 0.0000000000000000000 ) ) ;
#343 = CARTESIAN_POINT ( 'NONE',  ( 125.0000000000000600, 27.99999999999995000, 1.530808498934192200E-014 ) ) ;
#344 = VERTEX_POINT ( 'NONE', #53 ) ;
#345 = PLANE ( 'NONE',  #386 ) ;
#346 = CARTESIAN_POINT ( 'NONE',  ( 133.0000000000000000, 8.000000000000005300, 0.0000000000000000000 ) ) ;
#347 = PERSON_AND_ORGANIZATION_ROLE ( 'creator' ) ;
#348 = EDGE_CURVE ( 'NONE', #351, #63, #373, .T. ) ;
#349 = AXIS2_PLACEMENT_3D ( 'NONE', #157, #258, #292 ) ;
#350 = COORDINATED_UNIVERSAL_TIME_OFFSET ( 1, 0, .AHEAD. ) ;
#351 = VERTEX_POINT ( 'NONE', #188 ) ;
#352 = AXIS2_PLACEMENT_3D ( 'NONE', #66, #251, #317 ) ;
#353 = EDGE_LOOP ( 'NONE', ( #29, #203, #401, #333 ) ) ;
#354 = ORIENTED_EDGE ( 'NONE', *, *, #115, .F. ) ;
#355 = APPROVAL ( #133, 'UNSPECIFIED' ) ;
#356 = EDGE_LOOP ( 'NONE', ( #24, #230, #183, #257 ) ) ;
#357 = AXIS2_PLACEMENT_3D ( 'NONE', #400, #92, #315 ) ;
#358 = ADVANCED_FACE ( 'NONE', ( #142 ), #296, .F. ) ;
#359 = TOROIDAL_SURFACE ( 'NONE', #371, 133.0000000000000000, 4.000000000000000000 ) ;
#360 = EDGE_LOOP ( 'NONE', ( #308, #198, #90, #354 ) ) ;
#361 = AXIS2_PLACEMENT_3D ( 'NONE', #16, #231, #46 ) ;
#362 = FACE_OUTER_BOUND ( 'NONE', #187, .T. ) ;
#363 = APPROVAL_DATE_TIME ( #239, #47 ) ;
#364 = EDGE_CURVE ( 'NONE', #150, #76, #170, .T. ) ;
#365 = LOCAL_TIME ( 9, 45, 33.00000000000000000, #163 ) ;
#366 = ORIENTED_EDGE ( 'NONE', *, *, #189, .F. ) ;
#367 = AXIS2_PLACEMENT_3D ( 'NONE', #307, #280, #204 ) ;
#368 = CARTESIAN_POINT ( 'NONE',  ( -129.0000000000000000, 24.00000000000003200, 0.0000000000000000000 ) ) ;
#369 = ORIENTED_EDGE ( 'NONE', *, *, #306, .F. ) ;
#370 = DIRECTION ( 'NONE',  ( 1.982489495665708100E-016, 1.000000000000000000, -0.0000000000000000000 ) ) ;
#371 = AXIS2_PLACEMENT_3D ( 'NONE', #148, #181, #250 ) ;
#372 = DIRECTION ( 'NONE',  ( 1.982489495665708100E-016, 1.000000000000000000, -0.0000000000000000000 ) ) ;
#373 = CIRCLE ( 'NONE', #97, 4.000000000000003600 ) ;
#374 = EDGE_LOOP ( 'NONE', ( #94, #327, #14, #147 ) ) ;
#375 = ADVANCED_FACE ( 'NONE', ( #376 ), #232, .T. ) ;
#376 = FACE_OUTER_BOUND ( 'NONE', #159, .T. ) ;
#377 = CC_DESIGN_PERSON_AND_ORGANIZATION_ASSIGNMENT ( #337, #154, ( #98 ) ) ;
#378 = ADVANCED_FACE ( 'NONE', ( #62 ), #294, .T. ) ;
#379 = ADVANCED_FACE ( 'NONE', ( #93 ), #182, .F. ) ;
#380 = ORIENTED_EDGE ( 'NONE', *, *, #295, .F. ) ;
#381 = EDGE_CURVE ( 'NONE', #344, #177, #201, .T. ) ;
#382 = CARTESIAN_POINT ( 'NONE',  ( 7.929957982662888700E-016, 4.000000000000032000, 0.0000000000000000000 ) ) ;
#383 = AXIS2_PLACEMENT_3D ( 'NONE', #110, #392, #391 ) ;
#384 = CIRCLE ( 'NONE', #357, 155.0000000000000000 ) ;
#385 = CC_DESIGN_DATE_AND_TIME_ASSIGNMENT ( #86, #322, ( #396 ) ) ;
#386 = AXIS2_PLACEMENT_3D ( 'NONE', #281, #125, #246 ) ;
#387 = CC_DESIGN_APPROVAL ( #355, ( #396 ) ) ;
#388 = FACE_OUTER_BOUND ( 'NONE', #78, .T. ) ;
#389 = CARTESIAN_POINT ( 'NONE',  ( -151.0000000000000000, 4.000000000000062200, 1.873709602695450600E-014 ) ) ;
#390 = ORIENTED_EDGE ( 'NONE', *, *, #115, .T. ) ;
#391 = DIRECTION ( 'NONE',  ( 1.000000000000000000, -1.982489495665708400E-016, 0.0000000000000000000 ) ) ;
#392 = DIRECTION ( 'NONE',  ( -1.982489495665708100E-016, -1.000000000000000000, 0.0000000000000000000 ) ) ;
#393 = PRODUCT ( '6018278_OSTP', '6018278_OSTP', '', ( #212 ) ) ;
#394 = DIRECTION ( 'NONE',  ( -1.000000000000000000, 1.882645632843046400E-016, 0.0000000000000000000 ) ) ;
#395 = LOCAL_TIME ( 9, 45, 33.00000000000000000, #11 ) ;
#396 = PRODUCT_DEFINITION ( 'UNKNOWN', '', #98, #112 ) ;
#397 = ORIENTED_EDGE ( 'NONE', *, *, #107, .F. ) ;
#398 = DIRECTION ( 'NONE',  ( 1.224646799147353200E-016, -2.427849415210259900E-032, 1.000000000000000000 ) ) ;
#399 = AXIS2_PLACEMENT_3D ( 'NONE', #205, #23, #241 ) ;
#400 = CARTESIAN_POINT ( 'NONE',  ( 2.388153131040172500E-029, 1.249000902703301100E-013, 0.0000000000000000000 ) ) ;
#401 = ORIENTED_EDGE ( 'NONE', *, *, #88, .T. ) ;
#402 = APPLICATION_PROTOCOL_DEFINITION ( 'international standard', 'config_control_design', 1994, #100 ) ;
#403 = DIRECTION ( 'NONE',  ( 1.982489495665708100E-016, 1.000000000000000000, -0.0000000000000000000 ) ) ;
#404 = ORIENTED_EDGE ( 'NONE', *, *, #364, .T. ) ;
#405 = APPROVAL_STATUS ( 'not_yet_approved' ) ;
ENDSEC;
END-ISO-10303-21;
