ISO-10303-21;
HEADER;
FILE_DESCRIPTION (( 'STEP AP203' ),
    '1' );
FILE_NAME ('3D_R1650_42.4x2_17351250.STEP',
    '2024-08-03T08:53:54',
    ( '' ),
    ( '' ),
    'SwSTEP 2.0',
    'SolidWorks 2024',
    '' );
FILE_SCHEMA (( 'CONFIG_CONTROL_DESIGN' ));
ENDSEC;

DATA;
#1 = AXIS2_PLACEMENT_3D ( 'NONE', #168, #225, #55 ) ;
#2 = CC_DESIGN_PERSON_AND_ORGANIZATION_ASSIGNMENT ( #85, #237, ( #23 ) ) ;
#3 = DIRECTION ( 'NONE',  ( 1.000000000000000000, 0.000000000000000000, 3.885780586188047398E-16 ) ) ;
#4 = ORIENTED_EDGE ( 'NONE', *, *, #213, .F. ) ;
#5 = DIRECTION ( 'NONE',  ( 0.000000000000000000, 0.000000000000000000, 1.000000000000000000 ) ) ;
#6 = ORIENTED_EDGE ( 'NONE', *, *, #171, .T. ) ;
#7 = AXIS2_PLACEMENT_3D ( 'NONE', #231, #141, #200 ) ;
#8 = DIRECTION ( 'NONE',  ( 0.000000000000000000, 1.000000000000000000, 0.000000000000000000 ) ) ;
#9 = APPROVAL_ROLE ( '' ) ;
#10 = CARTESIAN_POINT ( 'NONE',  ( 0.000000000000000000, 0.000000000000000000, 0.000000000000000000 ) ) ;
#11 = EDGE_LOOP ( 'NONE', ( #146, #6, #173, #109 ) ) ;
#12 = APPROVAL ( #52, 'UNSPECIFIED' ) ;
#13 = VERTEX_POINT ( 'NONE', #245 ) ;
#14 = PERSON_AND_ORGANIZATION_ROLE ( 'classification_officer' ) ;
#15 = LOCAL_TIME ( 10, 53, 54.00000000000000000, #29 ) ;
#16 = DIRECTION ( 'NONE',  ( 0.000000000000000000, 1.000000000000000000, 0.000000000000000000 ) ) ;
#17 = APPLICATION_CONTEXT ( 'configuration controlled 3d designs of mechanical parts and assemblies' ) ;
#18 = AXIS2_PLACEMENT_3D ( 'NONE', #31, #8, #88 ) ;
#19 = DIRECTION ( 'NONE',  ( 0.000000000000000000, 1.000000000000000000, 0.000000000000000000 ) ) ;
#20 = EDGE_CURVE ( 'NONE', #71, #106, #105, .T. ) ;
#21 = AXIS2_PLACEMENT_3D ( 'NONE', #56, #204, #209 ) ;
#22 = FACE_OUTER_BOUND ( 'NONE', #169, .T. ) ;
#23 = PRODUCT ( '3D_R1650_42.4x2_17351250', '3D_R1650_42.4x2_17351250', '', ( #142 ) ) ;
#24 = LOCAL_TIME ( 10, 53, 54.00000000000000000, #107 ) ;
#25 = EDGE_LOOP ( 'NONE', ( #206, #207 ) ) ;
#26 = VERTEX_POINT ( 'NONE', #54 ) ;
#27 = PERSON_AND_ORGANIZATION ( #215, #230 ) ;
#28 = CARTESIAN_POINT ( 'NONE',  ( -66.69999999999998863, 0.000000000000000000, -2.591815650987427817E-14 ) ) ;
#29 = COORDINATED_UNIVERSAL_TIME_OFFSET ( 1, 0, .AHEAD. ) ;
#30 = COORDINATED_UNIVERSAL_TIME_OFFSET ( 1, 0, .AHEAD. ) ;
#31 = CARTESIAN_POINT ( 'NONE',  ( 0.000000000000000000, 0.000000000000000000, 0.000000000000000000 ) ) ;
#32 = VERTEX_POINT ( 'NONE', #90 ) ;
#33 = EDGE_CURVE ( 'NONE', #26, #47, #120, .T. ) ;
#34 = ORIENTED_EDGE ( 'NONE', *, *, #78, .F. ) ;
#35 = ORIENTED_EDGE ( 'NONE', *, *, #33, .T. ) ;
#36 = CALENDAR_DATE ( 2024, 3, 8 ) ;
#37 = CARTESIAN_POINT ( 'NONE',  ( 0.000000000000000000, 0.000000000000000000, 0.000000000000000000 ) ) ;
#38 = AXIS2_PLACEMENT_3D ( 'NONE', #183, #66, #151 ) ;
#39 = CC_DESIGN_DATE_AND_TIME_ASSIGNMENT ( #98, #195, ( #43 ) ) ;
#40 = CARTESIAN_POINT ( 'NONE',  ( 0.000000000000000000, -2.351321854362918079E-15, 0.000000000000000000 ) ) ;
#41 = CARTESIAN_POINT ( 'NONE',  ( -47.49999999999999289, 0.000000000000000000, -1.845745778439322433E-14 ) ) ;
#42 = AXIS2_PLACEMENT_3D ( 'NONE', #41, #79, #3 ) ;
#43 = PRODUCT_DEFINITION ( 'UNKNOWN', '', #244, #152 ) ;
#44 = DIRECTION ( 'NONE',  ( 0.000000000000000000, 1.000000000000000000, 0.000000000000000000 ) ) ;
#45 = COORDINATED_UNIVERSAL_TIME_OFFSET ( 1, 0, .AHEAD. ) ;
#46 = CC_DESIGN_APPROVAL ( #220, ( #124 ) ) ;
#47 = VERTEX_POINT ( 'NONE', #248 ) ;
#48 = APPLICATION_CONTEXT ( 'configuration controlled 3d designs of mechanical parts and assemblies' ) ;
#49 = VERTEX_POINT ( 'NONE', #221 ) ;
#50 = FACE_OUTER_BOUND ( 'NONE', #11, .T. ) ;
#51 = DIRECTION ( 'NONE',  ( 0.000000000000000000, 0.000000000000000000, 1.000000000000000000 ) ) ;
#52 = APPROVAL_STATUS ( 'not_yet_approved' ) ;
#53 = ADVANCED_BREP_SHAPE_REPRESENTATION ( '3D_R1650_42.4x2_17351250', ( #59, #65 ), #217 ) ;
#54 = CARTESIAN_POINT ( 'NONE',  ( -26.29999999999999361, 0.000000000000000000, 1.298960938811433468E-15 ) ) ;
#55 = DIRECTION ( 'NONE',  ( 0.7071067811865513475, 0.000000000000000000, 0.7071067811865435759 ) ) ;
#56 = CARTESIAN_POINT ( 'NONE',  ( -47.49999999999999289, 0.000000000000000000, -1.845745778439322433E-14 ) ) ;
#57 = CIRCLE ( 'NONE', #210, 21.19999999999999929 ) ;
#58 = TOROIDAL_SURFACE ( 'NONE', #233, 47.49999999999999289, 21.19999999999999929 ) ;
#59 = MANIFOLD_SOLID_BREP ( 'Wandung1', #212 ) ;
#60 = EDGE_CURVE ( 'NONE', #47, #26, #196, .T. ) ;
#61 = CC_DESIGN_APPROVAL ( #235, ( #244 ) ) ;
#62 = CARTESIAN_POINT ( 'NONE',  ( 0.000000000000000000, 0.000000000000000000, 0.000000000000000000 ) ) ;
#63 = ADVANCED_FACE ( 'NONE', ( #68, #185 ), #226, .T. ) ;
#64 = ORIENTED_EDGE ( 'NONE', *, *, #160, .F. ) ;
#65 = AXIS2_PLACEMENT_3D ( 'NONE', #128, #5, #218 ) ;
#66 = DIRECTION ( 'NONE',  ( -0.7071067811865436870, 0.000000000000000000, 0.7071067811865514585 ) ) ;
#67 = ORIENTED_EDGE ( 'NONE', *, *, #181, .F. ) ;
#68 = FACE_BOUND ( 'NONE', #184, .T. ) ;
#69 = PERSON_AND_ORGANIZATION ( #215, #230 ) ;
#70 = EDGE_CURVE ( 'NONE', #49, #32, #182, .T. ) ;
#71 = VERTEX_POINT ( 'NONE', #134 ) ;
#72 =( NAMED_UNIT ( * ) SI_UNIT ( $, .STERADIAN. ) SOLID_ANGLE_UNIT ( ) );
#73 = APPROVAL_PERSON_ORGANIZATION ( #110, #235, #208 ) ;
#74 = CARTESIAN_POINT ( 'NONE',  ( -47.49999999999999289, 0.000000000000000000, -6.938893903907228378E-15 ) ) ;
#75 = CARTESIAN_POINT ( 'NONE',  ( -47.49999999999999289, 0.000000000000000000, -6.938893903907228378E-15 ) ) ;
#76 = CIRCLE ( 'NONE', #38, 19.20000000000000639 ) ;
#77 = CARTESIAN_POINT ( 'NONE',  ( 0.000000000000000000, 0.000000000000000000, 0.000000000000000000 ) ) ;
#78 = EDGE_CURVE ( 'NONE', #86, #13, #243, .T. ) ;
#79 = DIRECTION ( 'NONE',  ( -3.885780586188047891E-16, 0.000000000000000000, 1.000000000000000000 ) ) ;
#80 = AXIS2_PLACEMENT_3D ( 'NONE', #75, #153, #188 ) ;
#81 = DATE_AND_TIME ( #241, #145 ) ;
#82 = PRODUCT_RELATED_PRODUCT_CATEGORY ( 'detail', '', ( #23 ) ) ;
#83 = APPROVAL_ROLE ( '' ) ;
#84 = FACE_OUTER_BOUND ( 'NONE', #189, .T. ) ;
#85 = PERSON_AND_ORGANIZATION ( #215, #230 ) ;
#86 = VERTEX_POINT ( 'NONE', #28 ) ;
#87 = ADVANCED_FACE ( 'NONE', ( #50 ), #58, .T. ) ;
#88 = DIRECTION ( 'NONE',  ( 0.000000000000000000, 0.000000000000000000, 1.000000000000000000 ) ) ;
#89 = PERSON_AND_ORGANIZATION_ROLE ( 'design_supplier' ) ;
#90 = CARTESIAN_POINT ( 'NONE',  ( -20.01112190757939402, -2.351321854362918079E-15, -20.01112190757918086 ) ) ;
#91 = EDGE_LOOP ( 'NONE', ( #97, #238, #150, #64 ) ) ;
#92 = CALENDAR_DATE ( 2024, 3, 8 ) ;
#93 = DIRECTION ( 'NONE',  ( 0.7071067811865514585, 0.000000000000000000, 0.7071067811865436870 ) ) ;
#94 = CIRCLE ( 'NONE', #7, 68.70000000000000284 ) ;
#95 = CARTESIAN_POINT ( 'NONE',  ( -33.58757210636119339, 0.000000000000000000, -33.58757210636080970 ) ) ;
#96 = APPROVAL_PERSON_ORGANIZATION ( #186, #12, #9 ) ;
#97 = ORIENTED_EDGE ( 'NONE', *, *, #70, .F. ) ;
#98 = DATE_AND_TIME ( #125, #114 ) ;
#99 = CARTESIAN_POINT ( 'NONE',  ( -18.59690834520630176, -2.596251214192388770E-15, -18.59690834520608860 ) ) ;
#100 = ORIENTED_EDGE ( 'NONE', *, *, #60, .F. ) ;
#101 = APPROVAL_DATE_TIME ( #234, #220 ) ;
#102 = ORIENTED_EDGE ( 'NONE', *, *, #20, .T. ) ;
#103 = CARTESIAN_POINT ( 'NONE',  ( 0.000000000000000000, -2.596251214192388770E-15, 0.000000000000000000 ) ) ;
#104 = APPLICATION_PROTOCOL_DEFINITION ( 'international standard', 'config_control_design', 1994, #17 ) ;
#105 = CIRCLE ( 'NONE', #228, 21.19999999999999929 ) ;
#106 = VERTEX_POINT ( 'NONE', #99 ) ;
#107 = COORDINATED_UNIVERSAL_TIME_OFFSET ( 1, 0, .AHEAD. ) ;
#108 = DIRECTION ( 'NONE',  ( -3.885780586188047891E-16, 0.000000000000000000, 1.000000000000000000 ) ) ;
#109 = ORIENTED_EDGE ( 'NONE', *, *, #154, .F. ) ;
#110 = PERSON_AND_ORGANIZATION ( #215, #230 ) ;
#111 = AXIS2_PLACEMENT_3D ( 'NONE', #103, #138, #253 ) ;
#112 = EDGE_LOOP ( 'NONE', ( #35, #166 ) ) ;
#113 = EDGE_CURVE ( 'NONE', #32, #49, #76, .T. ) ;
#114 = LOCAL_TIME ( 10, 53, 54.00000000000000000, #45 ) ;
#115 = AXIS2_PLACEMENT_3D ( 'NONE', #74, #108, #156 ) ;
#116 = DIRECTION ( 'NONE',  ( 0.7071067811865514585, 0.000000000000000000, 0.7071067811865436870 ) ) ;
#117 = PRODUCT_DEFINITION_SHAPE ( 'NONE', 'NONE',  #43 ) ;
#118 =( NAMED_UNIT ( * ) PLANE_ANGLE_UNIT ( ) SI_UNIT ( $, .RADIAN. ) );
#119 = TOROIDAL_SURFACE ( 'NONE', #164, 47.49999999999999289, 19.20000000000000284 ) ;
#120 = CIRCLE ( 'NONE', #159, 21.19999999999999929 ) ;
#121 = DIRECTION ( 'NONE',  ( 0.000000000000000000, 1.000000000000000000, 0.000000000000000000 ) ) ;
#122 = ADVANCED_FACE ( 'NONE', ( #130, #84 ), #165, .F. ) ;
#123 = DIRECTION ( 'NONE',  ( 0.000000000000000000, 0.000000000000000000, 1.000000000000000000 ) ) ;
#124 = SECURITY_CLASSIFICATION ( '', '', #131 ) ;
#125 = CALENDAR_DATE ( 2024, 3, 8 ) ;
#126 = ORIENTED_EDGE ( 'NONE', *, *, #160, .T. ) ;
#127 = FACE_OUTER_BOUND ( 'NONE', #157, .T. ) ;
#128 = CARTESIAN_POINT ( 'NONE',  ( 0.000000000000000000, 0.000000000000000000, 0.000000000000000000 ) ) ;
#129 = PERSON_AND_ORGANIZATION ( #215, #230 ) ;
#130 = FACE_BOUND ( 'NONE', #25, .T. ) ;
#131 = SECURITY_CLASSIFICATION_LEVEL ( 'unclassified' ) ;
#132 = DIRECTION ( 'NONE',  ( 1.000000000000000000, 0.000000000000000000, 3.885780586188048385E-16 ) ) ;
#133 = ADVANCED_FACE ( 'NONE', ( #127 ), #135, .T. ) ;
#134 = CARTESIAN_POINT ( 'NONE',  ( -48.57823586751608502, 0.000000000000000000, -48.57823586751554501 ) ) ;
#135 = TOROIDAL_SURFACE ( 'NONE', #18, 47.49999999999999289, 21.19999999999999929 ) ;
#136 = COORDINATED_UNIVERSAL_TIME_OFFSET ( 1, 0, .AHEAD. ) ;
#137 = APPROVAL_PERSON_ORGANIZATION ( #27, #220, #83 ) ;
#138 = DIRECTION ( 'NONE',  ( 0.000000000000000000, 1.000000000000000000, 0.000000000000000000 ) ) ;
#139 = DIRECTION ( 'NONE',  ( 0.000000000000000000, 0.000000000000000000, 1.000000000000000000 ) ) ;
#140 = ADVANCED_FACE ( 'NONE', ( #205 ), #119, .F. ) ;
#141 = DIRECTION ( 'NONE',  ( 0.000000000000000000, 1.000000000000000000, 0.000000000000000000 ) ) ;
#142 = MECHANICAL_CONTEXT ( 'NONE', #17, 'mechanical' ) ;
#143 = AXIS2_PLACEMENT_3D ( 'NONE', #62, #19, #139 ) ;
#144 = ORIENTED_EDGE ( 'NONE', *, *, #154, .T. ) ;
#145 = LOCAL_TIME ( 10, 53, 54.00000000000000000, #136 ) ;
#146 = ORIENTED_EDGE ( 'NONE', *, *, #213, .T. ) ;
#147 = SHAPE_DEFINITION_REPRESENTATION ( #117, #53 ) ;
#148 = APPROVAL_STATUS ( 'not_yet_approved' ) ;
#149 = DIRECTION ( 'NONE',  ( -0.7071067811865436870, 0.000000000000000000, 0.7071067811865514585 ) ) ;
#150 = ORIENTED_EDGE ( 'NONE', *, *, #78, .T. ) ;
#151 = DIRECTION ( 'NONE',  ( 0.7071067811865513475, 0.000000000000000000, 0.7071067811865435759 ) ) ;
#152 = DESIGN_CONTEXT ( 'detailed design', #48, 'design' ) ;
#153 = DIRECTION ( 'NONE',  ( -3.885780586188047891E-16, 0.000000000000000000, 1.000000000000000000 ) ) ;
#154 = EDGE_CURVE ( 'NONE', #106, #26, #214, .T. ) ;
#155 = APPROVAL_STATUS ( 'not_yet_approved' ) ;
#156 = DIRECTION ( 'NONE',  ( 1.000000000000000000, 0.000000000000000000, 3.885780586188047891E-16 ) ) ;
#157 = EDGE_LOOP ( 'NONE', ( #240, #102, #144, #100 ) ) ;
#158 = CIRCLE ( 'NONE', #42, 19.20000000000000284 ) ;
#159 = AXIS2_PLACEMENT_3D ( 'NONE', #177, #194, #132 ) ;
#160 = EDGE_CURVE ( 'NONE', #32, #13, #199, .T. ) ;
#161 = DIRECTION ( 'NONE',  ( 0.000000000000000000, 0.000000000000000000, 1.000000000000000000 ) ) ;
#162 = APPROVAL_DATE_TIME ( #81, #12 ) ;
#163 = CALENDAR_DATE ( 2024, 3, 8 ) ;
#164 = AXIS2_PLACEMENT_3D ( 'NONE', #10, #211, #198 ) ;
#165 = PLANE ( 'NONE',  #179 ) ;
#166 = ORIENTED_EDGE ( 'NONE', *, *, #60, .T. ) ;
#167 = DATE_AND_TIME ( #36, #252 ) ;
#168 = CARTESIAN_POINT ( 'NONE',  ( -33.58757210636118629, 0.000000000000000000, -33.58757210636081680 ) ) ;
#169 = EDGE_LOOP ( 'NONE', ( #67, #191, #126, #203 ) ) ;
#170 = APPLICATION_PROTOCOL_DEFINITION ( 'international standard', 'config_control_design', 1994, #48 ) ;
#171 = EDGE_CURVE ( 'NONE', #71, #47, #94, .T. ) ;
#172 = DATE_AND_TIME ( #92, #24 ) ;
#173 = ORIENTED_EDGE ( 'NONE', *, *, #33, .F. ) ;
#174 = CC_DESIGN_APPROVAL ( #12, ( #43 ) ) ;
#175 = DATE_TIME_ROLE ( 'classification_date' ) ;
#176 = APPROVAL_DATE_TIME ( #167, #235 ) ;
#177 = CARTESIAN_POINT ( 'NONE',  ( -47.49999999999999289, 0.000000000000000000, -6.938893903907228378E-15 ) ) ;
#178 =( LENGTH_UNIT ( ) NAMED_UNIT ( * ) SI_UNIT ( .MILLI., .METRE. ) );
#179 = AXIS2_PLACEMENT_3D ( 'NONE', #236, #149, #219 ) ;
#180 = CC_DESIGN_SECURITY_CLASSIFICATION ( #124, ( #244 ) ) ;
#181 = EDGE_CURVE ( 'NONE', #49, #86, #227, .T. ) ;
#182 = CIRCLE ( 'NONE', #1, 19.20000000000000639 ) ;
#183 = CARTESIAN_POINT ( 'NONE',  ( -33.58757210636118629, 0.000000000000000000, -33.58757210636081680 ) ) ;
#184 = EDGE_LOOP ( 'NONE', ( #216, #34 ) ) ;
#185 = FACE_OUTER_BOUND ( 'NONE', #112, .T. ) ;
#186 = PERSON_AND_ORGANIZATION ( #215, #230 ) ;
#187 = CC_DESIGN_DATE_AND_TIME_ASSIGNMENT ( #172, #175, ( #124 ) ) ;
#188 = DIRECTION ( 'NONE',  ( 1.000000000000000000, 0.000000000000000000, 3.885780586188048385E-16 ) ) ;
#189 = EDGE_LOOP ( 'NONE', ( #4, #224 ) ) ;
#190 = CARTESIAN_POINT ( 'NONE',  ( -33.58757210636119339, 0.000000000000000000, -33.58757210636080970 ) ) ;
#191 = ORIENTED_EDGE ( 'NONE', *, *, #113, .F. ) ;
#192 = TOROIDAL_SURFACE ( 'NONE', #143, 47.49999999999999289, 19.20000000000000284 ) ;
#193 = PERSON_AND_ORGANIZATION ( #215, #230 ) ;
#194 = DIRECTION ( 'NONE',  ( -3.885780586188047891E-16, 0.000000000000000000, 1.000000000000000000 ) ) ;
#195 = DATE_TIME_ROLE ( 'creation_date' ) ;
#196 = CIRCLE ( 'NONE', #80, 21.19999999999999929 ) ;
#197 = CC_DESIGN_PERSON_AND_ORGANIZATION_ASSIGNMENT ( #129, #89, ( #244 ) ) ;
#198 = DIRECTION ( 'NONE',  ( 0.000000000000000000, 0.000000000000000000, 1.000000000000000000 ) ) ;
#199 = CIRCLE ( 'NONE', #250, 28.29999999999999005 ) ;
#200 = DIRECTION ( 'NONE',  ( 0.000000000000000000, 0.000000000000000000, 1.000000000000000000 ) ) ;
#201 = DIRECTION ( 'NONE',  ( -0.7071067811865436870, 0.000000000000000000, 0.7071067811865514585 ) ) ;
#202 = EDGE_CURVE ( 'NONE', #13, #86, #158, .T. ) ;
#203 = ORIENTED_EDGE ( 'NONE', *, *, #202, .T. ) ;
#204 = DIRECTION ( 'NONE',  ( -3.885780586188047891E-16, 0.000000000000000000, 1.000000000000000000 ) ) ;
#205 = FACE_OUTER_BOUND ( 'NONE', #91, .T. ) ;
#206 = ORIENTED_EDGE ( 'NONE', *, *, #113, .T. ) ;
#207 = ORIENTED_EDGE ( 'NONE', *, *, #70, .T. ) ;
#208 = APPROVAL_ROLE ( '' ) ;
#209 = DIRECTION ( 'NONE',  ( 1.000000000000000000, 0.000000000000000000, 3.885780586188047398E-16 ) ) ;
#210 = AXIS2_PLACEMENT_3D ( 'NONE', #95, #201, #116 ) ;
#211 = DIRECTION ( 'NONE',  ( 0.000000000000000000, 1.000000000000000000, 0.000000000000000000 ) ) ;
#212 = CLOSED_SHELL ( 'NONE', ( #140, #87, #133, #63, #122, #246 ) ) ;
#213 = EDGE_CURVE ( 'NONE', #106, #71, #57, .T. ) ;
#214 = CIRCLE ( 'NONE', #111, 26.29999999999999361 ) ;
#215 = PERSON ( 'UNSPECIFIED', 'UNSPECIFIED', 'UNSPECIFIED', ('UNSPECIFIED'), ('UNSPECIFIED'), ('UNSPECIFIED') ) ;
#216 = ORIENTED_EDGE ( 'NONE', *, *, #202, .F. ) ;
#217 =( GEOMETRIC_REPRESENTATION_CONTEXT ( 3 ) GLOBAL_UNCERTAINTY_ASSIGNED_CONTEXT ( ( #242 ) ) GLOBAL_UNIT_ASSIGNED_CONTEXT ( ( #178, #118, #72 ) ) REPRESENTATION_CONTEXT ( 'NONE', 'WORKASPACE' ) );
#218 = DIRECTION ( 'NONE',  ( 1.000000000000000000, 0.000000000000000000, 0.000000000000000000 ) ) ;
#219 = DIRECTION ( 'NONE',  ( 0.7071067811865513475, 0.000000000000000000, 0.7071067811865435759 ) ) ;
#220 = APPROVAL ( #155, 'UNSPECIFIED' ) ;
#221 = CARTESIAN_POINT ( 'NONE',  ( -47.16402230514297855, 0.000000000000000000, -47.16402230514245275 ) ) ;
#222 = PERSON_AND_ORGANIZATION_ROLE ( 'creator' ) ;
#223 = DIRECTION ( 'NONE',  ( -0.7071067811865436870, 0.000000000000000000, 0.7071067811865514585 ) ) ;
#224 = ORIENTED_EDGE ( 'NONE', *, *, #20, .F. ) ;
#225 = DIRECTION ( 'NONE',  ( -0.7071067811865436870, 0.000000000000000000, 0.7071067811865514585 ) ) ;
#226 = PLANE ( 'NONE',  #115 ) ;
#227 = CIRCLE ( 'NONE', #251, 66.69999999999998863 ) ;
#228 = AXIS2_PLACEMENT_3D ( 'NONE', #190, #223, #93 ) ;
#229 = CC_DESIGN_PERSON_AND_ORGANIZATION_ASSIGNMENT ( #69, #222, ( #43 ) ) ;
#230 = ORGANIZATION ( 'UNSPECIFIED', 'UNSPECIFIED', '' ) ;
#231 = CARTESIAN_POINT ( 'NONE',  ( 0.000000000000000000, 0.000000000000000000, 0.000000000000000000 ) ) ;
#232 = CC_DESIGN_PERSON_AND_ORGANIZATION_ASSIGNMENT ( #247, #239, ( #244 ) ) ;
#233 = AXIS2_PLACEMENT_3D ( 'NONE', #37, #16, #51 ) ;
#234 = DATE_AND_TIME ( #163, #15 ) ;
#235 = APPROVAL ( #148, 'UNSPECIFIED' ) ;
#236 = CARTESIAN_POINT ( 'NONE',  ( -33.58757210636119339, 0.000000000000000000, -33.58757210636080970 ) ) ;
#237 = PERSON_AND_ORGANIZATION_ROLE ( 'design_owner' ) ;
#238 = ORIENTED_EDGE ( 'NONE', *, *, #181, .T. ) ;
#239 = PERSON_AND_ORGANIZATION_ROLE ( 'creator' ) ;
#240 = ORIENTED_EDGE ( 'NONE', *, *, #171, .F. ) ;
#241 = CALENDAR_DATE ( 2024, 3, 8 ) ;
#242 = UNCERTAINTY_MEASURE_WITH_UNIT (LENGTH_MEASURE( 1.000000000000000082E-05 ), #178, 'distance_accuracy_value', 'NONE');
#243 = CIRCLE ( 'NONE', #21, 19.20000000000000284 ) ;
#244 = PRODUCT_DEFINITION_FORMATION_WITH_SPECIFIED_SOURCE ( 'ANY', '', #23, .NOT_KNOWN. ) ;
#245 = CARTESIAN_POINT ( 'NONE',  ( -28.29999999999999005, 0.000000000000000000, -1.099675905891217206E-14 ) ) ;
#246 = ADVANCED_FACE ( 'NONE', ( #22 ), #192, .F. ) ;
#247 = PERSON_AND_ORGANIZATION ( #215, #230 ) ;
#248 = CARTESIAN_POINT ( 'NONE',  ( -68.70000000000000284, 0.000000000000000000, -1.517674874662588865E-14 ) ) ;
#249 = CC_DESIGN_PERSON_AND_ORGANIZATION_ASSIGNMENT ( #193, #14, ( #124 ) ) ;
#250 = AXIS2_PLACEMENT_3D ( 'NONE', #40, #44, #123 ) ;
#251 = AXIS2_PLACEMENT_3D ( 'NONE', #77, #121, #161 ) ;
#252 = LOCAL_TIME ( 10, 53, 54.00000000000000000, #30 ) ;
#253 = DIRECTION ( 'NONE',  ( 0.000000000000000000, 0.000000000000000000, 1.000000000000000000 ) ) ;
ENDSEC;
END-ISO-10303-21;
