ISO-10303-21;
HEADER;
FILE_DESCRIPTION (( 'STEP AP203' ),
    '1' );
FILE_NAME ('11-0216-10_outokumpu.step',
    '2015-08-11T14:14:33',
    ( '' ),
    ( '' ),
    'SwSTEP 2.0',
    'SolidWorks 2008',
    '' );
FILE_SCHEMA (( 'CONFIG_CONTROL_DESIGN' ));
ENDSEC;

DATA;
#1 = AXIS2_PLACEMENT_3D ( 'NONE', #13, #12, #6 ) ;
#2 =( GEOMETRIC_REPRESENTATION_CONTEXT ( 3 ) GLOBAL_UNCERTAINTY_ASSIGNED_CONTEXT ( ( #3 ) ) GLOBAL_UNIT_ASSIGNED_CONTEXT ( ( #11, #4, #15 ) ) REPRESENTATION_CONTEXT ( 'NONE', 'WORKASPACE' ) );
#3 = UNCERTAINTY_MEASURE_WITH_UNIT (LENGTH_MEASURE( 1.000000000000000100E-005 ), #11, 'distance_accuracy_value', 'NONE');
#4 =( NAMED_UNIT ( * ) PLANE_ANGLE_UNIT ( ) SI_UNIT ( $, .RADIAN. ) );
#5 = ADVANCED_BREP_SHAPE_REPRESENTATION ( '11-0216-10_outokumpu', ( #220, #1 ), #2 ) ;
#6 = DIRECTION ( 'NONE',  ( 1.000000000000000000, 0.0000000000000000000, 0.0000000000000000000 ) ) ;
#7 = PERSON ( 'UNSPECIFIED', 'UNSPECIFIED', 'UNSPECIFIED', ('UNSPECIFIED'), ('UNSPECIFIED'), ('UNSPECIFIED') ) ;
#8 = PRODUCT ( '11-0216-10_outokumpu', '11-0216-10_outokumpu', '', ( #9 ) ) ;
#9 = MECHANICAL_CONTEXT ( 'NONE', #14, 'mechanical' ) ;
#10 = APPLICATION_PROTOCOL_DEFINITION ( 'international standard', 'config_control_design', 1994, #14 ) ;
#11 =( LENGTH_UNIT ( ) NAMED_UNIT ( * ) SI_UNIT ( .MILLI., .METRE. ) );
#12 = DIRECTION ( 'NONE',  ( 0.0000000000000000000, 0.0000000000000000000, 1.000000000000000000 ) ) ;
#13 = CARTESIAN_POINT ( 'NONE',  ( 0.0000000000000000000, 0.0000000000000000000, 0.0000000000000000000 ) ) ;
#14 = APPLICATION_CONTEXT ( 'configuration controlled 3d designs of mechanical parts and assemblies' ) ;
#15 =( NAMED_UNIT ( * ) SI_UNIT ( $, .STERADIAN. ) SOLID_ANGLE_UNIT ( ) );
#16 = ORGANIZATION ( 'UNSPECIFIED', 'UNSPECIFIED', '' ) ;
#17 = SHAPE_DEFINITION_REPRESENTATION ( #18, #5 ) ;
#18 = PRODUCT_DEFINITION_SHAPE ( 'NONE', 'NONE',  #39 ) ;
#19 = PRODUCT_RELATED_PRODUCT_CATEGORY ( 'detail', '', ( #8 ) ) ;
#20 = CC_DESIGN_SECURITY_CLASSIFICATION ( #73, ( #59 ) ) ;
#21 = CC_DESIGN_APPROVAL ( #29, ( #73 ) ) ;
#22 = APPROVAL_DATE_TIME ( #23, #29 ) ;
#23 = DATE_AND_TIME ( #24, #25 ) ;
#24 = CALENDAR_DATE ( 2015, 11, 8 ) ;
#25 = LOCAL_TIME ( 16, 14, 33.00000000000000000, #26 ) ;
#26 = COORDINATED_UNIVERSAL_TIME_OFFSET ( 1, 0, .AHEAD. ) ;
#27 = APPROVAL_PERSON_ORGANIZATION ( #31, #29, #28 ) ;
#28 = APPROVAL_ROLE ( '' ) ;
#29 = APPROVAL ( #30, 'UNSPECIFIED' ) ;
#30 = APPROVAL_STATUS ( 'not_yet_approved' ) ;
#31 = PERSON_AND_ORGANIZATION ( #7, #16 ) ;
#32 = LOCAL_TIME ( 16, 14, 33.00000000000000000, #33 ) ;
#33 = COORDINATED_UNIVERSAL_TIME_OFFSET ( 1, 0, .AHEAD. ) ;
#34 = APPROVAL_PERSON_ORGANIZATION ( #38, #36, #35 ) ;
#35 = APPROVAL_ROLE ( '' ) ;
#36 = APPROVAL ( #37, 'UNSPECIFIED' ) ;
#37 = APPROVAL_STATUS ( 'not_yet_approved' ) ;
#38 = PERSON_AND_ORGANIZATION ( #7, #16 ) ;
#39 = PRODUCT_DEFINITION ( 'UNKNOWN', '', #59, #40 ) ;
#40 = DESIGN_CONTEXT ( 'detailed design', #42, 'design' ) ;
#41 = APPLICATION_PROTOCOL_DEFINITION ( 'international standard', 'config_control_design', 1994, #42 ) ;
#42 = APPLICATION_CONTEXT ( 'configuration controlled 3d designs of mechanical parts and assemblies' ) ;
#43 = PERSON_AND_ORGANIZATION_ROLE ( 'design_supplier' ) ;
#44 = PERSON_AND_ORGANIZATION ( #7, #16 ) ;
#45 = CC_DESIGN_PERSON_AND_ORGANIZATION_ASSIGNMENT ( #47, #46, ( #59 ) ) ;
#46 = PERSON_AND_ORGANIZATION_ROLE ( 'creator' ) ;
#47 = PERSON_AND_ORGANIZATION ( #7, #16 ) ;
#48 = CC_DESIGN_APPROVAL ( #56, ( #59 ) ) ;
#49 = APPROVAL_DATE_TIME ( #50, #56 ) ;
#50 = DATE_AND_TIME ( #51, #52 ) ;
#51 = CALENDAR_DATE ( 2015, 11, 8 ) ;
#52 = LOCAL_TIME ( 16, 14, 33.00000000000000000, #53 ) ;
#53 = COORDINATED_UNIVERSAL_TIME_OFFSET ( 1, 0, .AHEAD. ) ;
#54 = APPROVAL_PERSON_ORGANIZATION ( #58, #56, #55 ) ;
#55 = APPROVAL_ROLE ( '' ) ;
#56 = APPROVAL ( #57, 'UNSPECIFIED' ) ;
#57 = APPROVAL_STATUS ( 'not_yet_approved' ) ;
#58 = PERSON_AND_ORGANIZATION ( #7, #16 ) ;
#59 = PRODUCT_DEFINITION_FORMATION_WITH_SPECIFIED_SOURCE ( 'ANY', '', #8, .NOT_KNOWN. ) ;
#60 = CC_DESIGN_DATE_AND_TIME_ASSIGNMENT ( #62, #61, ( #39 ) ) ;
#61 = DATE_TIME_ROLE ( 'creation_date' ) ;
#62 = DATE_AND_TIME ( #78, #79 ) ;
#63 = PERSON_AND_ORGANIZATION ( #7, #16 ) ;
#64 = CC_DESIGN_DATE_AND_TIME_ASSIGNMENT ( #66, #65, ( #73 ) ) ;
#65 = DATE_TIME_ROLE ( 'classification_date' ) ;
#66 = DATE_AND_TIME ( #67, #68 ) ;
#67 = CALENDAR_DATE ( 2015, 11, 8 ) ;
#68 = LOCAL_TIME ( 16, 14, 33.00000000000000000, #69 ) ;
#69 = COORDINATED_UNIVERSAL_TIME_OFFSET ( 1, 0, .AHEAD. ) ;
#70 = CC_DESIGN_PERSON_AND_ORGANIZATION_ASSIGNMENT ( #72, #71, ( #73 ) ) ;
#71 = PERSON_AND_ORGANIZATION_ROLE ( 'classification_officer' ) ;
#72 = PERSON_AND_ORGANIZATION ( #7, #16 ) ;
#73 = SECURITY_CLASSIFICATION ( '', '', #74 ) ;
#74 = SECURITY_CLASSIFICATION_LEVEL ( 'unclassified' ) ;
#75 = CC_DESIGN_PERSON_AND_ORGANIZATION_ASSIGNMENT ( #44, #43, ( #59 ) ) ;
#76 = CC_DESIGN_PERSON_AND_ORGANIZATION_ASSIGNMENT ( #63, #77, ( #8 ) ) ;
#77 = PERSON_AND_ORGANIZATION_ROLE ( 'design_owner' ) ;
#78 = CALENDAR_DATE ( 2015, 11, 8 ) ;
#79 = LOCAL_TIME ( 16, 14, 33.00000000000000000, #80 ) ;
#80 = COORDINATED_UNIVERSAL_TIME_OFFSET ( 1, 0, .AHEAD. ) ;
#81 = CC_DESIGN_PERSON_AND_ORGANIZATION_ASSIGNMENT ( #83, #82, ( #39 ) ) ;
#82 = PERSON_AND_ORGANIZATION_ROLE ( 'creator' ) ;
#83 = PERSON_AND_ORGANIZATION ( #7, #16 ) ;
#84 = CC_DESIGN_APPROVAL ( #36, ( #39 ) ) ;
#85 = APPROVAL_DATE_TIME ( #86, #36 ) ;
#86 = DATE_AND_TIME ( #87, #32 ) ;
#87 = CALENDAR_DATE ( 2015, 11, 8 ) ;
#88 = DIRECTION ( 'NONE',  ( -0.0000000000000000000, -0.0000000000000000000, 1.000000000000000000 ) ) ;
#89 = CARTESIAN_POINT ( 'NONE',  ( 0.0000000000000000000, 0.0000000000000000000, -1.312741566733510500 ) ) ;
#90 = DIRECTION ( 'NONE',  ( 1.000000000000000000, 0.0000000000000000000, 0.0000000000000000000 ) ) ;
#91 = CARTESIAN_POINT ( 'NONE',  ( 0.0000000000000000000, 0.0000000000000000000, 0.0000000000000000000 ) ) ;
#92 = DIRECTION ( 'NONE',  ( -0.0000000000000000000, -0.0000000000000000000, 1.000000000000000000 ) ) ;
#93 = CIRCLE ( 'NONE', #95, 37.59199999999999200 ) ;
#94 = DIRECTION ( 'NONE',  ( 1.000000000000000000, 0.0000000000000000000, 0.0000000000000000000 ) ) ;
#95 = AXIS2_PLACEMENT_3D ( 'NONE', #89, #88, #90 ) ;
#96 = CIRCLE ( 'NONE', #99, 41.00000000000000000 ) ;
#97 = DIRECTION ( 'NONE',  ( -0.0000000000000000000, -0.0000000000000000000, 1.000000000000000000 ) ) ;
#98 = VECTOR ( 'NONE', #97, 1000.000000000000000 ) ;
#99 = AXIS2_PLACEMENT_3D ( 'NONE', #91, #92, #94 ) ;
#100 = DIRECTION ( 'NONE',  ( 1.000000000000000000, 0.0000000000000000000, 0.0000000000000000000 ) ) ;
#101 = DIRECTION ( 'NONE',  ( -0.0000000000000000000, -0.0000000000000000000, 1.000000000000000000 ) ) ;
#102 = AXIS2_PLACEMENT_3D ( 'NONE', #126, #101, #100 ) ;
#103 = FACE_OUTER_BOUND ( 'NONE', #186, .T. ) ;
#104 = CYLINDRICAL_SURFACE ( 'NONE', #117, 41.00000000000000000 ) ;
#105 = CARTESIAN_POINT ( 'NONE',  ( 0.0000000000000000000, 0.0000000000000000000, -4.336808689942017700E-016 ) ) ;
#106 = CARTESIAN_POINT ( 'NONE',  ( 4.603540205289079500E-015, -37.59199999999999200, -1.312741566733510500 ) ) ;
#107 = CARTESIAN_POINT ( 'NONE',  ( -37.59199999999999200, 4.683919788466510200E-015, -1.312741566733510500 ) ) ;
#108 = CIRCLE ( 'NONE', #102, 37.59199999999999200 ) ;
#109 = DIRECTION ( 'NONE',  ( 1.000000000000000000, 0.0000000000000000000, 0.0000000000000000000 ) ) ;
#110 = CARTESIAN_POINT ( 'NONE',  ( -41.00000000000000000, 5.020886050671746800E-015, 0.0000000000000000000 ) ) ;
#111 = DIRECTION ( 'NONE',  ( -0.0000000000000000000, -0.0000000000000000000, 1.000000000000000000 ) ) ;
#112 = VECTOR ( 'NONE', #111, 1000.000000000000000 ) ;
#113 = CARTESIAN_POINT ( 'NONE',  ( -41.00000000000000000, 5.020886050671746800E-015, -4.336808689942017700E-016 ) ) ;
#114 = LINE ( 'NONE', #113, #112 ) ;
#115 = DIRECTION ( 'NONE',  ( 1.000000000000000000, 0.0000000000000000000, 0.0000000000000000000 ) ) ;
#116 = DIRECTION ( 'NONE',  ( -0.0000000000000000000, -0.0000000000000000000, 1.000000000000000000 ) ) ;
#117 = AXIS2_PLACEMENT_3D ( 'NONE', #105, #116, #115 ) ;
#118 = CARTESIAN_POINT ( 'NONE',  ( -41.00000000000000000, 5.020886050671746800E-015, -23.00000000000000700 ) ) ;
#119 = CARTESIAN_POINT ( 'NONE',  ( 41.00000000000000000, 0.0000000000000000000, -23.00000000000000700 ) ) ;
#120 = DIRECTION ( 'NONE',  ( 1.000000000000000000, 0.0000000000000000000, 0.0000000000000000000 ) ) ;
#121 = DIRECTION ( 'NONE',  ( -0.0000000000000000000, -0.0000000000000000000, 1.000000000000000000 ) ) ;
#122 = DIRECTION ( 'NONE',  ( -0.0000000000000000000, -0.0000000000000000000, 1.000000000000000000 ) ) ;
#123 = CARTESIAN_POINT ( 'NONE',  ( 0.0000000000000000000, 0.0000000000000000000, -1.312741566733510500 ) ) ;
#124 = AXIS2_PLACEMENT_3D ( 'NONE', #123, #122, #109 ) ;
#125 = CIRCLE ( 'NONE', #124, 37.59199999999999200 ) ;
#126 = CARTESIAN_POINT ( 'NONE',  ( 0.0000000000000000000, 0.0000000000000000000, -21.68725843326618700 ) ) ;
#127 = CARTESIAN_POINT ( 'NONE',  ( 0.0000000000000000000, 0.0000000000000000000, -23.00000000000000700 ) ) ;
#128 = AXIS2_PLACEMENT_3D ( 'NONE', #127, #121, #120 ) ;
#129 = CIRCLE ( 'NONE', #128, 41.00000000000000000 ) ;
#130 = DIRECTION ( 'NONE',  ( -0.0000000000000000000, 2.253892378591257100E-016, -1.000000000000000000 ) ) ;
#131 = CARTESIAN_POINT ( 'NONE',  ( 0.0000000000000000000, 1.714505518806309200E-015, -23.00000000000014600 ) ) ;
#132 = AXIS2_PLACEMENT_3D ( 'NONE', #131, #130, #174 ) ;
#133 = LINE ( 'NONE', #144, #143 ) ;
#134 = DIRECTION ( 'NONE',  ( 1.000000000000000000, 0.0000000000000000000, 0.0000000000000000000 ) ) ;
#135 = DIRECTION ( 'NONE',  ( -0.0000000000000000000, -0.0000000000000000000, 1.000000000000000000 ) ) ;
#136 = LINE ( 'NONE', #161, #160 ) ;
#137 = FACE_OUTER_BOUND ( 'NONE', #175, .T. ) ;
#138 = CARTESIAN_POINT ( 'NONE',  ( 0.0000000000000000000, 0.0000000000000000000, -3.304181524652116200E-019 ) ) ;
#139 = CIRCLE ( 'NONE', #152, 38.90474156673351300 ) ;
#140 = FACE_OUTER_BOUND ( 'NONE', #215, .T. ) ;
#141 = CARTESIAN_POINT ( 'NONE',  ( -38.90474156673351300, 4.764299371643941000E-015, -3.304181524652116200E-019 ) ) ;
#142 = DIRECTION ( 'NONE',  ( -0.7071067811865501300, 8.659274570719387500E-017, 0.7071067811865449100 ) ) ;
#143 = VECTOR ( 'NONE', #142, 1000.000000000000000 ) ;
#144 = CARTESIAN_POINT ( 'NONE',  ( -37.59199999999999200, 4.603540205289079500E-015, -1.312741566733510500 ) ) ;
#145 = DIRECTION ( 'NONE',  ( -1.000000000000000000, 0.0000000000000000000, 0.0000000000000000000 ) ) ;
#146 = DIRECTION ( 'NONE',  ( 0.0000000000000000000, 0.0000000000000000000, -1.000000000000000000 ) ) ;
#147 = CARTESIAN_POINT ( 'NONE',  ( 0.0000000000000000000, 0.0000000000000000000, -23.00000000000000700 ) ) ;
#148 = AXIS2_PLACEMENT_3D ( 'NONE', #147, #146, #145 ) ;
#149 = CONICAL_SURFACE ( 'NONE', #148, 38.90474156673382600, 0.7853981633974536100 ) ;
#150 = DIRECTION ( 'NONE',  ( 1.000000000000000000, 0.0000000000000000000, 0.0000000000000000000 ) ) ;
#151 = DIRECTION ( 'NONE',  ( -0.0000000000000000000, -0.0000000000000000000, 1.000000000000000000 ) ) ;
#152 = AXIS2_PLACEMENT_3D ( 'NONE', #138, #151, #150 ) ;
#153 = DIRECTION ( 'NONE',  ( 1.000000000000000000, 0.0000000000000000000, 0.0000000000000000000 ) ) ;
#154 = DIRECTION ( 'NONE',  ( -0.0000000000000000000, -0.0000000000000000000, 1.000000000000000000 ) ) ;
#155 = CARTESIAN_POINT ( 'NONE',  ( 0.0000000000000000000, 0.0000000000000000000, -23.00000000000000700 ) ) ;
#156 = AXIS2_PLACEMENT_3D ( 'NONE', #155, #154, #153 ) ;
#157 = CYLINDRICAL_SURFACE ( 'NONE', #132, 37.59199999999999200 ) ;
#158 = FACE_OUTER_BOUND ( 'NONE', #201, .T. ) ;
#159 = DIRECTION ( 'NONE',  ( -0.0000000000000000000, 2.253892378591257100E-016, -1.000000000000000000 ) ) ;
#160 = VECTOR ( 'NONE', #159, 1000.000000000000000 ) ;
#161 = CARTESIAN_POINT ( 'NONE',  ( 0.0000000000000000000, 37.59199999999999200, -23.00000000000013900 ) ) ;
#162 = CARTESIAN_POINT ( 'NONE',  ( 0.0000000000000000000, 0.0000000000000000000, -4.336808689942017700E-016 ) ) ;
#163 = AXIS2_PLACEMENT_3D ( 'NONE', #162, #135, #134 ) ;
#164 = CYLINDRICAL_SURFACE ( 'NONE', #163, 41.00000000000000000 ) ;
#165 = CIRCLE ( 'NONE', #156, 41.00000000000000000 ) ;
#166 = CARTESIAN_POINT ( 'NONE',  ( 0.0000000000000000000, 37.59199999999999200, -21.68725843326618700 ) ) ;
#167 = CARTESIAN_POINT ( 'NONE',  ( 41.00000000000000000, 0.0000000000000000000, 0.0000000000000000000 ) ) ;
#168 = DIRECTION ( 'NONE',  ( -1.000000000000000000, 0.0000000000000000000, 0.0000000000000000000 ) ) ;
#169 = DIRECTION ( 'NONE',  ( 0.0000000000000000000, 0.0000000000000000000, -1.000000000000000000 ) ) ;
#170 = AXIS2_PLACEMENT_3D ( 'NONE', #172, #169, #168 ) ;
#171 = CONICAL_SURFACE ( 'NONE', #170, 38.90474156673382600, 0.7853981633974536100 ) ;
#172 = CARTESIAN_POINT ( 'NONE',  ( 0.0000000000000000000, 0.0000000000000000000, -23.00000000000000700 ) ) ;
#173 = FACE_OUTER_BOUND ( 'NONE', #222, .T. ) ;
#174 = DIRECTION ( 'NONE',  ( 0.0000000000000000000, 1.000000000000000000, 1.845843238962340500E-016 ) ) ;
#175 = EDGE_LOOP ( 'NONE', ( #204, #205, #203, #280, #281 ) ) ;
#176 = ORIENTED_EDGE ( 'NONE', *, *, #276, .T. ) ;
#177 = ORIENTED_EDGE ( 'NONE', *, *, #178, .F. ) ;
#178 = EDGE_CURVE ( 'NONE', #179, #180, #93, .T. ) ;
#179 = VERTEX_POINT ( 'NONE', #107 ) ;
#180 = VERTEX_POINT ( 'NONE', #106 ) ;
#181 = ORIENTED_EDGE ( 'NONE', *, *, #199, .T. ) ;
#182 = EDGE_CURVE ( 'NONE', #274, #271, #125, .T. ) ;
#183 = EDGE_CURVE ( 'NONE', #226, #197, #108, .T. ) ;
#184 = ORIENTED_EDGE ( 'NONE', *, *, #182, .T. ) ;
#185 = ADVANCED_FACE ( 'NONE', ( #103 ), #104, .T. ) ;
#186 = EDGE_LOOP ( 'NONE', ( #187, #191, #194, #285 ) ) ;
#187 = ORIENTED_EDGE ( 'NONE', *, *, #188, .T. ) ;
#188 = EDGE_CURVE ( 'NONE', #189, #190, #129, .T. ) ;
#189 = VERTEX_POINT ( 'NONE', #119 ) ;
#190 = VERTEX_POINT ( 'NONE', #118 ) ;
#191 = ORIENTED_EDGE ( 'NONE', *, *, #192, .T. ) ;
#192 = EDGE_CURVE ( 'NONE', #190, #193, #114, .T. ) ;
#193 = VERTEX_POINT ( 'NONE', #110 ) ;
#194 = ORIENTED_EDGE ( 'NONE', *, *, #195, .F. ) ;
#195 = EDGE_CURVE ( 'NONE', #196, #193, #96, .T. ) ;
#196 = VERTEX_POINT ( 'NONE', #167 ) ;
#197 = VERTEX_POINT ( 'NONE', #166 ) ;
#198 = ORIENTED_EDGE ( 'NONE', *, *, #199, .F. ) ;
#199 = EDGE_CURVE ( 'NONE', #271, #197, #136, .T. ) ;
#200 = ADVANCED_FACE ( 'NONE', ( #158 ), #157, .F. ) ;
#201 = EDGE_LOOP ( 'NONE', ( #202, #176, #184, #181, #259, #243 ) ) ;
#202 = ORIENTED_EDGE ( 'NONE', *, *, #261, .F. ) ;
#203 = ORIENTED_EDGE ( 'NONE', *, *, #284, .T. ) ;
#204 = ORIENTED_EDGE ( 'NONE', *, *, #228, .F. ) ;
#205 = ORIENTED_EDGE ( 'NONE', *, *, #183, .T. ) ;
#206 = ORIENTED_EDGE ( 'NONE', *, *, #212, .T. ) ;
#207 = ADVANCED_FACE ( 'NONE', ( #137 ), #149, .F. ) ;
#208 = ORIENTED_EDGE ( 'NONE', *, *, #270, .F. ) ;
#209 = ORIENTED_EDGE ( 'NONE', *, *, #182, .F. ) ;
#210 = ORIENTED_EDGE ( 'NONE', *, *, #273, .T. ) ;
#211 = EDGE_CURVE ( 'NONE', #190, #189, #165, .T. ) ;
#212 = EDGE_CURVE ( 'NONE', #278, #218, #139, .T. ) ;
#213 = ORIENTED_EDGE ( 'NONE', *, *, #277, .F. ) ;
#214 = ADVANCED_FACE ( 'NONE', ( #140 ), #164, .T. ) ;
#215 = EDGE_LOOP ( 'NONE', ( #231, #232, #233, #234 ) ) ;
#216 = ORIENTED_EDGE ( 'NONE', *, *, #217, .T. ) ;
#217 = EDGE_CURVE ( 'NONE', #179, #218, #133, .T. ) ;
#218 = VERTEX_POINT ( 'NONE', #141 ) ;
#219 = ORIENTED_EDGE ( 'NONE', *, *, #277, .T. ) ;
#220 = MANIFOLD_SOLID_BREP ( 'NONE', #282 ) ;
#221 = ADVANCED_FACE ( 'NONE', ( #173 ), #171, .F. ) ;
#222 = EDGE_LOOP ( 'NONE', ( #223, #227, #263, #266, #253 ) ) ;
#223 = ORIENTED_EDGE ( 'NONE', *, *, #224, .T. ) ;
#224 = EDGE_CURVE ( 'NONE', #225, #226, #306, .T. ) ;
#225 = VERTEX_POINT ( 'NONE', #305 ) ;
#226 = VERTEX_POINT ( 'NONE', #304 ) ;
#227 = ORIENTED_EDGE ( 'NONE', *, *, #228, .T. ) ;
#228 = EDGE_CURVE ( 'NONE', #226, #257, #311, .T. ) ;
#229 = EDGE_LOOP ( 'NONE', ( #248, #249 ) ) ;
#230 = ORIENTED_EDGE ( 'NONE', *, *, #212, .F. ) ;
#231 = ORIENTED_EDGE ( 'NONE', *, *, #192, .F. ) ;
#232 = ORIENTED_EDGE ( 'NONE', *, *, #211, .T. ) ;
#233 = ORIENTED_EDGE ( 'NONE', *, *, #286, .T. ) ;
#234 = ORIENTED_EDGE ( 'NONE', *, *, #250, .F. ) ;
#235 = ADVANCED_FACE ( 'NONE', ( #307 ), #290, .F. ) ;
#236 = EDGE_LOOP ( 'NONE', ( #237, #208, #209, #210, #206 ) ) ;
#237 = ORIENTED_EDGE ( 'NONE', *, *, #217, .F. ) ;
#238 = ORIENTED_EDGE ( 'NONE', *, *, #242, .T. ) ;
#239 = EDGE_LOOP ( 'NONE', ( #230, #213 ) ) ;
#240 = EDGE_LOOP ( 'NONE', ( #246, #251 ) ) ;
#241 = EDGE_LOOP ( 'NONE', ( #245, #238 ) ) ;
#242 = EDGE_CURVE ( 'NONE', #257, #265, #319, .T. ) ;
#243 = ORIENTED_EDGE ( 'NONE', *, *, #224, .F. ) ;
#244 = ADVANCED_FACE ( 'NONE', ( #320, #314 ), #302, .F. ) ;
#245 = ORIENTED_EDGE ( 'NONE', *, *, #264, .T. ) ;
#246 = ORIENTED_EDGE ( 'NONE', *, *, #188, .F. ) ;
#247 = ADVANCED_FACE ( 'NONE', ( #300, #299 ), #295, .F. ) ;
#248 = ORIENTED_EDGE ( 'NONE', *, *, #195, .T. ) ;
#249 = ORIENTED_EDGE ( 'NONE', *, *, #250, .T. ) ;
#250 = EDGE_CURVE ( 'NONE', #193, #196, #332, .T. ) ;
#251 = ORIENTED_EDGE ( 'NONE', *, *, #211, .F. ) ;
#252 = VERTEX_POINT ( 'NONE', #331 ) ;
#253 = ORIENTED_EDGE ( 'NONE', *, *, #254, .T. ) ;
#254 = EDGE_CURVE ( 'NONE', #252, #225, #330, .T. ) ;
#255 = ADVANCED_FACE ( 'NONE', ( #345 ), #329, .F. ) ;
#256 = EDGE_LOOP ( 'NONE', ( #177, #216, #219, #279, #275 ) ) ;
#257 = VERTEX_POINT ( 'NONE', #383 ) ;
#258 = EDGE_LOOP ( 'NONE', ( #269, #272, #260, #262, #283, #198 ) ) ;
#259 = ORIENTED_EDGE ( 'NONE', *, *, #183, .F. ) ;
#260 = ORIENTED_EDGE ( 'NONE', *, *, #261, .T. ) ;
#261 = EDGE_CURVE ( 'NONE', #180, #225, #389, .T. ) ;
#262 = ORIENTED_EDGE ( 'NONE', *, *, #254, .F. ) ;
#263 = ORIENTED_EDGE ( 'NONE', *, *, #264, .F. ) ;
#264 = EDGE_CURVE ( 'NONE', #265, #257, #339, .T. ) ;
#265 = VERTEX_POINT ( 'NONE', #334 ) ;
#266 = ORIENTED_EDGE ( 'NONE', *, *, #267, .F. ) ;
#267 = EDGE_CURVE ( 'NONE', #252, #265, #333, .T. ) ;
#268 = ADVANCED_FACE ( 'NONE', ( #341 ), #340, .F. ) ;
#269 = ORIENTED_EDGE ( 'NONE', *, *, #270, .T. ) ;
#270 = EDGE_CURVE ( 'NONE', #271, #179, #369, .T. ) ;
#271 = VERTEX_POINT ( 'NONE', #351 ) ;
#272 = ORIENTED_EDGE ( 'NONE', *, *, #178, .T. ) ;
#273 = EDGE_CURVE ( 'NONE', #274, #278, #350, .T. ) ;
#274 = VERTEX_POINT ( 'NONE', #346 ) ;
#275 = ORIENTED_EDGE ( 'NONE', *, *, #276, .F. ) ;
#276 = EDGE_CURVE ( 'NONE', #180, #274, #378, .T. ) ;
#277 = EDGE_CURVE ( 'NONE', #218, #278, #363, .T. ) ;
#278 = VERTEX_POINT ( 'NONE', #359 ) ;
#279 = ORIENTED_EDGE ( 'NONE', *, *, #273, .F. ) ;
#280 = ORIENTED_EDGE ( 'NONE', *, *, #267, .T. ) ;
#281 = ORIENTED_EDGE ( 'NONE', *, *, #242, .F. ) ;
#282 = CLOSED_SHELL ( 'NONE', ( #221, #255, #185, #268, #200, #247, #244, #214, #235, #207 ) ) ;
#283 = ORIENTED_EDGE ( 'NONE', *, *, #284, .F. ) ;
#284 = EDGE_CURVE ( 'NONE', #197, #252, #357, .T. ) ;
#285 = ORIENTED_EDGE ( 'NONE', *, *, #286, .F. ) ;
#286 = EDGE_CURVE ( 'NONE', #189, #196, #352, .T. ) ;
#287 = AXIS2_PLACEMENT_3D ( 'NONE', #322, #303, #313 ) ;
#288 = DIRECTION ( 'NONE',  ( -0.0000000000000000000, -0.0000000000000000000, 1.000000000000000000 ) ) ;
#289 = AXIS2_PLACEMENT_3D ( 'NONE', #312, #288, #321 ) ;
#290 = CONICAL_SURFACE ( 'NONE', #289, 37.59199999999999200, 0.7853981633974520500 ) ;
#291 = DIRECTION ( 'NONE',  ( 1.000000000000000000, 0.0000000000000000000, 0.0000000000000000000 ) ) ;
#292 = DIRECTION ( 'NONE',  ( 0.0000000000000000000, -0.0000000000000000000, 1.000000000000000000 ) ) ;
#293 = CARTESIAN_POINT ( 'NONE',  ( 0.0000000000000000000, 41.00000000000000000, -23.00000000000000400 ) ) ;
#294 = AXIS2_PLACEMENT_3D ( 'NONE', #293, #292, #291 ) ;
#295 = PLANE ( 'NONE',  #294 ) ;
#296 = DIRECTION ( 'NONE',  ( -1.000000000000000000, 0.0000000000000000000, -0.0000000000000000000 ) ) ;
#297 = DIRECTION ( 'NONE',  ( 0.0000000000000000000, 0.0000000000000000000, -1.000000000000000000 ) ) ;
#298 = AXIS2_PLACEMENT_3D ( 'NONE', #301, #297, #296 ) ;
#299 = FACE_BOUND ( 'NONE', #241, .T. ) ;
#300 = FACE_OUTER_BOUND ( 'NONE', #240, .T. ) ;
#301 = CARTESIAN_POINT ( 'NONE',  ( 0.0000000000000000000, 41.00000000000000000, -2.168404344971008900E-016 ) ) ;
#302 = PLANE ( 'NONE',  #298 ) ;
#303 = DIRECTION ( 'NONE',  ( -0.0000000000000000000, -0.0000000000000000000, 1.000000000000000000 ) ) ;
#304 = CARTESIAN_POINT ( 'NONE',  ( 37.59199999999999200, 4.683919788466530000E-015, -21.68725843326618700 ) ) ;
#305 = CARTESIAN_POINT ( 'NONE',  ( 4.603540205289079500E-015, -37.59199999999999200, -21.68725843326618700 ) ) ;
#306 = CIRCLE ( 'NONE', #287, 37.59199999999999200 ) ;
#307 = FACE_OUTER_BOUND ( 'NONE', #236, .T. ) ;
#308 = DIRECTION ( 'NONE',  ( 0.7071067811865512400, 8.659274570719402300E-017, -0.7071067811865439100 ) ) ;
#309 = VECTOR ( 'NONE', #308, 999.9999999999998900 ) ;
#310 = CARTESIAN_POINT ( 'NONE',  ( 38.90474156673382600, 4.764299371643979700E-015, -23.00000000000000700 ) ) ;
#311 = LINE ( 'NONE', #310, #309 ) ;
#312 = CARTESIAN_POINT ( 'NONE',  ( 0.0000000000000000000, 0.0000000000000000000, -1.312741566733510500 ) ) ;
#313 = DIRECTION ( 'NONE',  ( 1.000000000000000000, 0.0000000000000000000, 0.0000000000000000000 ) ) ;
#314 = FACE_BOUND ( 'NONE', #239, .T. ) ;
#315 = DIRECTION ( 'NONE',  ( 1.000000000000000000, 0.0000000000000000000, 0.0000000000000000000 ) ) ;
#316 = DIRECTION ( 'NONE',  ( -0.0000000000000000000, -0.0000000000000000000, 1.000000000000000000 ) ) ;
#317 = CARTESIAN_POINT ( 'NONE',  ( 0.0000000000000000000, 0.0000000000000000000, -23.00000000000000700 ) ) ;
#318 = AXIS2_PLACEMENT_3D ( 'NONE', #317, #316, #315 ) ;
#319 = CIRCLE ( 'NONE', #318, 38.90474156673382600 ) ;
#320 = FACE_OUTER_BOUND ( 'NONE', #229, .T. ) ;
#321 = DIRECTION ( 'NONE',  ( 1.000000000000000000, 0.0000000000000000000, 0.0000000000000000000 ) ) ;
#322 = CARTESIAN_POINT ( 'NONE',  ( 0.0000000000000000000, 0.0000000000000000000, -21.68725843326618700 ) ) ;
#323 = DIRECTION ( 'NONE',  ( 1.000000000000000000, 0.0000000000000000000, 0.0000000000000000000 ) ) ;
#324 = DIRECTION ( 'NONE',  ( -0.0000000000000000000, -0.0000000000000000000, 1.000000000000000000 ) ) ;
#325 = CARTESIAN_POINT ( 'NONE',  ( 0.0000000000000000000, 0.0000000000000000000, -21.68725843326618700 ) ) ;
#326 = AXIS2_PLACEMENT_3D ( 'NONE', #325, #324, #323 ) ;
#327 = AXIS2_PLACEMENT_3D ( 'NONE', #385, #384, #364 ) ;
#328 = AXIS2_PLACEMENT_3D ( 'NONE', #382, #381, #380 ) ;
#329 = CONICAL_SURFACE ( 'NONE', #328, 37.59199999999999200, 0.7853981633974520500 ) ;
#330 = CIRCLE ( 'NONE', #326, 37.59199999999999200 ) ;
#331 = CARTESIAN_POINT ( 'NONE',  ( -37.59199999999999200, 0.0000000000000000000, -21.68725843326618700 ) ) ;
#332 = CIRCLE ( 'NONE', #327, 41.00000000000000000 ) ;
#333 = LINE ( 'NONE', #344, #343 ) ;
#334 = CARTESIAN_POINT ( 'NONE',  ( -38.90474156673382600, 0.0000000000000000000, -23.00000000000000700 ) ) ;
#335 = DIRECTION ( 'NONE',  ( 1.000000000000000000, 0.0000000000000000000, 0.0000000000000000000 ) ) ;
#336 = DIRECTION ( 'NONE',  ( -0.0000000000000000000, -0.0000000000000000000, 1.000000000000000000 ) ) ;
#337 = CARTESIAN_POINT ( 'NONE',  ( 0.0000000000000000000, 0.0000000000000000000, -23.00000000000000700 ) ) ;
#338 = AXIS2_PLACEMENT_3D ( 'NONE', #337, #336, #335 ) ;
#339 = CIRCLE ( 'NONE', #338, 38.90474156673382600 ) ;
#340 = CYLINDRICAL_SURFACE ( 'NONE', #373, 37.59199999999999200 ) ;
#341 = FACE_OUTER_BOUND ( 'NONE', #258, .T. ) ;
#342 = DIRECTION ( 'NONE',  ( -0.7071067811865512400, 0.0000000000000000000, -0.7071067811865439100 ) ) ;
#343 = VECTOR ( 'NONE', #342, 999.9999999999998900 ) ;
#344 = CARTESIAN_POINT ( 'NONE',  ( -38.90474156673382600, 0.0000000000000000000, -23.00000000000000700 ) ) ;
#345 = FACE_OUTER_BOUND ( 'NONE', #256, .T. ) ;
#346 = CARTESIAN_POINT ( 'NONE',  ( 37.59199999999999200, 0.0000000000000000000, -1.312741566733510500 ) ) ;
#347 = DIRECTION ( 'NONE',  ( 0.7071067811865501300, 0.0000000000000000000, 0.7071067811865449100 ) ) ;
#348 = VECTOR ( 'NONE', #347, 1000.000000000000000 ) ;
#349 = CARTESIAN_POINT ( 'NONE',  ( 37.59199999999999200, 0.0000000000000000000, -1.312741566733510500 ) ) ;
#350 = LINE ( 'NONE', #349, #348 ) ;
#351 = CARTESIAN_POINT ( 'NONE',  ( 0.0000000000000000000, 37.59199999999999200, -1.312741566733510500 ) ) ;
#352 = LINE ( 'NONE', #358, #98 ) ;
#353 = DIRECTION ( 'NONE',  ( 1.000000000000000000, 0.0000000000000000000, 0.0000000000000000000 ) ) ;
#354 = DIRECTION ( 'NONE',  ( -0.0000000000000000000, -0.0000000000000000000, 1.000000000000000000 ) ) ;
#355 = CARTESIAN_POINT ( 'NONE',  ( 0.0000000000000000000, 0.0000000000000000000, -21.68725843326618700 ) ) ;
#356 = AXIS2_PLACEMENT_3D ( 'NONE', #355, #354, #353 ) ;
#357 = CIRCLE ( 'NONE', #356, 37.59199999999999200 ) ;
#358 = CARTESIAN_POINT ( 'NONE',  ( 41.00000000000000000, 0.0000000000000000000, -4.336808689942017700E-016 ) ) ;
#359 = CARTESIAN_POINT ( 'NONE',  ( 38.90474156673351300, 0.0000000000000000000, -3.304181524652116200E-019 ) ) ;
#360 = DIRECTION ( 'NONE',  ( 1.000000000000000000, 0.0000000000000000000, 0.0000000000000000000 ) ) ;
#361 = DIRECTION ( 'NONE',  ( -0.0000000000000000000, -0.0000000000000000000, 1.000000000000000000 ) ) ;
#362 = AXIS2_PLACEMENT_3D ( 'NONE', #379, #361, #360 ) ;
#363 = CIRCLE ( 'NONE', #362, 38.90474156673351300 ) ;
#364 = DIRECTION ( 'NONE',  ( 1.000000000000000000, 0.0000000000000000000, 0.0000000000000000000 ) ) ;
#365 = DIRECTION ( 'NONE',  ( 1.000000000000000000, 0.0000000000000000000, 0.0000000000000000000 ) ) ;
#366 = DIRECTION ( 'NONE',  ( -0.0000000000000000000, -0.0000000000000000000, 1.000000000000000000 ) ) ;
#367 = CARTESIAN_POINT ( 'NONE',  ( 0.0000000000000000000, 0.0000000000000000000, -1.312741566733510500 ) ) ;
#368 = AXIS2_PLACEMENT_3D ( 'NONE', #367, #366, #365 ) ;
#369 = CIRCLE ( 'NONE', #368, 37.59199999999999200 ) ;
#370 = DIRECTION ( 'NONE',  ( 0.0000000000000000000, 1.000000000000000000, 1.845843238962340500E-016 ) ) ;
#371 = DIRECTION ( 'NONE',  ( -0.0000000000000000000, 2.253892378591257100E-016, -1.000000000000000000 ) ) ;
#372 = CARTESIAN_POINT ( 'NONE',  ( 0.0000000000000000000, 1.714505518806309200E-015, -23.00000000000014600 ) ) ;
#373 = AXIS2_PLACEMENT_3D ( 'NONE', #372, #371, #370 ) ;
#374 = DIRECTION ( 'NONE',  ( 1.000000000000000000, 0.0000000000000000000, 0.0000000000000000000 ) ) ;
#375 = DIRECTION ( 'NONE',  ( -0.0000000000000000000, -0.0000000000000000000, 1.000000000000000000 ) ) ;
#376 = CARTESIAN_POINT ( 'NONE',  ( 0.0000000000000000000, 0.0000000000000000000, -1.312741566733510500 ) ) ;
#377 = AXIS2_PLACEMENT_3D ( 'NONE', #376, #375, #374 ) ;
#378 = CIRCLE ( 'NONE', #377, 37.59199999999999200 ) ;
#379 = CARTESIAN_POINT ( 'NONE',  ( 0.0000000000000000000, 0.0000000000000000000, -3.304181524652116200E-019 ) ) ;
#380 = DIRECTION ( 'NONE',  ( 1.000000000000000000, 0.0000000000000000000, 0.0000000000000000000 ) ) ;
#381 = DIRECTION ( 'NONE',  ( -0.0000000000000000000, -0.0000000000000000000, 1.000000000000000000 ) ) ;
#382 = CARTESIAN_POINT ( 'NONE',  ( 0.0000000000000000000, 0.0000000000000000000, -1.312741566733510500 ) ) ;
#383 = CARTESIAN_POINT ( 'NONE',  ( 38.90474156673382600, 4.764299371643979700E-015, -23.00000000000000700 ) ) ;
#384 = DIRECTION ( 'NONE',  ( -0.0000000000000000000, -0.0000000000000000000, 1.000000000000000000 ) ) ;
#385 = CARTESIAN_POINT ( 'NONE',  ( 0.0000000000000000000, 0.0000000000000000000, 0.0000000000000000000 ) ) ;
#386 = DIRECTION ( 'NONE',  ( -0.0000000000000000000, 2.253892378591257100E-016, -1.000000000000000000 ) ) ;
#387 = VECTOR ( 'NONE', #386, 1000.000000000000000 ) ;
#388 = CARTESIAN_POINT ( 'NONE',  ( 4.603540205289079500E-015, -37.59199999999999200, -23.00000000000015300 ) ) ;
#389 = LINE ( 'NONE', #388, #387 ) ;
ENDSEC;
END-ISO-10303-21;
