ISO-10303-21;
HEADER;
FILE_DESCRIPTION (( 'STEP AP203' ),
    '1' );
FILE_NAME ('3D_GR1382_DN26.9x2_18380320.STEP',
    '2024-09-23T06:01:12',
    ( '' ),
    ( '' ),
    'SwSTEP 2.0',
    'SolidWorks 2024',
    '' );
FILE_SCHEMA (( 'CONFIG_CONTROL_DESIGN' ));
ENDSEC;

DATA;
#1 = CIRCLE ( 'NONE', #205, 0.9999999999999991118 ) ;
#2 = FACE_BOUND ( 'NONE', #123, .T. ) ;
#3 = CIRCLE ( 'NONE', #83, 11.45000000000001883 ) ;
#4 = CARTESIAN_POINT ( 'NONE',  ( -1.408343819019397603E-15, 11.45000000000001883, 0.000000000000000000 ) ) ;
#5 = ADVANCED_FACE ( 'NONE', ( #111 ), #113, .T. ) ;
#6 = DIRECTION ( 'NONE',  ( 0.000000000000000000, 0.000000000000000000, -1.000000000000000000 ) ) ;
#7 = DIRECTION ( 'NONE',  ( 0.000000000000000000, 0.000000000000000000, 1.000000000000000000 ) ) ;
#8 = CARTESIAN_POINT ( 'NONE',  ( 7.000000000000006217, 0.000000000000000000, 0.000000000000000000 ) ) ;
#9 = COORDINATED_UNIVERSAL_TIME_OFFSET ( 1, 0, .AHEAD. ) ;
#10 = MECHANICAL_CONTEXT ( 'NONE', #276, 'mechanical' ) ;
#11 = UNCERTAINTY_MEASURE_WITH_UNIT (LENGTH_MEASURE( 1.000000000000000082E-05 ), #38, 'distance_accuracy_value', 'NONE');
#12 = EDGE_CURVE ( 'NONE', #154, #121, #298, .T. ) ;
#13 = ORIENTED_EDGE ( 'NONE', *, *, #45, .T. ) ;
#14 = AXIS2_PLACEMENT_3D ( 'NONE', #226, #332, #86 ) ;
#15 = COORDINATED_UNIVERSAL_TIME_OFFSET ( 1, 0, .AHEAD. ) ;
#16 = ORIENTED_EDGE ( 'NONE', *, *, #12, .T. ) ;
#17 = AXIS2_PLACEMENT_3D ( 'NONE', #340, #41, #96 ) ;
#18 = PRODUCT_DEFINITION_SHAPE ( 'NONE', 'NONE',  #173 ) ;
#19 = VECTOR ( 'NONE', #21, 1000.000000000000000 ) ;
#20 = ORIENTED_EDGE ( 'NONE', *, *, #347, .F. ) ;
#21 = DIRECTION ( 'NONE',  ( -0.7071067811865487940, 8.659560562354918067E-17, -0.7071067811865463515 ) ) ;
#22 = CYLINDRICAL_SURFACE ( 'NONE', #130, 13.45000000000001883 ) ;
#23 = APPROVAL_ROLE ( '' ) ;
#24 = DIRECTION ( 'NONE',  ( 0.000000000000000000, 0.000000000000000000, 1.000000000000000000 ) ) ;
#25 = ADVANCED_FACE ( 'NONE', ( #273 ), #218, .F. ) ;
#26 = LOCAL_TIME ( 8, 1, 12.00000000000000000, #181 ) ;
#27 = VERTEX_POINT ( 'NONE', #55 ) ;
#28 = DIRECTION ( 'NONE',  ( 0.000000000000000000, 0.000000000000000000, 1.000000000000000000 ) ) ;
#29 = DIRECTION ( 'NONE',  ( 0.000000000000000000, 0.000000000000000000, 1.000000000000000000 ) ) ;
#30 = ADVANCED_FACE ( 'NONE', ( #137 ), #309, .T. ) ;
#31 = AXIS2_PLACEMENT_3D ( 'NONE', #241, #220, #24 ) ;
#32 = CARTESIAN_POINT ( 'NONE',  ( 7.000000000000006217, 1.402220585023721864E-15, -11.45000000000001883 ) ) ;
#33 = PRODUCT_RELATED_PRODUCT_CATEGORY ( 'detail', '', ( #129 ) ) ;
#34 = FACE_OUTER_BOUND ( 'NONE', #239, .T. ) ;
#35 = CALENDAR_DATE ( 2024, 23, 9 ) ;
#36 = DIRECTION ( 'NONE',  ( -0.000000000000000000, 1.000000000000000000, 1.224646799147353207E-16 ) ) ;
#37 = ORIENTED_EDGE ( 'NONE', *, *, #136, .T. ) ;
#38 =( LENGTH_UNIT ( ) NAMED_UNIT ( * ) SI_UNIT ( .MILLI., .METRE. ) );
#39 = ORIENTED_EDGE ( 'NONE', *, *, #347, .T. ) ;
#40 = CC_DESIGN_PERSON_AND_ORGANIZATION_ASSIGNMENT ( #270, #134, ( #75 ) ) ;
#41 = DIRECTION ( 'NONE',  ( -1.000000000000000000, -0.000000000000000000, -0.000000000000000000 ) ) ;
#42 = ORIENTED_EDGE ( 'NONE', *, *, #303, .F. ) ;
#43 = CARTESIAN_POINT ( 'NONE',  ( 7.000000000000006217, 0.000000000000000000, 11.45000000000001883 ) ) ;
#44 = AXIS2_PLACEMENT_3D ( 'NONE', #114, #331, #29 ) ;
#45 = EDGE_CURVE ( 'NONE', #292, #207, #73, .T. ) ;
#46 = ORIENTED_EDGE ( 'NONE', *, *, #234, .F. ) ;
#47 = AXIS2_PLACEMENT_3D ( 'NONE', #56, #225, #118 ) ;
#48 = VECTOR ( 'NONE', #296, 1000.000000000000000 ) ;
#49 = CALENDAR_DATE ( 2024, 23, 9 ) ;
#50 = CARTESIAN_POINT ( 'NONE',  ( -3.000000000000002665, 0.000000000000000000, 0.000000000000000000 ) ) ;
#51 = DIRECTION ( 'NONE',  ( -1.000000000000000000, -0.000000000000000000, -0.000000000000000000 ) ) ;
#52 = ORIENTED_EDGE ( 'NONE', *, *, #77, .T. ) ;
#53 = EDGE_CURVE ( 'NONE', #142, #259, #61, .T. ) ;
#54 = EDGE_LOOP ( 'NONE', ( #314, #37, #355, #46 ) ) ;
#55 = CARTESIAN_POINT ( 'NONE',  ( 0.000000000000000000, 1.402220585023721864E-15, -11.45000000000001883 ) ) ;
#56 = CARTESIAN_POINT ( 'NONE',  ( 8.000000000000007105, 0.000000000000000000, 0.000000000000000000 ) ) ;
#57 = DIRECTION ( 'NONE',  ( -1.000000000000000000, -0.000000000000000000, -0.000000000000000000 ) ) ;
#58 = CARTESIAN_POINT ( 'NONE',  ( 0.000000000000000000, 0.000000000000000000, 0.000000000000000000 ) ) ;
#59 = DIRECTION ( 'NONE',  ( -1.000000000000000000, -0.000000000000000000, -0.000000000000000000 ) ) ;
#60 = CIRCLE ( 'NONE', #162, 13.45000000000001883 ) ;
#61 = CIRCLE ( 'NONE', #192, 13.45000000000001883 ) ;
#62 = LOCAL_TIME ( 8, 1, 12.00000000000000000, #319 ) ;
#63 = FACE_OUTER_BOUND ( 'NONE', #299, .T. ) ;
#64 = EDGE_CURVE ( 'NONE', #161, #27, #275, .T. ) ;
#65 = DESIGN_CONTEXT ( 'detailed design', #336, 'design' ) ;
#66 = ORIENTED_EDGE ( 'NONE', *, *, #351, .F. ) ;
#67 = PERSON_AND_ORGANIZATION ( #191, #216 ) ;
#68 = VERTEX_POINT ( 'NONE', #106 ) ;
#69 = DIRECTION ( 'NONE',  ( 0.000000000000000000, 0.000000000000000000, 1.000000000000000000 ) ) ;
#70 = EDGE_CURVE ( 'NONE', #27, #161, #3, .T. ) ;
#71 = CARTESIAN_POINT ( 'NONE',  ( -154.8395502972293230, 0.000000000000000000, 0.000000000000000000 ) ) ;
#72 = EDGE_LOOP ( 'NONE', ( #212, #170 ) ) ;
#73 = CIRCLE ( 'NONE', #222, 12.45000000000002061 ) ;
#74 = ORIENTED_EDGE ( 'NONE', *, *, #136, .F. ) ;
#75 = PRODUCT_DEFINITION_FORMATION_WITH_SPECIFIED_SOURCE ( 'ANY', '', #129, .NOT_KNOWN. ) ;
#76 = COORDINATED_UNIVERSAL_TIME_OFFSET ( 1, 0, .AHEAD. ) ;
#77 = EDGE_CURVE ( 'NONE', #211, #207, #248, .T. ) ;
#78 = FACE_OUTER_BOUND ( 'NONE', #188, .T. ) ;
#79 = CIRCLE ( 'NONE', #14, 11.45000000000001883 ) ;
#80 = APPROVAL_DATE_TIME ( #281, #127 ) ;
#81 = CARTESIAN_POINT ( 'NONE',  ( 8.000000000000007105, 0.000000000000000000, 10.45000000000002238 ) ) ;
#82 = CIRCLE ( 'NONE', #17, 13.45000000000001883 ) ;
#83 = AXIS2_PLACEMENT_3D ( 'NONE', #214, #320, #166 ) ;
#84 = EDGE_LOOP ( 'NONE', ( #356, #16, #182, #156 ) ) ;
#85 = ADVANCED_FACE ( 'NONE', ( #78 ), #22, .T. ) ;
#86 = DIRECTION ( 'NONE',  ( 0.000000000000000000, 0.000000000000000000, 1.000000000000000000 ) ) ;
#87 = FACE_OUTER_BOUND ( 'NONE', #84, .T. ) ;
#88 = CARTESIAN_POINT ( 'NONE',  ( -154.8395502972293230, 0.000000000000000000, 0.000000000000000000 ) ) ;
#89 = CARTESIAN_POINT ( 'NONE',  ( 8.000000000000007105, 0.000000000000000000, 0.000000000000000000 ) ) ;
#90 = CARTESIAN_POINT ( 'NONE',  ( -154.8395502972293230, 1.647149944853192555E-15, -13.45000000000001883 ) ) ;
#91 = AXIS2_PLACEMENT_3D ( 'NONE', #249, #177, #7 ) ;
#92 = CALENDAR_DATE ( 2024, 23, 9 ) ;
#93 = ORIENTED_EDGE ( 'NONE', *, *, #269, .F. ) ;
#94 = CC_DESIGN_APPROVAL ( #127, ( #75 ) ) ;
#95 = APPROVAL ( #119, 'UNSPECIFIED' ) ;
#96 = DIRECTION ( 'NONE',  ( 0.000000000000000000, 0.000000000000000000, 1.000000000000000000 ) ) ;
#97 = ORIENTED_EDGE ( 'NONE', *, *, #234, .T. ) ;
#98 = DATE_AND_TIME ( #92, #140 ) ;
#99 = EDGE_CURVE ( 'NONE', #312, #161, #215, .T. ) ;
#100 = ORIENTED_EDGE ( 'NONE', *, *, #178, .F. ) ;
#101 = AXIS2_PLACEMENT_3D ( 'NONE', #88, #300, #150 ) ;
#102 = PERSON_AND_ORGANIZATION ( #191, #216 ) ;
#103 = ORIENTED_EDGE ( 'NONE', *, *, #77, .F. ) ;
#104 = CC_DESIGN_APPROVAL ( #168, ( #255 ) ) ;
#105 = DIRECTION ( 'NONE',  ( 0.000000000000000000, 0.000000000000000000, 1.000000000000000000 ) ) ;
#106 = CARTESIAN_POINT ( 'NONE',  ( -2.000000000000001776, 1.647149944853192555E-15, -13.45000000000001883 ) ) ;
#107 = MANIFOLD_SOLID_BREP ( 'Rotation1', #328 ) ;
#108 = EDGE_CURVE ( 'NONE', #341, #312, #326, .T. ) ;
#109 = DIRECTION ( 'NONE',  ( 0.000000000000000000, 0.000000000000000000, 1.000000000000000000 ) ) ;
#110 = CIRCLE ( 'NONE', #357, 12.45000000000002061 ) ;
#111 = FACE_OUTER_BOUND ( 'NONE', #157, .T. ) ;
#112 = CC_DESIGN_DATE_AND_TIME_ASSIGNMENT ( #98, #337, ( #173 ) ) ;
#113 = TOROIDAL_SURFACE ( 'NONE', #31, 12.45000000000002061, 0.9999999999999995559 ) ;
#114 = CARTESIAN_POINT ( 'NONE',  ( 8.000000000000007105, 0.000000000000000000, 0.000000000000000000 ) ) ;
#115 = CARTESIAN_POINT ( 'NONE',  ( -154.8395502972293230, 0.000000000000000000, 13.45000000000001883 ) ) ;
#116 = DIRECTION ( 'NONE',  ( 0.000000000000000000, 0.000000000000000000, 1.000000000000000000 ) ) ;
#117 = CARTESIAN_POINT ( 'NONE',  ( 0.000000000000000000, 0.000000000000000000, 11.45000000000001883 ) ) ;
#118 = DIRECTION ( 'NONE',  ( 0.000000000000000000, 0.000000000000000000, 1.000000000000000000 ) ) ;
#119 = APPROVAL_STATUS ( 'not_yet_approved' ) ;
#120 = EDGE_CURVE ( 'NONE', #207, #292, #110, .T. ) ;
#121 = VERTEX_POINT ( 'NONE', #32 ) ;
#122 = APPROVAL_ROLE ( '' ) ;
#123 = EDGE_LOOP ( 'NONE', ( #159, #290 ) ) ;
#124 = ORIENTED_EDGE ( 'NONE', *, *, #64, .F. ) ;
#125 = AXIS2_PLACEMENT_3D ( 'NONE', #204, #277, #116 ) ;
#126 = APPROVAL_DATE_TIME ( #343, #95 ) ;
#127 = APPROVAL ( #206, 'UNSPECIFIED' ) ;
#128 = ORIENTED_EDGE ( 'NONE', *, *, #247, .T. ) ;
#129 = PRODUCT ( '3D_GR1382_DN26.9x2_18380320', '3D_GR1382_DN26.9x2_18380320', '', ( #10 ) ) ;
#130 = AXIS2_PLACEMENT_3D ( 'NONE', #242, #271, #109 ) ;
#131 = SECURITY_CLASSIFICATION_LEVEL ( 'unclassified' ) ;
#132 = CARTESIAN_POINT ( 'NONE',  ( -2.000000000000001776, 0.000000000000000000, 0.000000000000000000 ) ) ;
#133 = CC_DESIGN_SECURITY_CLASSIFICATION ( #255, ( #75 ) ) ;
#134 = PERSON_AND_ORGANIZATION_ROLE ( 'creator' ) ;
#135 = DIRECTION ( 'NONE',  ( 0.000000000000000000, 0.000000000000000000, 1.000000000000000000 ) ) ;
#136 = EDGE_CURVE ( 'NONE', #154, #341, #278, .T. ) ;
#137 = FACE_OUTER_BOUND ( 'NONE', #231, .T. ) ;
#138 = PERSON_AND_ORGANIZATION_ROLE ( 'design_supplier' ) ;
#139 = CARTESIAN_POINT ( 'NONE',  ( 0.000000000000000000, 0.000000000000000000, 0.000000000000000000 ) ) ;
#140 = LOCAL_TIME ( 8, 1, 12.00000000000000000, #9 ) ;
#141 = ADVANCED_FACE ( 'NONE', ( #223, #2 ), #302, .F. ) ;
#142 = VERTEX_POINT ( 'NONE', #171 ) ;
#143 = VECTOR ( 'NONE', #169, 1000.000000000000000 ) ;
#144 = PLANE ( 'NONE',  #196 ) ;
#145 = AXIS2_PLACEMENT_3D ( 'NONE', #190, #352, #165 ) ;
#146 = LINE ( 'NONE', #115, #148 ) ;
#147 = CARTESIAN_POINT ( 'NONE',  ( -3.000000000000000888, 12.45000000000002061, 0.000000000000000000 ) ) ;
#148 = VECTOR ( 'NONE', #301, 1000.000000000000000 ) ;
#149 = CARTESIAN_POINT ( 'NONE',  ( 8.000000000000007105, 1.340988245066354290E-15, -10.45000000000002238 ) ) ;
#150 = DIRECTION ( 'NONE',  ( 0.000000000000000000, 0.000000000000000000, 1.000000000000000000 ) ) ;
#151 = DIRECTION ( 'NONE',  ( -1.000000000000000000, -0.000000000000000000, -0.000000000000000000 ) ) ;
#152 = ADVANCED_FACE ( 'NONE', ( #87 ), #305, .T. ) ;
#153 =( NAMED_UNIT ( * ) PLANE_ANGLE_UNIT ( ) SI_UNIT ( $, .RADIAN. ) );
#154 = VERTEX_POINT ( 'NONE', #149 ) ;
#155 = DIRECTION ( 'NONE',  ( 1.000000000000000000, 0.000000000000000000, 0.000000000000000000 ) ) ;
#156 = ORIENTED_EDGE ( 'NONE', *, *, #108, .F. ) ;
#157 = EDGE_LOOP ( 'NONE', ( #39, #199, #237, #103 ) ) ;
#158 = DIRECTION ( 'NONE',  ( 0.000000000000000000, -1.224646799147353454E-16, 1.000000000000000000 ) ) ;
#159 = ORIENTED_EDGE ( 'NONE', *, *, #64, .T. ) ;
#160 = AXIS2_PLACEMENT_3D ( 'NONE', #58, #174, #200 ) ;
#161 = VERTEX_POINT ( 'NONE', #117 ) ;
#162 = AXIS2_PLACEMENT_3D ( 'NONE', #184, #284, #256 ) ;
#163 = PERSON_AND_ORGANIZATION_ROLE ( 'classification_officer' ) ;
#164 = CC_DESIGN_PERSON_AND_ORGANIZATION_ASSIGNMENT ( #187, #258, ( #129 ) ) ;
#165 = DIRECTION ( 'NONE',  ( -0.000000000000000000, 0.000000000000000000, 1.000000000000000000 ) ) ;
#166 = DIRECTION ( 'NONE',  ( 0.000000000000000000, 0.000000000000000000, 1.000000000000000000 ) ) ;
#167 = DIRECTION ( 'NONE',  ( 0.000000000000000000, 0.000000000000000000, 1.000000000000000000 ) ) ;
#168 = APPROVAL ( #194, 'UNSPECIFIED' ) ;
#169 = DIRECTION ( 'NONE',  ( -0.7071067811865487940, 0.000000000000000000, 0.7071067811865463515 ) ) ;
#170 = ORIENTED_EDGE ( 'NONE', *, *, #53, .F. ) ;
#171 = CARTESIAN_POINT ( 'NONE',  ( 0.000000000000000000, 1.647149944853192555E-15, -13.45000000000001883 ) ) ;
#172 = DIRECTION ( 'NONE',  ( -0.000000000000000000, 0.000000000000000000, 1.000000000000000000 ) ) ;
#173 = PRODUCT_DEFINITION ( 'UNKNOWN', '', #75, #65 ) ;
#174 = DIRECTION ( 'NONE',  ( -1.000000000000000000, -0.000000000000000000, -0.000000000000000000 ) ) ;
#175 = AXIS2_PLACEMENT_3D ( 'NONE', #313, #69, #155 ) ;
#176 = AXIS2_PLACEMENT_3D ( 'NONE', #89, #304, #28 ) ;
#177 = DIRECTION ( 'NONE',  ( -1.000000000000000000, -0.000000000000000000, -0.000000000000000000 ) ) ;
#178 = EDGE_CURVE ( 'NONE', #259, #211, #146, .T. ) ;
#179 = AXIS2_PLACEMENT_3D ( 'NONE', #71, #236, #287 ) ;
#180 = FACE_OUTER_BOUND ( 'NONE', #267, .T. ) ;
#181 = COORDINATED_UNIVERSAL_TIME_OFFSET ( 1, 0, .AHEAD. ) ;
#182 = ORIENTED_EDGE ( 'NONE', *, *, #294, .F. ) ;
#183 = LOCAL_TIME ( 8, 1, 12.00000000000000000, #76 ) ;
#184 = CARTESIAN_POINT ( 'NONE',  ( -2.000000000000001776, 0.000000000000000000, 0.000000000000000000 ) ) ;
#185 = CARTESIAN_POINT ( 'NONE',  ( -154.8395502972293230, 1.402220585023721864E-15, -11.45000000000001883 ) ) ;
#186 = EDGE_LOOP ( 'NONE', ( #93, #74 ) ) ;
#187 = PERSON_AND_ORGANIZATION ( #191, #216 ) ;
#188 = EDGE_LOOP ( 'NONE', ( #245, #285, #354, #338 ) ) ;
#189 = EDGE_CURVE ( 'NONE', #142, #68, #251, .T. ) ;
#190 = CARTESIAN_POINT ( 'NONE',  ( 8.000000000000000000, 2.493664996716660198E-15, 0.000000000000000000 ) ) ;
#191 = PERSON ( 'UNSPECIFIED', 'UNSPECIFIED', 'UNSPECIFIED', ('UNSPECIFIED'), ('UNSPECIFIED'), ('UNSPECIFIED') ) ;
#192 = AXIS2_PLACEMENT_3D ( 'NONE', #193, #213, #295 ) ;
#193 = CARTESIAN_POINT ( 'NONE',  ( 0.000000000000000000, 0.000000000000000000, 0.000000000000000000 ) ) ;
#194 = APPROVAL_STATUS ( 'not_yet_approved' ) ;
#195 = CARTESIAN_POINT ( 'NONE',  ( -2.000000000000001776, 0.000000000000000000, 12.45000000000002061 ) ) ;
#196 = AXIS2_PLACEMENT_3D ( 'NONE', #147, #250, #6 ) ;
#197 = APPROVAL_DATE_TIME ( #353, #168 ) ;
#198 = DIRECTION ( 'NONE',  ( -1.000000000000000000, -0.000000000000000000, -0.000000000000000000 ) ) ;
#199 = ORIENTED_EDGE ( 'NONE', *, *, #351, .T. ) ;
#200 = DIRECTION ( 'NONE',  ( 0.000000000000000000, 0.000000000000000000, 1.000000000000000000 ) ) ;
#201 = ADVANCED_FACE ( 'NONE', ( #180 ), #144, .F. ) ;
#202 = CARTESIAN_POINT ( 'NONE',  ( -3.000000000000002665, 1.585917604895824981E-15, -12.45000000000002061 ) ) ;
#203 = DIRECTION ( 'NONE',  ( -1.000000000000000000, -0.000000000000000000, -0.000000000000000000 ) ) ;
#204 = CARTESIAN_POINT ( 'NONE',  ( -154.8395502972293230, 0.000000000000000000, 0.000000000000000000 ) ) ;
#205 = AXIS2_PLACEMENT_3D ( 'NONE', #283, #36, #158 ) ;
#206 = APPROVAL_STATUS ( 'not_yet_approved' ) ;
#207 = VERTEX_POINT ( 'NONE', #227 ) ;
#208 = ADVANCED_FACE ( 'NONE', ( #246 ), #333, .T. ) ;
#209 = ORIENTED_EDGE ( 'NONE', *, *, #120, .T. ) ;
#210 = CARTESIAN_POINT ( 'NONE',  ( 8.000000000000007105, 0.000000000000000000, 10.45000000000002238 ) ) ;
#211 = VERTEX_POINT ( 'NONE', #306 ) ;
#212 = ORIENTED_EDGE ( 'NONE', *, *, #247, .F. ) ;
#213 = DIRECTION ( 'NONE',  ( -1.000000000000000000, -0.000000000000000000, -0.000000000000000000 ) ) ;
#214 = CARTESIAN_POINT ( 'NONE',  ( 0.000000000000000000, 0.000000000000000000, 0.000000000000000000 ) ) ;
#215 = LINE ( 'NONE', #323, #48 ) ;
#216 = ORGANIZATION ( 'UNSPECIFIED', 'UNSPECIFIED', '' ) ;
#217 = ADVANCED_FACE ( 'NONE', ( #229 ), #327, .T. ) ;
#218 = PLANE ( 'NONE',  #145 ) ;
#219 = CIRCLE ( 'NONE', #160, 13.45000000000001883 ) ;
#220 = DIRECTION ( 'NONE',  ( -1.000000000000000000, -0.000000000000000000, -0.000000000000000000 ) ) ;
#221 = CIRCLE ( 'NONE', #47, 10.45000000000002238 ) ;
#222 = AXIS2_PLACEMENT_3D ( 'NONE', #50, #240, #105 ) ;
#223 = FACE_OUTER_BOUND ( 'NONE', #72, .T. ) ;
#224 = CC_DESIGN_DATE_AND_TIME_ASSIGNMENT ( #289, #325, ( #255 ) ) ;
#225 = DIRECTION ( 'NONE',  ( -1.000000000000000000, -0.000000000000000000, -0.000000000000000000 ) ) ;
#226 = CARTESIAN_POINT ( 'NONE',  ( 7.000000000000006217, 0.000000000000000000, 0.000000000000000000 ) ) ;
#227 = CARTESIAN_POINT ( 'NONE',  ( -3.000000000000002665, 0.000000000000000000, 12.45000000000002061 ) ) ;
#228 = CC_DESIGN_PERSON_AND_ORGANIZATION_ASSIGNMENT ( #266, #163, ( #255 ) ) ;
#229 = FACE_OUTER_BOUND ( 'NONE', #54, .T. ) ;
#230 = APPLICATION_PROTOCOL_DEFINITION ( 'international standard', 'config_control_design', 1994, #276 ) ;
#231 = EDGE_LOOP ( 'NONE', ( #66, #317, #52, #344 ) ) ;
#232 =( NAMED_UNIT ( * ) SI_UNIT ( $, .STERADIAN. ) SOLID_ANGLE_UNIT ( ) );
#233 = ORIENTED_EDGE ( 'NONE', *, *, #99, .T. ) ;
#234 = EDGE_CURVE ( 'NONE', #121, #312, #79, .T. ) ;
#235 = LOCAL_TIME ( 8, 1, 12.00000000000000000, #15 ) ;
#236 = DIRECTION ( 'NONE',  ( -1.000000000000000000, -0.000000000000000000, -0.000000000000000000 ) ) ;
#237 = ORIENTED_EDGE ( 'NONE', *, *, #120, .F. ) ;
#238 = APPLICATION_PROTOCOL_DEFINITION ( 'international standard', 'config_control_design', 1994, #336 ) ;
#239 = EDGE_LOOP ( 'NONE', ( #128, #349, #20, #100 ) ) ;
#240 = DIRECTION ( 'NONE',  ( -1.000000000000000000, -0.000000000000000000, -0.000000000000000000 ) ) ;
#241 = CARTESIAN_POINT ( 'NONE',  ( -2.000000000000001776, 0.000000000000000000, 0.000000000000000000 ) ) ;
#242 = CARTESIAN_POINT ( 'NONE',  ( -154.8395502972293230, 0.000000000000000000, 0.000000000000000000 ) ) ;
#243 = CC_DESIGN_PERSON_AND_ORGANIZATION_ASSIGNMENT ( #322, #138, ( #75 ) ) ;
#244 = DIRECTION ( 'NONE',  ( 0.000000000000000000, -1.000000000000000000, 0.000000000000000000 ) ) ;
#245 = ORIENTED_EDGE ( 'NONE', *, *, #189, .F. ) ;
#246 = FACE_OUTER_BOUND ( 'NONE', #350, .T. ) ;
#247 = EDGE_CURVE ( 'NONE', #259, #142, #219, .T. ) ;
#248 = CIRCLE ( 'NONE', #280, 0.9999999999999991118 ) ;
#249 = CARTESIAN_POINT ( 'NONE',  ( 8.000000000000007105, 0.000000000000000000, 0.000000000000000000 ) ) ;
#250 = DIRECTION ( 'NONE',  ( 1.000000000000000000, 0.000000000000000000, 0.000000000000000000 ) ) ;
#251 = LINE ( 'NONE', #90, #345 ) ;
#252 = CIRCLE ( 'NONE', #297, 11.45000000000001883 ) ;
#253 = CARTESIAN_POINT ( 'NONE',  ( 0.000000000000000000, 0.000000000000000000, 13.45000000000001883 ) ) ;
#254 = PERSON_AND_ORGANIZATION_ROLE ( 'creator' ) ;
#255 = SECURITY_CLASSIFICATION ( '', '', #131 ) ;
#256 = DIRECTION ( 'NONE',  ( 0.000000000000000000, 0.000000000000000000, 1.000000000000000000 ) ) ;
#257 = ADVANCED_FACE ( 'NONE', ( #34 ), #279, .T. ) ;
#258 = PERSON_AND_ORGANIZATION_ROLE ( 'design_owner' ) ;
#259 = VERTEX_POINT ( 'NONE', #253 ) ;
#260 = LINE ( 'NONE', #185, #307 ) ;
#261 = ORIENTED_EDGE ( 'NONE', *, *, #70, .F. ) ;
#262 = SHAPE_DEFINITION_REPRESENTATION ( #18, #265 ) ;
#263 = ORIENTED_EDGE ( 'NONE', *, *, #294, .T. ) ;
#264 = AXIS2_PLACEMENT_3D ( 'NONE', #139, #51, #135 ) ;
#265 = ADVANCED_BREP_SHAPE_REPRESENTATION ( '3D_GR1382_DN26.9x2_18380320', ( #107, #175 ), #324 ) ;
#266 = PERSON_AND_ORGANIZATION ( #191, #216 ) ;
#267 = EDGE_LOOP ( 'NONE', ( #209, #13 ) ) ;
#268 = DIRECTION ( 'NONE',  ( 0.000000000000000000, 0.000000000000000000, -1.000000000000000000 ) ) ;
#269 = EDGE_CURVE ( 'NONE', #341, #154, #221, .T. ) ;
#270 = PERSON_AND_ORGANIZATION ( #191, #216 ) ;
#271 = DIRECTION ( 'NONE',  ( -1.000000000000000000, -0.000000000000000000, -0.000000000000000000 ) ) ;
#272 = CARTESIAN_POINT ( 'NONE',  ( -3.000000000000002665, 0.000000000000000000, 0.000000000000000000 ) ) ;
#273 = FACE_OUTER_BOUND ( 'NONE', #186, .T. ) ;
#274 = DIRECTION ( 'NONE',  ( -1.000000000000000000, 0.000000000000000000, -0.000000000000000000 ) ) ;
#275 = CIRCLE ( 'NONE', #264, 11.45000000000001883 ) ;
#276 = APPLICATION_CONTEXT ( 'configuration controlled 3d designs of mechanical parts and assemblies' ) ;
#277 = DIRECTION ( 'NONE',  ( -1.000000000000000000, -0.000000000000000000, -0.000000000000000000 ) ) ;
#278 = CIRCLE ( 'NONE', #44, 10.45000000000002238 ) ;
#279 = CYLINDRICAL_SURFACE ( 'NONE', #101, 13.45000000000001883 ) ;
#280 = AXIS2_PLACEMENT_3D ( 'NONE', #195, #244, #268 ) ;
#281 = DATE_AND_TIME ( #346, #26 ) ;
#282 = CC_DESIGN_PERSON_AND_ORGANIZATION_ASSIGNMENT ( #102, #254, ( #173 ) ) ;
#283 = CARTESIAN_POINT ( 'NONE',  ( -2.000000000000001776, 1.524685264938457209E-15, -12.45000000000002061 ) ) ;
#284 = DIRECTION ( 'NONE',  ( -1.000000000000000000, -0.000000000000000000, -0.000000000000000000 ) ) ;
#285 = ORIENTED_EDGE ( 'NONE', *, *, #53, .T. ) ;
#286 = CC_DESIGN_APPROVAL ( #95, ( #173 ) ) ;
#287 = DIRECTION ( 'NONE',  ( 0.000000000000000000, 0.000000000000000000, 1.000000000000000000 ) ) ;
#288 = ORIENTED_EDGE ( 'NONE', *, *, #99, .F. ) ;
#289 = DATE_AND_TIME ( #49, #183 ) ;
#290 = ORIENTED_EDGE ( 'NONE', *, *, #70, .T. ) ;
#291 = CALENDAR_DATE ( 2024, 23, 9 ) ;
#292 = VERTEX_POINT ( 'NONE', #202 ) ;
#293 = PERSON_AND_ORGANIZATION ( #191, #216 ) ;
#294 = EDGE_CURVE ( 'NONE', #312, #121, #252, .T. ) ;
#295 = DIRECTION ( 'NONE',  ( 0.000000000000000000, 0.000000000000000000, 1.000000000000000000 ) ) ;
#296 = DIRECTION ( 'NONE',  ( -1.000000000000000000, -0.000000000000000000, -0.000000000000000000 ) ) ;
#297 = AXIS2_PLACEMENT_3D ( 'NONE', #8, #57, #334 ) ;
#298 = LINE ( 'NONE', #318, #19 ) ;
#299 = EDGE_LOOP ( 'NONE', ( #42, #97, #233, #261 ) ) ;
#300 = DIRECTION ( 'NONE',  ( -1.000000000000000000, -0.000000000000000000, -0.000000000000000000 ) ) ;
#301 = DIRECTION ( 'NONE',  ( -1.000000000000000000, -0.000000000000000000, -0.000000000000000000 ) ) ;
#302 = PLANE ( 'NONE',  #335 ) ;
#303 = EDGE_CURVE ( 'NONE', #121, #27, #260, .T. ) ;
#304 = DIRECTION ( 'NONE',  ( -1.000000000000000000, -0.000000000000000000, -0.000000000000000000 ) ) ;
#305 = CONICAL_SURFACE ( 'NONE', #91, 10.45000000000002238, 0.7853981633974466137 ) ;
#306 = CARTESIAN_POINT ( 'NONE',  ( -2.000000000000001776, 0.000000000000000000, 13.45000000000001883 ) ) ;
#307 = VECTOR ( 'NONE', #151, 1000.000000000000000 ) ;
#308 = ADVANCED_FACE ( 'NONE', ( #63 ), #316, .T. ) ;
#309 = TOROIDAL_SURFACE ( 'NONE', #339, 12.45000000000002061, 0.9999999999999995559 ) ;
#310 = APPROVAL_ROLE ( '' ) ;
#311 = ORIENTED_EDGE ( 'NONE', *, *, #303, .T. ) ;
#312 = VERTEX_POINT ( 'NONE', #43 ) ;
#313 = CARTESIAN_POINT ( 'NONE',  ( 0.000000000000000000, 0.000000000000000000, 0.000000000000000000 ) ) ;
#314 = ORIENTED_EDGE ( 'NONE', *, *, #12, .F. ) ;
#315 = EDGE_CURVE ( 'NONE', #68, #211, #60, .T. ) ;
#316 = CYLINDRICAL_SURFACE ( 'NONE', #179, 11.45000000000001883 ) ;
#317 = ORIENTED_EDGE ( 'NONE', *, *, #315, .T. ) ;
#318 = CARTESIAN_POINT ( 'NONE',  ( 8.000000000000007105, 1.279755905108986716E-15, -10.45000000000002238 ) ) ;
#319 = COORDINATED_UNIVERSAL_TIME_OFFSET ( 1, 0, .AHEAD. ) ;
#320 = DIRECTION ( 'NONE',  ( -1.000000000000000000, -0.000000000000000000, -0.000000000000000000 ) ) ;
#321 = APPROVAL_PERSON_ORGANIZATION ( #67, #127, #310 ) ;
#322 = PERSON_AND_ORGANIZATION ( #191, #216 ) ;
#323 = CARTESIAN_POINT ( 'NONE',  ( -154.8395502972293230, 0.000000000000000000, 11.45000000000001883 ) ) ;
#324 =( GEOMETRIC_REPRESENTATION_CONTEXT ( 3 ) GLOBAL_UNCERTAINTY_ASSIGNED_CONTEXT ( ( #11 ) ) GLOBAL_UNIT_ASSIGNED_CONTEXT ( ( #38, #153, #232 ) ) REPRESENTATION_CONTEXT ( 'NONE', 'WORKASPACE' ) );
#325 = DATE_TIME_ROLE ( 'classification_date' ) ;
#326 = LINE ( 'NONE', #81, #143 ) ;
#327 = CONICAL_SURFACE ( 'NONE', #176, 10.45000000000002238, 0.7853981633974466137 ) ;
#328 = CLOSED_SHELL ( 'NONE', ( #5, #257, #208, #152, #25, #217, #308, #141, #85, #30, #201 ) ) ;
#329 = DIRECTION ( 'NONE',  ( 0.000000000000000000, 0.000000000000000000, 1.000000000000000000 ) ) ;
#330 = APPROVAL_PERSON_ORGANIZATION ( #293, #168, #23 ) ;
#331 = DIRECTION ( 'NONE',  ( -1.000000000000000000, -0.000000000000000000, -0.000000000000000000 ) ) ;
#332 = DIRECTION ( 'NONE',  ( -1.000000000000000000, -0.000000000000000000, -0.000000000000000000 ) ) ;
#333 = CYLINDRICAL_SURFACE ( 'NONE', #125, 11.45000000000001883 ) ;
#334 = DIRECTION ( 'NONE',  ( 0.000000000000000000, 0.000000000000000000, 1.000000000000000000 ) ) ;
#335 = AXIS2_PLACEMENT_3D ( 'NONE', #4, #274, #172 ) ;
#336 = APPLICATION_CONTEXT ( 'configuration controlled 3d designs of mechanical parts and assemblies' ) ;
#337 = DATE_TIME_ROLE ( 'creation_date' ) ;
#338 = ORIENTED_EDGE ( 'NONE', *, *, #315, .F. ) ;
#339 = AXIS2_PLACEMENT_3D ( 'NONE', #132, #198, #167 ) ;
#340 = CARTESIAN_POINT ( 'NONE',  ( -2.000000000000001776, 0.000000000000000000, 0.000000000000000000 ) ) ;
#341 = VERTEX_POINT ( 'NONE', #210 ) ;
#342 = APPROVAL_PERSON_ORGANIZATION ( #348, #95, #122 ) ;
#343 = DATE_AND_TIME ( #35, #235 ) ;
#344 = ORIENTED_EDGE ( 'NONE', *, *, #45, .F. ) ;
#345 = VECTOR ( 'NONE', #203, 1000.000000000000000 ) ;
#346 = CALENDAR_DATE ( 2024, 23, 9 ) ;
#347 = EDGE_CURVE ( 'NONE', #211, #68, #82, .T. ) ;
#348 = PERSON_AND_ORGANIZATION ( #191, #216 ) ;
#349 = ORIENTED_EDGE ( 'NONE', *, *, #189, .T. ) ;
#350 = EDGE_LOOP ( 'NONE', ( #263, #311, #124, #288 ) ) ;
#351 = EDGE_CURVE ( 'NONE', #68, #292, #1, .T. ) ;
#352 = DIRECTION ( 'NONE',  ( -1.000000000000000000, 0.000000000000000000, -0.000000000000000000 ) ) ;
#353 = DATE_AND_TIME ( #291, #62 ) ;
#354 = ORIENTED_EDGE ( 'NONE', *, *, #178, .T. ) ;
#355 = ORIENTED_EDGE ( 'NONE', *, *, #108, .T. ) ;
#356 = ORIENTED_EDGE ( 'NONE', *, *, #269, .T. ) ;
#357 = AXIS2_PLACEMENT_3D ( 'NONE', #272, #59, #329 ) ;
ENDSEC;
END-ISO-10303-21;
