ISO-10303-21;
HEADER;
FILE_DESCRIPTION (( 'STEP AP203' ),
    '1' );
FILE_NAME ('3D_GR1442_100 x 5_188741197.STEP',
    '2024-10-22T15:40:08',
    ( '' ),
    ( '' ),
    'SwSTEP 2.0',
    'SolidWorks 2023',
    '' );
FILE_SCHEMA (( 'CONFIG_CONTROL_DESIGN' ));
ENDSEC;

DATA;
#1 = CARTESIAN_POINT ( 'NONE',  ( 6.092617825758082298E-15, 4.750000000000000000, -49.75000000000000000 ) ) ;
#2 = PERSON_AND_ORGANIZATION_ROLE ( 'creator' ) ;
#3 = APPROVAL_DATE_TIME ( #262, #65 ) ;
#4 = EDGE_CURVE ( 'NONE', #167, #82, #172, .T. ) ;
#5 = ORIENTED_EDGE ( 'NONE', *, *, #128, .F. ) ;
#6 = CIRCLE ( 'NONE', #141, 49.75000000000000000 ) ;
#7 = CALENDAR_DATE ( 2024, 22, 10 ) ;
#8 = ORIENTED_EDGE ( 'NONE', *, *, #113, .T. ) ;
#9 = ORIENTED_EDGE ( 'NONE', *, *, #132, .F. ) ;
#10 = CC_DESIGN_PERSON_AND_ORGANIZATION_ASSIGNMENT ( #98, #100, ( #47 ) ) ;
#11 = ORIENTED_EDGE ( 'NONE', *, *, #113, .F. ) ;
#12 = AXIS2_PLACEMENT_3D ( 'NONE', #251, #193, #59 ) ;
#13 = ORIENTED_EDGE ( 'NONE', *, *, #168, .F. ) ;
#14 = DIRECTION ( 'NONE',  ( 0.000000000000000000, 0.000000000000000000, 1.000000000000000000 ) ) ;
#15 = CC_DESIGN_DATE_AND_TIME_ASSIGNMENT ( #249, #31, ( #181 ) ) ;
#16 = FACE_OUTER_BOUND ( 'NONE', #126, .T. ) ;
#17 = DIRECTION ( 'NONE',  ( 0.000000000000000000, 1.000000000000000000, 0.000000000000000000 ) ) ;
#18 = DIRECTION ( 'NONE',  ( 0.000000000000000000, 0.000000000000000000, 1.000000000000000000 ) ) ;
#19 = ADVANCED_FACE ( 'NONE', ( #85 ), #267, .T. ) ;
#20 = CARTESIAN_POINT ( 'NONE',  ( 0.000000000000000000, 0.2500000000000002220, 0.000000000000000000 ) ) ;
#21 = CIRCLE ( 'NONE', #219, 49.75000000000000000 ) ;
#22 = APPROVAL_DATE_TIME ( #120, #263 ) ;
#23 = DIRECTION ( 'NONE',  ( 0.000000000000000000, -0.000000000000000000, 1.000000000000000000 ) ) ;
#24 = ADVANCED_FACE ( 'NONE', ( #170 ), #116, .T. ) ;
#25 = AXIS2_PLACEMENT_3D ( 'NONE', #241, #245, #74 ) ;
#26 = APPROVAL_ROLE ( '' ) ;
#27 = CIRCLE ( 'NONE', #146, 0.2500000000000002220 ) ;
#28 = VERTEX_POINT ( 'NONE', #36 ) ;
#29 = ORIENTED_EDGE ( 'NONE', *, *, #90, .T. ) ;
#30 = AXIS2_PLACEMENT_3D ( 'NONE', #235, #254, #195 ) ;
#31 = DATE_TIME_ROLE ( 'classification_date' ) ;
#32 = ADVANCED_FACE ( 'NONE', ( #163 ), #247, .T. ) ;
#33 = VERTEX_POINT ( 'NONE', #41 ) ;
#34 = APPROVAL_DATE_TIME ( #56, #108 ) ;
#35 = ORIENTED_EDGE ( 'NONE', *, *, #39, .T. ) ;
#36 = CARTESIAN_POINT ( 'NONE',  ( 0.000000000000000000, 0.2500000000000002220, -50.00000000000000000 ) ) ;
#37 = CIRCLE ( 'NONE', #72, 50.00000000000000000 ) ;
#38 = FACE_OUTER_BOUND ( 'NONE', #144, .T. ) ;
#39 = EDGE_CURVE ( 'NONE', #79, #211, #278, .T. ) ;
#40 = CARTESIAN_POINT ( 'NONE',  ( 0.000000000000000000, 5.000000000000000000, 0.000000000000000000 ) ) ;
#41 = CARTESIAN_POINT ( 'NONE',  ( 6.123233995736766085E-15, 0.2500000000000002220, 50.00000000000000000 ) ) ;
#42 = PERSON ( 'UNSPECIFIED', 'UNSPECIFIED', 'UNSPECIFIED', ('UNSPECIFIED'), ('UNSPECIFIED'), ('UNSPECIFIED') ) ;
#43 = DIRECTION ( 'NONE',  ( -0.000000000000000000, -1.000000000000000000, -0.000000000000000000 ) ) ;
#44 = EDGE_CURVE ( 'NONE', #28, #33, #159, .T. ) ;
#45 = DIRECTION ( 'NONE',  ( 0.000000000000000000, 1.000000000000000000, 0.000000000000000000 ) ) ;
#46 = MECHANICAL_CONTEXT ( 'NONE', #166, 'mechanical' ) ;
#47 = PRODUCT_DEFINITION_FORMATION_WITH_SPECIFIED_SOURCE ( 'ANY', '', #84, .NOT_KNOWN. ) ;
#48 = ADVANCED_FACE ( 'NONE', ( #38 ), #214, .T. ) ;
#49 = COORDINATED_UNIVERSAL_TIME_OFFSET ( 1, 0, .AHEAD. ) ;
#50 = APPLICATION_PROTOCOL_DEFINITION ( 'international standard', 'config_control_design', 1994, #166 ) ;
#51 = AXIS2_PLACEMENT_3D ( 'NONE', #129, #213, #77 ) ;
#52 = COORDINATED_UNIVERSAL_TIME_OFFSET ( 1, 0, .AHEAD. ) ;
#53 = MANIFOLD_SOLID_BREP ( 'Verrundung1', #177 ) ;
#54 = ORIENTED_EDGE ( 'NONE', *, *, #168, .T. ) ;
#55 = ORIENTED_EDGE ( 'NONE', *, *, #143, .F. ) ;
#56 = DATE_AND_TIME ( #207, #160 ) ;
#57 = DIRECTION ( 'NONE',  ( -0.000000000000000000, -1.000000000000000000, -0.000000000000000000 ) ) ;
#58 = LOCAL_TIME ( 17, 40, 8.000000000000000000, #49 ) ;
#59 = DIRECTION ( 'NONE',  ( 0.000000000000000000, -0.000000000000000000, 1.000000000000000000 ) ) ;
#60 = ORIENTED_EDGE ( 'NONE', *, *, #44, .T. ) ;
#61 = LINE ( 'NONE', #173, #196 ) ;
#62 = AXIS2_PLACEMENT_3D ( 'NONE', #110, #157, #216 ) ;
#63 = DIRECTION ( 'NONE',  ( 0.000000000000000000, 0.000000000000000000, 1.000000000000000000 ) ) ;
#64 = CARTESIAN_POINT ( 'NONE',  ( 0.000000000000000000, 5.000000000000000000, 49.75000000000000000 ) ) ;
#65 = APPROVAL ( #206, 'UNSPECIFIED' ) ;
#66 = CYLINDRICAL_SURFACE ( 'NONE', #125, 50.00000000000000000 ) ;
#67 = LOCAL_TIME ( 17, 40, 8.000000000000000000, #180 ) ;
#68 = DESIGN_CONTEXT ( 'detailed design', #150, 'design' ) ;
#69 = LOCAL_TIME ( 17, 40, 8.000000000000000000, #246 ) ;
#70 = DIRECTION ( 'NONE',  ( 1.000000000000000000, -0.000000000000000000, 1.224646799147353207E-16 ) ) ;
#71 =( NAMED_UNIT ( * ) SI_UNIT ( $, .STERADIAN. ) SOLID_ANGLE_UNIT ( ) );
#72 = AXIS2_PLACEMENT_3D ( 'NONE', #218, #43, #257 ) ;
#73 = PERSON_AND_ORGANIZATION ( #42, #134 ) ;
#74 = DIRECTION ( 'NONE',  ( 1.000000000000000000, 0.000000000000000000, 0.000000000000000000 ) ) ;
#75 = CC_DESIGN_PERSON_AND_ORGANIZATION_ASSIGNMENT ( #223, #201, ( #84 ) ) ;
#76 = DIRECTION ( 'NONE',  ( 1.224646799147349509E-16, 0.000000000000000000, -1.000000000000000000 ) ) ;
#77 = DIRECTION ( 'NONE',  ( 0.000000000000000000, 0.000000000000000000, 1.000000000000000000 ) ) ;
#78 = EDGE_LOOP ( 'NONE', ( #13, #105, #29, #188 ) ) ;
#79 = VERTEX_POINT ( 'NONE', #260 ) ;
#80 = PRODUCT_DEFINITION ( 'UNKNOWN', '', #47, #68 ) ;
#81 = PERSON_AND_ORGANIZATION ( #42, #134 ) ;
#82 = VERTEX_POINT ( 'NONE', #234 ) ;
#83 = COORDINATED_UNIVERSAL_TIME_OFFSET ( 1, 0, .AHEAD. ) ;
#84 = PRODUCT ( '3D_GR1442_100 x 5_188741197', '3D_GR1442_100 x 5_188741197', '', ( #46 ) ) ;
#85 = FACE_OUTER_BOUND ( 'NONE', #123, .T. ) ;
#86 = CARTESIAN_POINT ( 'NONE',  ( 6.123233995736766085E-15, 4.750000000000000000, 50.00000000000000000 ) ) ;
#87 = DIRECTION ( 'NONE',  ( 0.000000000000000000, 1.000000000000000000, 0.000000000000000000 ) ) ;
#88 = CIRCLE ( 'NONE', #30, 0.2500000000000002220 ) ;
#89 = AXIS2_PLACEMENT_3D ( 'NONE', #152, #161, #279 ) ;
#90 = EDGE_CURVE ( 'NONE', #167, #33, #88, .T. ) ;
#91 = CARTESIAN_POINT ( 'NONE',  ( 0.000000000000000000, 5.000000000000000000, 0.000000000000000000 ) ) ;
#92 = DIRECTION ( 'NONE',  ( -0.000000000000000000, -1.000000000000000000, -0.000000000000000000 ) ) ;
#93 = AXIS2_PLACEMENT_3D ( 'NONE', #230, #57, #145 ) ;
#94 = PLANE ( 'NONE',  #156 ) ;
#95 = FACE_OUTER_BOUND ( 'NONE', #127, .T. ) ;
#96 = CC_DESIGN_PERSON_AND_ORGANIZATION_ASSIGNMENT ( #184, #264, ( #181 ) ) ;
#97 = APPROVAL_ROLE ( '' ) ;
#98 = PERSON_AND_ORGANIZATION ( #42, #134 ) ;
#99 = EDGE_CURVE ( 'NONE', #79, #28, #61, .T. ) ;
#100 = PERSON_AND_ORGANIZATION_ROLE ( 'design_supplier' ) ;
#101 = VECTOR ( 'NONE', #92, 1000.000000000000000 ) ;
#102 = APPROVAL_PERSON_ORGANIZATION ( #81, #108, #103 ) ;
#103 = APPROVAL_ROLE ( '' ) ;
#104 = EDGE_CURVE ( 'NONE', #211, #253, #148, .T. ) ;
#105 = ORIENTED_EDGE ( 'NONE', *, *, #4, .F. ) ;
#106 = ORIENTED_EDGE ( 'NONE', *, *, #240, .F. ) ;
#107 = ORIENTED_EDGE ( 'NONE', *, *, #128, .T. ) ;
#108 = APPROVAL ( #265, 'UNSPECIFIED' ) ;
#109 = ORIENTED_EDGE ( 'NONE', *, *, #268, .T. ) ;
#110 = CARTESIAN_POINT ( 'NONE',  ( 0.000000000000000000, 0.2500000000000002220, 0.000000000000000000 ) ) ;
#111 = DIRECTION ( 'NONE',  ( 0.000000000000000000, 1.000000000000000000, 0.000000000000000000 ) ) ;
#112 = LOCAL_TIME ( 17, 40, 8.000000000000000000, #52 ) ;
#113 = EDGE_CURVE ( 'NONE', #211, #79, #37, .T. ) ;
#114 = CARTESIAN_POINT ( 'NONE',  ( 0.000000000000000000, 4.750000000000000000, 49.75000000000000000 ) ) ;
#115 = DIRECTION ( 'NONE',  ( -0.000000000000000000, -1.000000000000000000, -0.000000000000000000 ) ) ;
#116 = TOROIDAL_SURFACE ( 'NONE', #51, 49.75000000000000000, 0.2500000000000000000 ) ;
#117 = EDGE_CURVE ( 'NONE', #33, #28, #202, .T. ) ;
#118 =( NAMED_UNIT ( * ) PLANE_ANGLE_UNIT ( ) SI_UNIT ( $, .RADIAN. ) );
#119 = CALENDAR_DATE ( 2024, 22, 10 ) ;
#120 = DATE_AND_TIME ( #139, #58 ) ;
#121 = CC_DESIGN_DATE_AND_TIME_ASSIGNMENT ( #158, #205, ( #80 ) ) ;
#122 = CARTESIAN_POINT ( 'NONE',  ( 0.000000000000000000, 0.000000000000000000, 0.000000000000000000 ) ) ;
#123 = EDGE_LOOP ( 'NONE', ( #270, #186 ) ) ;
#124 = ORIENTED_EDGE ( 'NONE', *, *, #132, .T. ) ;
#125 = AXIS2_PLACEMENT_3D ( 'NONE', #136, #115, #174 ) ;
#126 = EDGE_LOOP ( 'NONE', ( #9, #8, #248, #60 ) ) ;
#127 = EDGE_LOOP ( 'NONE', ( #169, #107 ) ) ;
#128 = EDGE_CURVE ( 'NONE', #82, #167, #21, .T. ) ;
#129 = CARTESIAN_POINT ( 'NONE',  ( 0.000000000000000000, 0.2500000000000002220, 0.000000000000000000 ) ) ;
#130 = DIRECTION ( 'NONE',  ( -1.000000000000000000, 0.000000000000000000, 0.000000000000000000 ) ) ;
#131 = CARTESIAN_POINT ( 'NONE',  ( 6.092617825758082298E-15, 0.2500000000000002220, -49.75000000000000000 ) ) ;
#132 = EDGE_CURVE ( 'NONE', #211, #33, #135, .T. ) ;
#133 = DIRECTION ( 'NONE',  ( 0.000000000000000000, 0.000000000000000000, 1.000000000000000000 ) ) ;
#134 = ORGANIZATION ( 'UNSPECIFIED', 'UNSPECIFIED', '' ) ;
#135 = LINE ( 'NONE', #277, #101 ) ;
#136 = CARTESIAN_POINT ( 'NONE',  ( 0.000000000000000000, 5.000000000000000000, 0.000000000000000000 ) ) ;
#137 =( LENGTH_UNIT ( ) NAMED_UNIT ( * ) SI_UNIT ( .MILLI., .METRE. ) );
#138 = AXIS2_PLACEMENT_3D ( 'NONE', #20, #272, #199 ) ;
#139 = CALENDAR_DATE ( 2024, 22, 10 ) ;
#140 = ADVANCED_FACE ( 'NONE', ( #175 ), #255, .T. ) ;
#141 = AXIS2_PLACEMENT_3D ( 'NONE', #91, #87, #258 ) ;
#142 = EDGE_LOOP ( 'NONE', ( #212, #11, #266, #55 ) ) ;
#143 = EDGE_CURVE ( 'NONE', #210, #253, #6, .T. ) ;
#144 = EDGE_LOOP ( 'NONE', ( #35, #124, #229, #187 ) ) ;
#145 = DIRECTION ( 'NONE',  ( 0.000000000000000000, 0.000000000000000000, 1.000000000000000000 ) ) ;
#146 = AXIS2_PLACEMENT_3D ( 'NONE', #1, #179, #76 ) ;
#147 = ADVANCED_BREP_SHAPE_REPRESENTATION ( '3D_GR1442_100 x 5_188741197', ( #53, #25 ), #191 ) ;
#148 = CIRCLE ( 'NONE', #162, 0.2500000000000002220 ) ;
#149 = DIRECTION ( 'NONE',  ( -0.000000000000000000, -1.000000000000000000, -0.000000000000000000 ) ) ;
#150 = APPLICATION_CONTEXT ( 'configuration controlled 3d designs of mechanical parts and assemblies' ) ;
#151 = DIRECTION ( 'NONE',  ( 0.000000000000000000, 0.000000000000000000, 1.000000000000000000 ) ) ;
#152 = CARTESIAN_POINT ( 'NONE',  ( 0.000000000000000000, 4.750000000000000000, 0.000000000000000000 ) ) ;
#153 = UNCERTAINTY_MEASURE_WITH_UNIT (LENGTH_MEASURE( 1.000000000000000082E-05 ), #137, 'distance_accuracy_value', 'NONE');
#154 = CARTESIAN_POINT ( 'NONE',  ( 6.107925910747424192E-15, 5.000000000000000000, -49.75000000000000000 ) ) ;
#155 = CIRCLE ( 'NONE', #237, 0.2500000000000002220 ) ;
#156 = AXIS2_PLACEMENT_3D ( 'NONE', #122, #203, #23 ) ;
#157 = DIRECTION ( 'NONE',  ( 0.000000000000000000, 1.000000000000000000, 0.000000000000000000 ) ) ;
#158 = DATE_AND_TIME ( #119, #69 ) ;
#159 = CIRCLE ( 'NONE', #259, 50.00000000000000000 ) ;
#160 = LOCAL_TIME ( 17, 40, 8.000000000000000000, #83 ) ;
#161 = DIRECTION ( 'NONE',  ( 0.000000000000000000, 1.000000000000000000, 0.000000000000000000 ) ) ;
#162 = AXIS2_PLACEMENT_3D ( 'NONE', #114, #130, #14 ) ;
#163 = FACE_OUTER_BOUND ( 'NONE', #142, .T. ) ;
#164 = SHAPE_DEFINITION_REPRESENTATION ( #192, #147 ) ;
#165 = ORIENTED_EDGE ( 'NONE', *, *, #90, .F. ) ;
#166 = APPLICATION_CONTEXT ( 'configuration controlled 3d designs of mechanical parts and assemblies' ) ;
#167 = VERTEX_POINT ( 'NONE', #256 ) ;
#168 = EDGE_CURVE ( 'NONE', #82, #28, #155, .T. ) ;
#169 = ORIENTED_EDGE ( 'NONE', *, *, #4, .T. ) ;
#170 = FACE_OUTER_BOUND ( 'NONE', #227, .T. ) ;
#171 = CARTESIAN_POINT ( 'NONE',  ( 0.000000000000000000, 0.2500000000000002220, 0.000000000000000000 ) ) ;
#172 = CIRCLE ( 'NONE', #93, 49.75000000000000000 ) ;
#173 = CARTESIAN_POINT ( 'NONE',  ( 0.000000000000000000, 5.000000000000000000, -50.00000000000000000 ) ) ;
#174 = DIRECTION ( 'NONE',  ( 0.000000000000000000, 0.000000000000000000, -1.000000000000000000 ) ) ;
#175 = FACE_OUTER_BOUND ( 'NONE', #78, .T. ) ;
#176 = CARTESIAN_POINT ( 'NONE',  ( 0.000000000000000000, 4.750000000000000000, 0.000000000000000000 ) ) ;
#177 = CLOSED_SHELL ( 'NONE', ( #252, #24, #48, #182, #19, #275, #140, #32 ) ) ;
#178 = CALENDAR_DATE ( 2024, 22, 10 ) ;
#179 = DIRECTION ( 'NONE',  ( 1.000000000000000000, -0.000000000000000000, 1.224646799147353207E-16 ) ) ;
#180 = COORDINATED_UNIVERSAL_TIME_OFFSET ( 1, 0, .AHEAD. ) ;
#181 = SECURITY_CLASSIFICATION ( '', '', #183 ) ;
#182 = ADVANCED_FACE ( 'NONE', ( #16 ), #66, .T. ) ;
#183 = SECURITY_CLASSIFICATION_LEVEL ( 'unclassified' ) ;
#184 = PERSON_AND_ORGANIZATION ( #42, #134 ) ;
#185 = CC_DESIGN_PERSON_AND_ORGANIZATION_ASSIGNMENT ( #261, #2, ( #47 ) ) ;
#186 = ORIENTED_EDGE ( 'NONE', *, *, #143, .T. ) ;
#187 = ORIENTED_EDGE ( 'NONE', *, *, #99, .F. ) ;
#188 = ORIENTED_EDGE ( 'NONE', *, *, #44, .F. ) ;
#189 = AXIS2_PLACEMENT_3D ( 'NONE', #233, #111, #197 ) ;
#190 = EDGE_LOOP ( 'NONE', ( #231, #109, #106, #250 ) ) ;
#191 =( GEOMETRIC_REPRESENTATION_CONTEXT ( 3 ) GLOBAL_UNCERTAINTY_ASSIGNED_CONTEXT ( ( #153 ) ) GLOBAL_UNIT_ASSIGNED_CONTEXT ( ( #137, #118, #71 ) ) REPRESENTATION_CONTEXT ( 'NONE', 'WORKASPACE' ) );
#192 = PRODUCT_DEFINITION_SHAPE ( 'NONE', 'NONE',  #80 ) ;
#193 = DIRECTION ( 'NONE',  ( 0.000000000000000000, 1.000000000000000000, 0.000000000000000000 ) ) ;
#194 = CC_DESIGN_PERSON_AND_ORGANIZATION_ASSIGNMENT ( #73, #221, ( #80 ) ) ;
#195 = DIRECTION ( 'NONE',  ( 0.000000000000000000, 0.000000000000000000, 1.000000000000000000 ) ) ;
#196 = VECTOR ( 'NONE', #271, 1000.000000000000000 ) ;
#197 = DIRECTION ( 'NONE',  ( 0.000000000000000000, 0.000000000000000000, 1.000000000000000000 ) ) ;
#198 = CC_DESIGN_SECURITY_CLASSIFICATION ( #181, ( #47 ) ) ;
#199 = DIRECTION ( 'NONE',  ( 0.000000000000000000, 0.000000000000000000, 1.000000000000000000 ) ) ;
#200 = CARTESIAN_POINT ( 'NONE',  ( 0.000000000000000000, 0.000000000000000000, 0.000000000000000000 ) ) ;
#201 = PERSON_AND_ORGANIZATION_ROLE ( 'design_owner' ) ;
#202 = CIRCLE ( 'NONE', #62, 50.00000000000000000 ) ;
#203 = DIRECTION ( 'NONE',  ( 0.000000000000000000, 1.000000000000000000, 0.000000000000000000 ) ) ;
#204 = PERSON_AND_ORGANIZATION ( #42, #134 ) ;
#205 = DATE_TIME_ROLE ( 'creation_date' ) ;
#206 = APPROVAL_STATUS ( 'not_yet_approved' ) ;
#207 = CALENDAR_DATE ( 2024, 22, 10 ) ;
#208 = AXIS2_PLACEMENT_3D ( 'NONE', #276, #217, #133 ) ;
#209 = TOROIDAL_SURFACE ( 'NONE', #89, 49.75000000000000000, 0.2500000000000000000 ) ;
#210 = VERTEX_POINT ( 'NONE', #154 ) ;
#211 = VERTEX_POINT ( 'NONE', #86 ) ;
#212 = ORIENTED_EDGE ( 'NONE', *, *, #268, .F. ) ;
#213 = DIRECTION ( 'NONE',  ( 0.000000000000000000, 1.000000000000000000, 0.000000000000000000 ) ) ;
#214 = CYLINDRICAL_SURFACE ( 'NONE', #232, 50.00000000000000000 ) ;
#215 = DIRECTION ( 'NONE',  ( -0.000000000000000000, -1.000000000000000000, -0.000000000000000000 ) ) ;
#216 = DIRECTION ( 'NONE',  ( 0.000000000000000000, 0.000000000000000000, 1.000000000000000000 ) ) ;
#217 = DIRECTION ( 'NONE',  ( -0.000000000000000000, -1.000000000000000000, -0.000000000000000000 ) ) ;
#218 = CARTESIAN_POINT ( 'NONE',  ( 0.000000000000000000, 4.750000000000000000, 0.000000000000000000 ) ) ;
#219 = AXIS2_PLACEMENT_3D ( 'NONE', #200, #215, #151 ) ;
#220 = APPROVAL_PERSON_ORGANIZATION ( #243, #263, #26 ) ;
#221 = PERSON_AND_ORGANIZATION_ROLE ( 'creator' ) ;
#222 = APPROVAL_STATUS ( 'not_yet_approved' ) ;
#223 = PERSON_AND_ORGANIZATION ( #42, #134 ) ;
#224 = CIRCLE ( 'NONE', #189, 49.75000000000000000 ) ;
#225 = CC_DESIGN_APPROVAL ( #65, ( #47 ) ) ;
#226 = ORIENTED_EDGE ( 'NONE', *, *, #117, .F. ) ;
#227 = EDGE_LOOP ( 'NONE', ( #5, #54, #226, #165 ) ) ;
#228 = CC_DESIGN_APPROVAL ( #263, ( #80 ) ) ;
#229 = ORIENTED_EDGE ( 'NONE', *, *, #117, .T. ) ;
#230 = CARTESIAN_POINT ( 'NONE',  ( 0.000000000000000000, 0.000000000000000000, 0.000000000000000000 ) ) ;
#231 = ORIENTED_EDGE ( 'NONE', *, *, #39, .F. ) ;
#232 = AXIS2_PLACEMENT_3D ( 'NONE', #40, #149, #236 ) ;
#233 = CARTESIAN_POINT ( 'NONE',  ( 0.000000000000000000, 5.000000000000000000, 0.000000000000000000 ) ) ;
#234 = CARTESIAN_POINT ( 'NONE',  ( 6.107925910747424192E-15, 0.000000000000000000, -49.75000000000000000 ) ) ;
#235 = CARTESIAN_POINT ( 'NONE',  ( 0.000000000000000000, 0.2500000000000002220, 49.75000000000000000 ) ) ;
#236 = DIRECTION ( 'NONE',  ( 0.000000000000000000, 0.000000000000000000, -1.000000000000000000 ) ) ;
#237 = AXIS2_PLACEMENT_3D ( 'NONE', #131, #70, #238 ) ;
#238 = DIRECTION ( 'NONE',  ( 1.224646799147349509E-16, 0.000000000000000000, -1.000000000000000000 ) ) ;
#239 = APPLICATION_PROTOCOL_DEFINITION ( 'international standard', 'config_control_design', 1994, #150 ) ;
#240 = EDGE_CURVE ( 'NONE', #253, #210, #224, .T. ) ;
#241 = CARTESIAN_POINT ( 'NONE',  ( 0.000000000000000000, 0.000000000000000000, 0.000000000000000000 ) ) ;
#242 = CC_DESIGN_APPROVAL ( #108, ( #181 ) ) ;
#243 = PERSON_AND_ORGANIZATION ( #42, #134 ) ;
#244 = PRODUCT_RELATED_PRODUCT_CATEGORY ( 'detail', '', ( #84 ) ) ;
#245 = DIRECTION ( 'NONE',  ( 0.000000000000000000, 0.000000000000000000, 1.000000000000000000 ) ) ;
#246 = COORDINATED_UNIVERSAL_TIME_OFFSET ( 1, 0, .AHEAD. ) ;
#247 = TOROIDAL_SURFACE ( 'NONE', #273, 49.75000000000000000, 0.2500000000000000000 ) ;
#248 = ORIENTED_EDGE ( 'NONE', *, *, #99, .T. ) ;
#249 = DATE_AND_TIME ( #7, #112 ) ;
#250 = ORIENTED_EDGE ( 'NONE', *, *, #104, .F. ) ;
#251 = CARTESIAN_POINT ( 'NONE',  ( 0.000000000000000000, 5.000000000000000000, 0.000000000000000000 ) ) ;
#252 = ADVANCED_FACE ( 'NONE', ( #274 ), #209, .T. ) ;
#253 = VERTEX_POINT ( 'NONE', #64 ) ;
#254 = DIRECTION ( 'NONE',  ( -1.000000000000000000, 0.000000000000000000, 0.000000000000000000 ) ) ;
#255 = TOROIDAL_SURFACE ( 'NONE', #138, 49.75000000000000000, 0.2500000000000000000 ) ;
#256 = CARTESIAN_POINT ( 'NONE',  ( 0.000000000000000000, 0.000000000000000000, 49.75000000000000000 ) ) ;
#257 = DIRECTION ( 'NONE',  ( 0.000000000000000000, 0.000000000000000000, 1.000000000000000000 ) ) ;
#258 = DIRECTION ( 'NONE',  ( 0.000000000000000000, 0.000000000000000000, 1.000000000000000000 ) ) ;
#259 = AXIS2_PLACEMENT_3D ( 'NONE', #171, #45, #63 ) ;
#260 = CARTESIAN_POINT ( 'NONE',  ( 0.000000000000000000, 4.750000000000000000, -50.00000000000000000 ) ) ;
#261 = PERSON_AND_ORGANIZATION ( #42, #134 ) ;
#262 = DATE_AND_TIME ( #178, #67 ) ;
#263 = APPROVAL ( #222, 'UNSPECIFIED' ) ;
#264 = PERSON_AND_ORGANIZATION_ROLE ( 'classification_officer' ) ;
#265 = APPROVAL_STATUS ( 'not_yet_approved' ) ;
#266 = ORIENTED_EDGE ( 'NONE', *, *, #104, .T. ) ;
#267 = PLANE ( 'NONE',  #12 ) ;
#268 = EDGE_CURVE ( 'NONE', #79, #210, #27, .T. ) ;
#269 = APPROVAL_PERSON_ORGANIZATION ( #204, #65, #97 ) ;
#270 = ORIENTED_EDGE ( 'NONE', *, *, #240, .T. ) ;
#271 = DIRECTION ( 'NONE',  ( -0.000000000000000000, -1.000000000000000000, -0.000000000000000000 ) ) ;
#272 = DIRECTION ( 'NONE',  ( 0.000000000000000000, 1.000000000000000000, 0.000000000000000000 ) ) ;
#273 = AXIS2_PLACEMENT_3D ( 'NONE', #176, #17, #18 ) ;
#274 = FACE_OUTER_BOUND ( 'NONE', #190, .T. ) ;
#275 = ADVANCED_FACE ( 'NONE', ( #95 ), #94, .F. ) ;
#276 = CARTESIAN_POINT ( 'NONE',  ( 0.000000000000000000, 4.750000000000000000, 0.000000000000000000 ) ) ;
#277 = CARTESIAN_POINT ( 'NONE',  ( 6.123233995736766085E-15, 5.000000000000000000, 50.00000000000000000 ) ) ;
#278 = CIRCLE ( 'NONE', #208, 50.00000000000000000 ) ;
#279 = DIRECTION ( 'NONE',  ( 0.000000000000000000, 0.000000000000000000, 1.000000000000000000 ) ) ;
ENDSEC;
END-ISO-10303-21;
