ISO-10303-21;
HEADER;
FILE_DESCRIPTION (( 'STEP AP203' ),
    '1' );
FILE_NAME ('3D_GR1442_42 x 4_188741165.STEP',
    '2024-10-22T15:33:01',
    ( '' ),
    ( '' ),
    'SwSTEP 2.0',
    'SolidWorks 2023',
    '' );
FILE_SCHEMA (( 'CONFIG_CONTROL_DESIGN' ));
ENDSEC;

DATA;
#1 = CIRCLE ( 'NONE', #150, 0.2500000000000002220 ) ;
#2 = ADVANCED_FACE ( 'NONE', ( #122 ), #266, .T. ) ;
#3 = EDGE_LOOP ( 'NONE', ( #54, #110 ) ) ;
#4 = EDGE_CURVE ( 'NONE', #137, #143, #112, .T. ) ;
#5 = CARTESIAN_POINT ( 'NONE',  ( 0.000000000000000000, 0.2500000000000002220, 0.000000000000000000 ) ) ;
#6 = DIRECTION ( 'NONE',  ( 0.000000000000000000, 0.000000000000000000, 1.000000000000000000 ) ) ;
#7 = DIRECTION ( 'NONE',  ( 0.000000000000000000, 1.000000000000000000, 0.000000000000000000 ) ) ;
#8 = EDGE_CURVE ( 'NONE', #163, #162, #161, .T. ) ;
#9 = CARTESIAN_POINT ( 'NONE',  ( 0.000000000000000000, 4.000000000000000000, 20.75000000000000000 ) ) ;
#10 = FACE_OUTER_BOUND ( 'NONE', #158, .T. ) ;
#11 = PERSON_AND_ORGANIZATION_ROLE ( 'creator' ) ;
#12 = SECURITY_CLASSIFICATION_LEVEL ( 'unclassified' ) ;
#13 = ORIENTED_EDGE ( 'NONE', *, *, #134, .T. ) ;
#14 = CARTESIAN_POINT ( 'NONE',  ( 0.000000000000000000, 3.750000000000000000, 0.000000000000000000 ) ) ;
#15 = AXIS2_PLACEMENT_3D ( 'NONE', #195, #38, #39 ) ;
#16 = CARTESIAN_POINT ( 'NONE',  ( 0.000000000000000000, 4.000000000000000000, 0.000000000000000000 ) ) ;
#17 = EDGE_CURVE ( 'NONE', #163, #254, #132, .T. ) ;
#18 = CIRCLE ( 'NONE', #245, 20.75000000000000000 ) ;
#19 = PRODUCT_DEFINITION_SHAPE ( 'NONE', 'NONE',  #62 ) ;
#20 = DIRECTION ( 'NONE',  ( 0.000000000000000000, 0.000000000000000000, 1.000000000000000000 ) ) ;
#21 = CARTESIAN_POINT ( 'NONE',  ( 0.000000000000000000, 3.750000000000000000, 0.000000000000000000 ) ) ;
#22 = CC_DESIGN_APPROVAL ( #87, ( #64 ) ) ;
#23 = DIRECTION ( 'NONE',  ( -0.000000000000000000, -1.000000000000000000, -0.000000000000000000 ) ) ;
#24 = CARTESIAN_POINT ( 'NONE',  ( 0.000000000000000000, 3.750000000000000000, -21.00000000000000000 ) ) ;
#25 = EDGE_CURVE ( 'NONE', #117, #137, #1, .T. ) ;
#26 = FACE_OUTER_BOUND ( 'NONE', #59, .T. ) ;
#27 = COORDINATED_UNIVERSAL_TIME_OFFSET ( 1, 0, .AHEAD. ) ;
#28 =( NAMED_UNIT ( * ) PLANE_ANGLE_UNIT ( ) SI_UNIT ( $, .RADIAN. ) );
#29 = CIRCLE ( 'NONE', #231, 21.00000000000000000 ) ;
#30 = APPROVAL_STATUS ( 'not_yet_approved' ) ;
#31 = DIRECTION ( 'NONE',  ( 0.000000000000000000, 0.000000000000000000, 1.000000000000000000 ) ) ;
#32 = DATE_TIME_ROLE ( 'classification_date' ) ;
#33 = ORIENTED_EDGE ( 'NONE', *, *, #175, .F. ) ;
#34 = EDGE_LOOP ( 'NONE', ( #235, #184, #226, #33 ) ) ;
#35 = LOCAL_TIME ( 17, 33, 1.000000000000000000, #92 ) ;
#36 = DIRECTION ( 'NONE',  ( 1.000000000000000000, -0.000000000000000000, 1.224646799147353207E-16 ) ) ;
#37 = ORIENTED_EDGE ( 'NONE', *, *, #123, .F. ) ;
#38 = DIRECTION ( 'NONE',  ( -0.000000000000000000, -1.000000000000000000, -0.000000000000000000 ) ) ;
#39 = DIRECTION ( 'NONE',  ( 0.000000000000000000, 0.000000000000000000, 1.000000000000000000 ) ) ;
#40 = AXIS2_PLACEMENT_3D ( 'NONE', #152, #7, #130 ) ;
#41 = APPROVAL_STATUS ( 'not_yet_approved' ) ;
#42 = APPROVAL ( #41, 'UNSPECIFIED' ) ;
#43 = DIRECTION ( 'NONE',  ( 0.000000000000000000, 1.000000000000000000, 0.000000000000000000 ) ) ;
#44 = DIRECTION ( 'NONE',  ( 0.000000000000000000, 1.000000000000000000, 0.000000000000000000 ) ) ;
#45 = DIRECTION ( 'NONE',  ( 0.000000000000000000, 0.000000000000000000, 1.000000000000000000 ) ) ;
#46 = CIRCLE ( 'NONE', #60, 0.2500000000000002220 ) ;
#47 = PERSON_AND_ORGANIZATION_ROLE ( 'creator' ) ;
#48 = ORIENTED_EDGE ( 'NONE', *, *, #212, .T. ) ;
#49 = PERSON_AND_ORGANIZATION_ROLE ( 'design_supplier' ) ;
#50 = ORIENTED_EDGE ( 'NONE', *, *, #274, .F. ) ;
#51 = AXIS2_PLACEMENT_3D ( 'NONE', #233, #36, #121 ) ;
#52 = APPROVAL_PERSON_ORGANIZATION ( #83, #42, #269 ) ;
#53 = CARTESIAN_POINT ( 'NONE',  ( 0.000000000000000000, 3.750000000000000000, 20.75000000000000000 ) ) ;
#54 = ORIENTED_EDGE ( 'NONE', *, *, #4, .T. ) ;
#55 = EDGE_CURVE ( 'NONE', #221, #143, #46, .T. ) ;
#56 =( GEOMETRIC_REPRESENTATION_CONTEXT ( 3 ) GLOBAL_UNCERTAINTY_ASSIGNED_CONTEXT ( ( #113 ) ) GLOBAL_UNIT_ASSIGNED_CONTEXT ( ( #236, #28, #248 ) ) REPRESENTATION_CONTEXT ( 'NONE', 'WORKASPACE' ) );
#57 = TOROIDAL_SURFACE ( 'NONE', #201, 20.75000000000000000, 0.2500000000000000000 ) ;
#58 = DIRECTION ( 'NONE',  ( 1.224646799147349509E-16, 0.000000000000000000, -1.000000000000000000 ) ) ;
#59 = EDGE_LOOP ( 'NONE', ( #206, #172, #96, #271 ) ) ;
#60 = AXIS2_PLACEMENT_3D ( 'NONE', #77, #230, #58 ) ;
#61 = DIRECTION ( 'NONE',  ( 0.000000000000000000, 0.000000000000000000, -1.000000000000000000 ) ) ;
#62 = PRODUCT_DEFINITION ( 'UNKNOWN', '', #64, #229 ) ;
#63 = DIRECTION ( 'NONE',  ( 0.000000000000000000, 1.000000000000000000, 0.000000000000000000 ) ) ;
#64 = PRODUCT_DEFINITION_FORMATION_WITH_SPECIFIED_SOURCE ( 'ANY', '', #186, .NOT_KNOWN. ) ;
#65 = CC_DESIGN_APPROVAL ( #42, ( #99 ) ) ;
#66 = DIRECTION ( 'NONE',  ( 0.000000000000000000, -0.000000000000000000, 1.000000000000000000 ) ) ;
#67 = ORIENTED_EDGE ( 'NONE', *, *, #274, .T. ) ;
#68 = LINE ( 'NONE', #86, #219 ) ;
#69 = APPLICATION_PROTOCOL_DEFINITION ( 'international standard', 'config_control_design', 1994, #174 ) ;
#70 = DIRECTION ( 'NONE',  ( 0.000000000000000000, 0.000000000000000000, 1.000000000000000000 ) ) ;
#71 = ORIENTED_EDGE ( 'NONE', *, *, #164, .T. ) ;
#72 = COORDINATED_UNIVERSAL_TIME_OFFSET ( 1, 0, .AHEAD. ) ;
#73 = DIRECTION ( 'NONE',  ( 0.000000000000000000, 1.000000000000000000, 0.000000000000000000 ) ) ;
#74 = AXIS2_PLACEMENT_3D ( 'NONE', #166, #115, #95 ) ;
#75 = DIRECTION ( 'NONE',  ( 0.000000000000000000, 0.000000000000000000, 1.000000000000000000 ) ) ;
#76 = EDGE_CURVE ( 'NONE', #254, #118, #120, .T. ) ;
#77 = CARTESIAN_POINT ( 'NONE',  ( 2.541142108230757874E-15, 3.750000000000000000, -20.75000000000000000 ) ) ;
#78 = AXIS2_PLACEMENT_3D ( 'NONE', #116, #70, #109 ) ;
#79 = PRODUCT_RELATED_PRODUCT_CATEGORY ( 'detail', '', ( #186 ) ) ;
#80 = EDGE_LOOP ( 'NONE', ( #279, #145, #268, #101 ) ) ;
#81 = DIRECTION ( 'NONE',  ( 0.000000000000000000, 1.000000000000000000, 0.000000000000000000 ) ) ;
#82 = AXIS2_PLACEMENT_3D ( 'NONE', #21, #129, #215 ) ;
#83 = PERSON_AND_ORGANIZATION ( #222, #239 ) ;
#84 = DIRECTION ( 'NONE',  ( 0.000000000000000000, 0.000000000000000000, -1.000000000000000000 ) ) ;
#85 = CARTESIAN_POINT ( 'NONE',  ( 0.000000000000000000, 4.000000000000000000, 0.000000000000000000 ) ) ;
#86 = CARTESIAN_POINT ( 'NONE',  ( 0.000000000000000000, 4.000000000000000000, -21.00000000000000000 ) ) ;
#87 = APPROVAL ( #30, 'UNSPECIFIED' ) ;
#88 = FACE_OUTER_BOUND ( 'NONE', #275, .T. ) ;
#89 = DATE_AND_TIME ( #135, #224 ) ;
#90 = PERSON_AND_ORGANIZATION ( #222, #239 ) ;
#91 = AXIS2_PLACEMENT_3D ( 'NONE', #141, #228, #140 ) ;
#92 = COORDINATED_UNIVERSAL_TIME_OFFSET ( 1, 0, .AHEAD. ) ;
#93 = CC_DESIGN_PERSON_AND_ORGANIZATION_ASSIGNMENT ( #198, #49, ( #64 ) ) ;
#94 = PERSON_AND_ORGANIZATION_ROLE ( 'classification_officer' ) ;
#95 = DIRECTION ( 'NONE',  ( 0.000000000000000000, 0.000000000000000000, 1.000000000000000000 ) ) ;
#96 = ORIENTED_EDGE ( 'NONE', *, *, #8, .T. ) ;
#97 = AXIS2_PLACEMENT_3D ( 'NONE', #170, #168, #194 ) ;
#98 = DIRECTION ( 'NONE',  ( -1.000000000000000000, 0.000000000000000000, 0.000000000000000000 ) ) ;
#99 = SECURITY_CLASSIFICATION ( '', '', #12 ) ;
#100 = CARTESIAN_POINT ( 'NONE',  ( 2.571758278209441661E-15, 3.750000000000000000, 21.00000000000000000 ) ) ;
#101 = ORIENTED_EDGE ( 'NONE', *, *, #25, .F. ) ;
#102 = ADVANCED_FACE ( 'NONE', ( #209 ), #207, .T. ) ;
#103 = CARTESIAN_POINT ( 'NONE',  ( 2.556450193220099768E-15, 4.000000000000000000, -20.75000000000000000 ) ) ;
#104 = APPROVAL_PERSON_ORGANIZATION ( #223, #87, #139 ) ;
#105 = CYLINDRICAL_SURFACE ( 'NONE', #119, 21.00000000000000000 ) ;
#106 = FACE_OUTER_BOUND ( 'NONE', #181, .T. ) ;
#107 = AXIS2_PLACEMENT_3D ( 'NONE', #267, #44, #66 ) ;
#108 = MECHANICAL_CONTEXT ( 'NONE', #174, 'mechanical' ) ;
#109 = DIRECTION ( 'NONE',  ( 1.000000000000000000, 0.000000000000000000, 0.000000000000000000 ) ) ;
#110 = ORIENTED_EDGE ( 'NONE', *, *, #175, .T. ) ;
#111 = CC_DESIGN_PERSON_AND_ORGANIZATION_ASSIGNMENT ( #272, #160, ( #186 ) ) ;
#112 = CIRCLE ( 'NONE', #127, 20.75000000000000000 ) ;
#113 = UNCERTAINTY_MEASURE_WITH_UNIT (LENGTH_MEASURE( 1.000000000000000082E-05 ), #236, 'distance_accuracy_value', 'NONE');
#114 = APPROVAL_ROLE ( '' ) ;
#115 = DIRECTION ( 'NONE',  ( -1.000000000000000000, 0.000000000000000000, 0.000000000000000000 ) ) ;
#116 = CARTESIAN_POINT ( 'NONE',  ( 0.000000000000000000, 0.000000000000000000, 0.000000000000000000 ) ) ;
#117 = VERTEX_POINT ( 'NONE', #100 ) ;
#118 = VERTEX_POINT ( 'NONE', #169 ) ;
#119 = AXIS2_PLACEMENT_3D ( 'NONE', #131, #23, #61 ) ;
#120 = CIRCLE ( 'NONE', #51, 0.2500000000000002220 ) ;
#121 = DIRECTION ( 'NONE',  ( 1.224646799147349509E-16, 0.000000000000000000, -1.000000000000000000 ) ) ;
#122 = FACE_OUTER_BOUND ( 'NONE', #80, .T. ) ;
#123 = EDGE_CURVE ( 'NONE', #254, #163, #190, .T. ) ;
#124 = DIRECTION ( 'NONE',  ( -0.000000000000000000, -1.000000000000000000, -0.000000000000000000 ) ) ;
#125 = APPROVAL_DATE_TIME ( #216, #42 ) ;
#126 = DIRECTION ( 'NONE',  ( -0.000000000000000000, -1.000000000000000000, -0.000000000000000000 ) ) ;
#127 = AXIS2_PLACEMENT_3D ( 'NONE', #16, #73, #31 ) ;
#128 = CC_DESIGN_PERSON_AND_ORGANIZATION_ASSIGNMENT ( #90, #94, ( #99 ) ) ;
#129 = DIRECTION ( 'NONE',  ( -0.000000000000000000, -1.000000000000000000, -0.000000000000000000 ) ) ;
#130 = DIRECTION ( 'NONE',  ( 0.000000000000000000, 0.000000000000000000, 1.000000000000000000 ) ) ;
#131 = CARTESIAN_POINT ( 'NONE',  ( 0.000000000000000000, 4.000000000000000000, 0.000000000000000000 ) ) ;
#132 = CIRCLE ( 'NONE', #91, 20.75000000000000000 ) ;
#133 = PERSON_AND_ORGANIZATION ( #222, #239 ) ;
#134 = EDGE_CURVE ( 'NONE', #117, #221, #257, .T. ) ;
#135 = CALENDAR_DATE ( 2024, 22, 10 ) ;
#136 = COORDINATED_UNIVERSAL_TIME_OFFSET ( 1, 0, .AHEAD. ) ;
#137 = VERTEX_POINT ( 'NONE', #9 ) ;
#138 = AXIS2_PLACEMENT_3D ( 'NONE', #85, #126, #84 ) ;
#139 = APPROVAL_ROLE ( '' ) ;
#140 = DIRECTION ( 'NONE',  ( 0.000000000000000000, 0.000000000000000000, 1.000000000000000000 ) ) ;
#141 = CARTESIAN_POINT ( 'NONE',  ( 0.000000000000000000, 0.000000000000000000, 0.000000000000000000 ) ) ;
#142 = TOROIDAL_SURFACE ( 'NONE', #97, 20.75000000000000000, 0.2500000000000000000 ) ;
#143 = VERTEX_POINT ( 'NONE', #103 ) ;
#144 = APPROVAL_PERSON_ORGANIZATION ( #133, #247, #114 ) ;
#145 = ORIENTED_EDGE ( 'NONE', *, *, #55, .T. ) ;
#146 = CC_DESIGN_PERSON_AND_ORGANIZATION_ASSIGNMENT ( #202, #47, ( #64 ) ) ;
#147 = CALENDAR_DATE ( 2024, 22, 10 ) ;
#148 = FACE_OUTER_BOUND ( 'NONE', #249, .T. ) ;
#149 = PLANE ( 'NONE',  #107 ) ;
#150 = AXIS2_PLACEMENT_3D ( 'NONE', #53, #98, #205 ) ;
#151 = LOCAL_TIME ( 17, 33, 1.000000000000000000, #27 ) ;
#152 = CARTESIAN_POINT ( 'NONE',  ( 0.000000000000000000, 0.2500000000000002220, 0.000000000000000000 ) ) ;
#153 = CARTESIAN_POINT ( 'NONE',  ( 0.000000000000000000, 0.000000000000000000, 0.000000000000000000 ) ) ;
#154 = ORIENTED_EDGE ( 'NONE', *, *, #76, .T. ) ;
#155 = DATE_AND_TIME ( #250, #35 ) ;
#156 = DATE_TIME_ROLE ( 'creation_date' ) ;
#157 = APPLICATION_CONTEXT ( 'configuration controlled 3d designs of mechanical parts and assemblies' ) ;
#158 = EDGE_LOOP ( 'NONE', ( #255, #13, #204, #277 ) ) ;
#159 = CC_DESIGN_DATE_AND_TIME_ASSIGNMENT ( #227, #32, ( #99 ) ) ;
#160 = PERSON_AND_ORGANIZATION_ROLE ( 'design_owner' ) ;
#161 = CIRCLE ( 'NONE', #74, 0.2500000000000002220 ) ;
#162 = VERTEX_POINT ( 'NONE', #211 ) ;
#163 = VERTEX_POINT ( 'NONE', #270 ) ;
#164 = EDGE_CURVE ( 'NONE', #221, #117, #178, .T. ) ;
#165 = VECTOR ( 'NONE', #237, 1000.000000000000000 ) ;
#166 = CARTESIAN_POINT ( 'NONE',  ( 0.000000000000000000, 0.2500000000000002220, 20.75000000000000000 ) ) ;
#167 = DIRECTION ( 'NONE',  ( 0.000000000000000000, 0.000000000000000000, 1.000000000000000000 ) ) ;
#168 = DIRECTION ( 'NONE',  ( 0.000000000000000000, 1.000000000000000000, 0.000000000000000000 ) ) ;
#169 = CARTESIAN_POINT ( 'NONE',  ( 0.000000000000000000, 0.2500000000000002220, -21.00000000000000000 ) ) ;
#170 = CARTESIAN_POINT ( 'NONE',  ( 0.000000000000000000, 0.2500000000000002220, 0.000000000000000000 ) ) ;
#171 = CIRCLE ( 'NONE', #40, 21.00000000000000000 ) ;
#172 = ORIENTED_EDGE ( 'NONE', *, *, #17, .F. ) ;
#173 = PLANE ( 'NONE',  #213 ) ;
#174 = APPLICATION_CONTEXT ( 'configuration controlled 3d designs of mechanical parts and assemblies' ) ;
#175 = EDGE_CURVE ( 'NONE', #143, #137, #18, .T. ) ;
#176 = COORDINATED_UNIVERSAL_TIME_OFFSET ( 1, 0, .AHEAD. ) ;
#177 = CALENDAR_DATE ( 2024, 22, 10 ) ;
#178 = CIRCLE ( 'NONE', #82, 21.00000000000000000 ) ;
#179 = PERSON_AND_ORGANIZATION ( #222, #239 ) ;
#180 = APPROVAL_DATE_TIME ( #155, #247 ) ;
#181 = EDGE_LOOP ( 'NONE', ( #71, #48, #67, #199 ) ) ;
#182 = DIRECTION ( 'NONE',  ( 0.000000000000000000, 1.000000000000000000, 0.000000000000000000 ) ) ;
#183 = AXIS2_PLACEMENT_3D ( 'NONE', #214, #124, #45 ) ;
#184 = ORIENTED_EDGE ( 'NONE', *, *, #134, .F. ) ;
#185 = ADVANCED_FACE ( 'NONE', ( #106 ), #189, .T. ) ;
#186 = PRODUCT ( '3D_GR1442_42 x 4_188741165', '3D_GR1442_42 x 4_188741165', '', ( #108 ) ) ;
#187 = CC_DESIGN_APPROVAL ( #247, ( #62 ) ) ;
#188 = DIRECTION ( 'NONE',  ( 0.000000000000000000, 1.000000000000000000, 0.000000000000000000 ) ) ;
#189 = CYLINDRICAL_SURFACE ( 'NONE', #138, 21.00000000000000000 ) ;
#190 = CIRCLE ( 'NONE', #183, 20.75000000000000000 ) ;
#191 = CARTESIAN_POINT ( 'NONE',  ( 0.000000000000000000, 4.000000000000000000, 0.000000000000000000 ) ) ;
#192 = FACE_OUTER_BOUND ( 'NONE', #3, .T. ) ;
#193 = CC_DESIGN_DATE_AND_TIME_ASSIGNMENT ( #89, #156, ( #62 ) ) ;
#194 = DIRECTION ( 'NONE',  ( 0.000000000000000000, 0.000000000000000000, 1.000000000000000000 ) ) ;
#195 = CARTESIAN_POINT ( 'NONE',  ( 0.000000000000000000, 3.750000000000000000, 0.000000000000000000 ) ) ;
#196 = AXIS2_PLACEMENT_3D ( 'NONE', #210, #188, #20 ) ;
#197 = EDGE_CURVE ( 'NONE', #221, #118, #68, .T. ) ;
#198 = PERSON_AND_ORGANIZATION ( #222, #239 ) ;
#199 = ORIENTED_EDGE ( 'NONE', *, *, #197, .F. ) ;
#200 = APPLICATION_PROTOCOL_DEFINITION ( 'international standard', 'config_control_design', 1994, #157 ) ;
#201 = AXIS2_PLACEMENT_3D ( 'NONE', #265, #63, #240 ) ;
#202 = PERSON_AND_ORGANIZATION ( #222, #239 ) ;
#203 = ADVANCED_FACE ( 'NONE', ( #10 ), #105, .T. ) ;
#204 = ORIENTED_EDGE ( 'NONE', *, *, #197, .T. ) ;
#205 = DIRECTION ( 'NONE',  ( 0.000000000000000000, 0.000000000000000000, 1.000000000000000000 ) ) ;
#206 = ORIENTED_EDGE ( 'NONE', *, *, #76, .F. ) ;
#207 = TOROIDAL_SURFACE ( 'NONE', #196, 20.75000000000000000, 0.2500000000000000000 ) ;
#208 = ADVANCED_FACE ( 'NONE', ( #148 ), #142, .T. ) ;
#209 = FACE_OUTER_BOUND ( 'NONE', #34, .T. ) ;
#210 = CARTESIAN_POINT ( 'NONE',  ( 0.000000000000000000, 3.750000000000000000, 0.000000000000000000 ) ) ;
#211 = CARTESIAN_POINT ( 'NONE',  ( 2.571758278209441661E-15, 0.2500000000000002220, 21.00000000000000000 ) ) ;
#212 = EDGE_CURVE ( 'NONE', #117, #162, #264, .T. ) ;
#213 = AXIS2_PLACEMENT_3D ( 'NONE', #153, #243, #218 ) ;
#214 = CARTESIAN_POINT ( 'NONE',  ( 0.000000000000000000, 0.000000000000000000, 0.000000000000000000 ) ) ;
#215 = DIRECTION ( 'NONE',  ( 0.000000000000000000, 0.000000000000000000, 1.000000000000000000 ) ) ;
#216 = DATE_AND_TIME ( #147, #151 ) ;
#217 = CARTESIAN_POINT ( 'NONE',  ( 2.556450193220099768E-15, 0.000000000000000000, -20.75000000000000000 ) ) ;
#218 = DIRECTION ( 'NONE',  ( 0.000000000000000000, -0.000000000000000000, 1.000000000000000000 ) ) ;
#219 = VECTOR ( 'NONE', #242, 1000.000000000000000 ) ;
#220 = APPROVAL_STATUS ( 'not_yet_approved' ) ;
#221 = VERTEX_POINT ( 'NONE', #24 ) ;
#222 = PERSON ( 'UNSPECIFIED', 'UNSPECIFIED', 'UNSPECIFIED', ('UNSPECIFIED'), ('UNSPECIFIED'), ('UNSPECIFIED') ) ;
#223 = PERSON_AND_ORGANIZATION ( #222, #239 ) ;
#224 = LOCAL_TIME ( 17, 33, 1.000000000000000000, #136 ) ;
#225 = CC_DESIGN_SECURITY_CLASSIFICATION ( #99, ( #64 ) ) ;
#226 = ORIENTED_EDGE ( 'NONE', *, *, #25, .T. ) ;
#227 = DATE_AND_TIME ( #177, #234 ) ;
#228 = DIRECTION ( 'NONE',  ( -0.000000000000000000, -1.000000000000000000, -0.000000000000000000 ) ) ;
#229 = DESIGN_CONTEXT ( 'detailed design', #157, 'design' ) ;
#230 = DIRECTION ( 'NONE',  ( 1.000000000000000000, -0.000000000000000000, 1.224646799147353207E-16 ) ) ;
#231 = AXIS2_PLACEMENT_3D ( 'NONE', #5, #81, #167 ) ;
#232 = ADVANCED_FACE ( 'NONE', ( #192 ), #149, .T. ) ;
#233 = CARTESIAN_POINT ( 'NONE',  ( 2.541142108230757874E-15, 0.2500000000000002220, -20.75000000000000000 ) ) ;
#234 = LOCAL_TIME ( 17, 33, 1.000000000000000000, #72 ) ;
#235 = ORIENTED_EDGE ( 'NONE', *, *, #55, .F. ) ;
#236 =( LENGTH_UNIT ( ) NAMED_UNIT ( * ) SI_UNIT ( .MILLI., .METRE. ) );
#237 = DIRECTION ( 'NONE',  ( -0.000000000000000000, -1.000000000000000000, -0.000000000000000000 ) ) ;
#238 = SHAPE_DEFINITION_REPRESENTATION ( #19, #258 ) ;
#239 = ORGANIZATION ( 'UNSPECIFIED', 'UNSPECIFIED', '' ) ;
#240 = DIRECTION ( 'NONE',  ( 0.000000000000000000, 0.000000000000000000, 1.000000000000000000 ) ) ;
#241 = CC_DESIGN_PERSON_AND_ORGANIZATION_ASSIGNMENT ( #179, #11, ( #62 ) ) ;
#242 = DIRECTION ( 'NONE',  ( -0.000000000000000000, -1.000000000000000000, -0.000000000000000000 ) ) ;
#243 = DIRECTION ( 'NONE',  ( 0.000000000000000000, 1.000000000000000000, 0.000000000000000000 ) ) ;
#244 = DATE_AND_TIME ( #276, #273 ) ;
#245 = AXIS2_PLACEMENT_3D ( 'NONE', #191, #43, #6 ) ;
#246 = APPROVAL_DATE_TIME ( #244, #87 ) ;
#247 = APPROVAL ( #220, 'UNSPECIFIED' ) ;
#248 =( NAMED_UNIT ( * ) SI_UNIT ( $, .STERADIAN. ) SOLID_ANGLE_UNIT ( ) );
#249 = EDGE_LOOP ( 'NONE', ( #37, #154, #50, #260 ) ) ;
#250 = CALENDAR_DATE ( 2024, 22, 10 ) ;
#251 = AXIS2_PLACEMENT_3D ( 'NONE', #14, #182, #75 ) ;
#252 = ORIENTED_EDGE ( 'NONE', *, *, #123, .T. ) ;
#253 = EDGE_CURVE ( 'NONE', #118, #162, #171, .T. ) ;
#254 = VERTEX_POINT ( 'NONE', #217 ) ;
#255 = ORIENTED_EDGE ( 'NONE', *, *, #212, .F. ) ;
#256 = MANIFOLD_SOLID_BREP ( 'Verrundung1', #261 ) ;
#257 = CIRCLE ( 'NONE', #15, 21.00000000000000000 ) ;
#258 = ADVANCED_BREP_SHAPE_REPRESENTATION ( '3D_GR1442_42 x 4_188741165', ( #256, #78 ), #56 ) ;
#259 = ADVANCED_FACE ( 'NONE', ( #26 ), #57, .T. ) ;
#260 = ORIENTED_EDGE ( 'NONE', *, *, #8, .F. ) ;
#261 = CLOSED_SHELL ( 'NONE', ( #2, #208, #185, #203, #232, #263, #259, #102 ) ) ;
#262 = CARTESIAN_POINT ( 'NONE',  ( 2.571758278209441661E-15, 4.000000000000000000, 21.00000000000000000 ) ) ;
#263 = ADVANCED_FACE ( 'NONE', ( #88 ), #173, .F. ) ;
#264 = LINE ( 'NONE', #262, #165 ) ;
#265 = CARTESIAN_POINT ( 'NONE',  ( 0.000000000000000000, 0.2500000000000002220, 0.000000000000000000 ) ) ;
#266 = TOROIDAL_SURFACE ( 'NONE', #251, 20.75000000000000000, 0.2500000000000000000 ) ;
#267 = CARTESIAN_POINT ( 'NONE',  ( 0.000000000000000000, 4.000000000000000000, 0.000000000000000000 ) ) ;
#268 = ORIENTED_EDGE ( 'NONE', *, *, #4, .F. ) ;
#269 = APPROVAL_ROLE ( '' ) ;
#270 = CARTESIAN_POINT ( 'NONE',  ( 0.000000000000000000, 0.000000000000000000, 20.75000000000000000 ) ) ;
#271 = ORIENTED_EDGE ( 'NONE', *, *, #253, .F. ) ;
#272 = PERSON_AND_ORGANIZATION ( #222, #239 ) ;
#273 = LOCAL_TIME ( 17, 33, 1.000000000000000000, #176 ) ;
#274 = EDGE_CURVE ( 'NONE', #162, #118, #29, .T. ) ;
#275 = EDGE_LOOP ( 'NONE', ( #278, #252 ) ) ;
#276 = CALENDAR_DATE ( 2024, 22, 10 ) ;
#277 = ORIENTED_EDGE ( 'NONE', *, *, #253, .T. ) ;
#278 = ORIENTED_EDGE ( 'NONE', *, *, #17, .T. ) ;
#279 = ORIENTED_EDGE ( 'NONE', *, *, #164, .F. ) ;
ENDSEC;
END-ISO-10303-21;
