ISO-10303-21;
HEADER;
FILE_DESCRIPTION (( 'STEP AP203' ),
    '1' );
FILE_NAME ('3D_M2060_32-15_174121040.STEP',
    '2024-09-05T10:16:13',
    ( '' ),
    ( '' ),
    'SwSTEP 2.0',
    'SolidWorks 2024',
    '' );
FILE_SCHEMA (( 'CONFIG_CONTROL_DESIGN' ));
ENDSEC;

DATA;
#1 = CIRCLE ( 'NONE', #239, 6.447582530373998644 ) ;
#2 = FACE_OUTER_BOUND ( 'NONE', #85, .T. ) ;
#3 = CC_DESIGN_DATE_AND_TIME_ASSIGNMENT ( #141, #139, ( #224 ) ) ;
#4 = VERTEX_POINT ( 'NONE', #155 ) ;
#5 = APPLICATION_PROTOCOL_DEFINITION ( 'international standard', 'config_control_design', 1994, #132 ) ;
#6 = CONICAL_SURFACE ( 'NONE', #247, 8.000000000000000000, 0.2606023917473409557 ) ;
#7 = APPROVAL_DATE_TIME ( #180, #23 ) ;
#8 = DIRECTION ( 'NONE',  ( 1.000000000000000000, 0.000000000000000000, 0.000000000000000000 ) ) ;
#9 = COORDINATED_UNIVERSAL_TIME_OFFSET ( 1, 0, .AHEAD. ) ;
#10 = APPROVAL_ROLE ( '' ) ;
#11 = CARTESIAN_POINT ( 'NONE',  ( 30.00000000000000000, 0.000000000000000000, 0.000000000000000000 ) ) ;
#12 = CALENDAR_DATE ( 2024, 5, 9 ) ;
#13 = EDGE_CURVE ( 'NONE', #187, #4, #1, .T. ) ;
#14 = PERSON_AND_ORGANIZATION ( #144, #123 ) ;
#15 = ORIENTED_EDGE ( 'NONE', *, *, #217, .T. ) ;
#16 = CIRCLE ( 'NONE', #207, 8.000000000000000000 ) ;
#17 = ORIENTED_EDGE ( 'NONE', *, *, #237, .T. ) ;
#18 = CC_DESIGN_APPROVAL ( #74, ( #109 ) ) ;
#19 = CONICAL_SURFACE ( 'NONE', #118, 6.550647590598130954, 0.2606023917473409557 ) ;
#20 = ADVANCED_FACE ( 'NONE', ( #173, #2 ), #234, .F. ) ;
#21 = ORIENTED_EDGE ( 'NONE', *, *, #190, .T. ) ;
#22 = CIRCLE ( 'NONE', #211, 14.44758253037399776 ) ;
#23 = APPROVAL ( #77, 'UNSPECIFIED' ) ;
#24 = DIRECTION ( 'NONE',  ( 0.000000000000000000, 0.000000000000000000, 1.000000000000000000 ) ) ;
#25 = DIRECTION ( 'NONE',  ( -0.9662349396012462899, 0.000000000000000000, 0.2576626505603323292 ) ) ;
#26 = LINE ( 'NONE', #178, #32 ) ;
#27 = DIRECTION ( 'NONE',  ( -1.000000000000000000, -0.000000000000000000, -0.000000000000000000 ) ) ;
#28 = COORDINATED_UNIVERSAL_TIME_OFFSET ( 1, 0, .AHEAD. ) ;
#29 = CALENDAR_DATE ( 2024, 5, 9 ) ;
#30 = DIRECTION ( 'NONE',  ( 0.000000000000000000, 0.000000000000000000, -1.000000000000000000 ) ) ;
#31 = APPROVAL_ROLE ( '' ) ;
#32 = VECTOR ( 'NONE', #76, 1000.000000000000000 ) ;
#33 = ORIENTED_EDGE ( 'NONE', *, *, #245, .T. ) ;
#34 = ORIENTED_EDGE ( 'NONE', *, *, #237, .F. ) ;
#35 = CIRCLE ( 'NONE', #167, 14.44758253037399776 ) ;
#36 = FACE_OUTER_BOUND ( 'NONE', #212, .T. ) ;
#37 = CARTESIAN_POINT ( 'NONE',  ( 0.000000000000000000, 0.000000000000000000, 0.000000000000000000 ) ) ;
#38 = PRODUCT ( '3D_M2060_32-15_174121040', '3D_M2060_32-15_174121040', '', ( #213 ) ) ;
#39 = DIRECTION ( 'NONE',  ( 1.000000000000000000, 0.000000000000000000, 0.000000000000000000 ) ) ;
#40 = VECTOR ( 'NONE', #65, 1000.000000000000000 ) ;
#41 = CARTESIAN_POINT ( 'NONE',  ( 30.00000000000000000, 0.000000000000000000, 8.000000000000000000 ) ) ;
#42 = PERSON_AND_ORGANIZATION_ROLE ( 'creator' ) ;
#43 = CC_DESIGN_PERSON_AND_ORGANIZATION_ASSIGNMENT ( #119, #201, ( #109 ) ) ;
#44 = CARTESIAN_POINT ( 'NONE',  ( 0.000000000000000000, 1.769318570123973421E-15, -14.44758253037399953 ) ) ;
#45 = CIRCLE ( 'NONE', #191, 8.000000000000000000 ) ;
#46 = CALENDAR_DATE ( 2024, 5, 9 ) ;
#47 = DIRECTION ( 'NONE',  ( -1.000000000000000000, -0.000000000000000000, -0.000000000000000000 ) ) ;
#48 = ORIENTED_EDGE ( 'NONE', *, *, #49, .T. ) ;
#49 = EDGE_CURVE ( 'NONE', #4, #111, #26, .T. ) ;
#50 = CARTESIAN_POINT ( 'NONE',  ( 30.00000000000000000, 4.898587196589412829E-16, -8.000000000000000000 ) ) ;
#51 = CC_DESIGN_SECURITY_CLASSIFICATION ( #224, ( #53 ) ) ;
#52 = CARTESIAN_POINT ( 'NONE',  ( 0.000000000000000000, 0.000000000000000000, 0.000000000000000000 ) ) ;
#53 = PRODUCT_DEFINITION_FORMATION_WITH_SPECIFIED_SOURCE ( 'ANY', '', #38, .NOT_KNOWN. ) ;
#54 = CARTESIAN_POINT ( 'NONE',  ( 30.00000000000000000, 0.000000000000000000, 0.000000000000000000 ) ) ;
#55 = DIRECTION ( 'NONE',  ( 1.000000000000000000, 0.000000000000000000, 0.000000000000000000 ) ) ;
#56 = CC_DESIGN_PERSON_AND_ORGANIZATION_ASSIGNMENT ( #163, #42, ( #53 ) ) ;
#57 = DIRECTION ( 'NONE',  ( -1.000000000000000000, -0.000000000000000000, -0.000000000000000000 ) ) ;
#58 = PERSON_AND_ORGANIZATION ( #144, #123 ) ;
#59 = VECTOR ( 'NONE', #25, 1000.000000000000000 ) ;
#60 = DATE_TIME_ROLE ( 'creation_date' ) ;
#61 = CC_DESIGN_PERSON_AND_ORGANIZATION_ASSIGNMENT ( #240, #81, ( #224 ) ) ;
#62 = APPROVAL_STATUS ( 'not_yet_approved' ) ;
#63 = PERSON_AND_ORGANIZATION_ROLE ( 'design_supplier' ) ;
#64 = AXIS2_PLACEMENT_3D ( 'NONE', #177, #95, #218 ) ;
#65 = DIRECTION ( 'NONE',  ( -0.9662349396012462899, 3.155457402685339568E-17, -0.2576626505603323292 ) ) ;
#66 = DIRECTION ( 'NONE',  ( 0.000000000000000000, 0.000000000000000000, -1.000000000000000000 ) ) ;
#67 = EDGE_CURVE ( 'NONE', #111, #230, #35, .T. ) ;
#68 = ORIENTED_EDGE ( 'NONE', *, *, #67, .F. ) ;
#69 = DIRECTION ( 'NONE',  ( 1.000000000000000000, 0.000000000000000000, 0.000000000000000000 ) ) ;
#70 = PRODUCT_DEFINITION_SHAPE ( 'NONE', 'NONE',  #109 ) ;
#71 = FACE_BOUND ( 'NONE', #166, .T. ) ;
#72 = DIRECTION ( 'NONE',  ( 1.000000000000000000, 0.000000000000000000, 0.000000000000000000 ) ) ;
#73 = CARTESIAN_POINT ( 'NONE',  ( 0.000000000000000000, 0.000000000000000000, 14.44758253037399953 ) ) ;
#74 = APPROVAL ( #62, 'UNSPECIFIED' ) ;
#75 = CARTESIAN_POINT ( 'NONE',  ( 30.00000000000000000, 0.000000000000000000, 0.000000000000000000 ) ) ;
#76 = DIRECTION ( 'NONE',  ( -0.9662349396012462899, 3.155457402685339568E-17, -0.2576626505603323292 ) ) ;
#77 = APPROVAL_STATUS ( 'not_yet_approved' ) ;
#78 = EDGE_CURVE ( 'NONE', #208, #192, #134, .T. ) ;
#79 = COORDINATED_UNIVERSAL_TIME_OFFSET ( 1, 0, .AHEAD. ) ;
#80 = APPROVAL_DATE_TIME ( #179, #74 ) ;
#81 = PERSON_AND_ORGANIZATION_ROLE ( 'classification_officer' ) ;
#82 = UNCERTAINTY_MEASURE_WITH_UNIT (LENGTH_MEASURE( 1.000000000000000082E-05 ), #214, 'distance_accuracy_value', 'NONE');
#83 = DIRECTION ( 'NONE',  ( 0.000000000000000000, 0.000000000000000000, -1.000000000000000000 ) ) ;
#84 = CALENDAR_DATE ( 2024, 5, 9 ) ;
#85 = EDGE_LOOP ( 'NONE', ( #248, #110 ) ) ;
#86 = AXIS2_PLACEMENT_3D ( 'NONE', #113, #72, #198 ) ;
#87 = ORIENTED_EDGE ( 'NONE', *, *, #78, .T. ) ;
#88 = LOCAL_TIME ( 12, 16, 13.00000000000000000, #103 ) ;
#89 = ADVANCED_BREP_SHAPE_REPRESENTATION ( '3D_M2060_32-15_174121040', ( #229, #100 ), #205 ) ;
#90 = EDGE_LOOP ( 'NONE', ( #33, #94 ) ) ;
#91 = DIRECTION ( 'NONE',  ( -1.000000000000000000, -0.000000000000000000, -0.000000000000000000 ) ) ;
#92 = AXIS2_PLACEMENT_3D ( 'NONE', #75, #55, #97 ) ;
#93 = CARTESIAN_POINT ( 'NONE',  ( 29.61350602415950206, 0.000000000000000000, 0.000000000000000000 ) ) ;
#94 = ORIENTED_EDGE ( 'NONE', *, *, #67, .T. ) ;
#95 = DIRECTION ( 'NONE',  ( 1.000000000000000000, 0.000000000000000000, 0.000000000000000000 ) ) ;
#96 = ORIENTED_EDGE ( 'NONE', *, *, #105, .F. ) ;
#97 = DIRECTION ( 'NONE',  ( 0.000000000000000000, 0.000000000000000000, -1.000000000000000000 ) ) ;
#98 = ADVANCED_FACE ( 'NONE', ( #200 ), #19, .F. ) ;
#99 = CARTESIAN_POINT ( 'NONE',  ( 30.00000000000000000, 4.898587196589412829E-16, 8.000000000000000000 ) ) ;
#100 = AXIS2_PLACEMENT_3D ( 'NONE', #199, #24, #69 ) ;
#101 = EDGE_CURVE ( 'NONE', #107, #192, #161, .T. ) ;
#102 = DIRECTION ( 'NONE',  ( 1.000000000000000000, 0.000000000000000000, 0.000000000000000000 ) ) ;
#103 = COORDINATED_UNIVERSAL_TIME_OFFSET ( 1, 0, .AHEAD. ) ;
#104 = CARTESIAN_POINT ( 'NONE',  ( 30.00000000000000000, 9.797174393178825657E-16, -8.000000000000000000 ) ) ;
#105 = EDGE_CURVE ( 'NONE', #208, #145, #45, .T. ) ;
#106 = LINE ( 'NONE', #104, #40 ) ;
#107 = VERTEX_POINT ( 'NONE', #165 ) ;
#108 = CONICAL_SURFACE ( 'NONE', #172, 6.550647590598130954, 0.2606023917473409557 ) ;
#109 = PRODUCT_DEFINITION ( 'UNKNOWN', '', #53, #242 ) ;
#110 = ORIENTED_EDGE ( 'NONE', *, *, #101, .F. ) ;
#111 = VERTEX_POINT ( 'NONE', #44 ) ;
#112 = PERSON_AND_ORGANIZATION ( #144, #123 ) ;
#113 = CARTESIAN_POINT ( 'NONE',  ( 0.000000000000000000, 0.000000000000000000, 0.000000000000000000 ) ) ;
#114 = AXIS2_PLACEMENT_3D ( 'NONE', #11, #47, #181 ) ;
#115 = DIRECTION ( 'NONE',  ( -0.9662349396012462899, 0.000000000000000000, 0.2576626505603323292 ) ) ;
#116 = APPROVAL_ROLE ( '' ) ;
#117 = PERSON_AND_ORGANIZATION ( #144, #123 ) ;
#118 = AXIS2_PLACEMENT_3D ( 'NONE', #232, #27, #222 ) ;
#119 = PERSON_AND_ORGANIZATION ( #144, #123 ) ;
#120 = CIRCLE ( 'NONE', #92, 6.447582530373998644 ) ;
#121 = ORIENTED_EDGE ( 'NONE', *, *, #245, .F. ) ;
#122 = ORIENTED_EDGE ( 'NONE', *, *, #78, .F. ) ;
#123 = ORGANIZATION ( 'UNSPECIFIED', 'UNSPECIFIED', '' ) ;
#124 = ORIENTED_EDGE ( 'NONE', *, *, #13, .T. ) ;
#125 = APPLICATION_PROTOCOL_DEFINITION ( 'international standard', 'config_control_design', 1994, #152 ) ;
#126 = ORIENTED_EDGE ( 'NONE', *, *, #128, .T. ) ;
#127 = DIRECTION ( 'NONE',  ( 0.000000000000000000, 0.000000000000000000, 1.000000000000000000 ) ) ;
#128 = EDGE_CURVE ( 'NONE', #145, #107, #106, .T. ) ;
#129 = APPROVAL_PERSON_ORGANIZATION ( #158, #74, #10 ) ;
#130 = DIRECTION ( 'NONE',  ( 0.000000000000000000, 0.000000000000000000, -1.000000000000000000 ) ) ;
#131 = PLANE ( 'NONE',  #64 ) ;
#132 = APPLICATION_CONTEXT ( 'configuration controlled 3d designs of mechanical parts and assemblies' ) ;
#133 = LINE ( 'NONE', #231, #59 ) ;
#134 = LINE ( 'NONE', #41, #136 ) ;
#135 = SHAPE_DEFINITION_REPRESENTATION ( #70, #89 ) ;
#136 = VECTOR ( 'NONE', #115, 1000.000000000000000 ) ;
#137 = CARTESIAN_POINT ( 'NONE',  ( 30.00000000000000000, 0.000000000000000000, 6.447582530373998644 ) ) ;
#138 = DIRECTION ( 'NONE',  ( 1.000000000000000000, 0.000000000000000000, 0.000000000000000000 ) ) ;
#139 = DATE_TIME_ROLE ( 'classification_date' ) ;
#140 = ADVANCED_FACE ( 'NONE', ( #142 ), #188, .T. ) ;
#141 = DATE_AND_TIME ( #46, #150 ) ;
#142 = FACE_OUTER_BOUND ( 'NONE', #151, .T. ) ;
#143 = ORIENTED_EDGE ( 'NONE', *, *, #209, .F. ) ;
#144 = PERSON ( 'UNSPECIFIED', 'UNSPECIFIED', 'UNSPECIFIED', ('UNSPECIFIED'), ('UNSPECIFIED'), ('UNSPECIFIED') ) ;
#145 = VERTEX_POINT ( 'NONE', #50 ) ;
#146 = APPROVAL ( #227, 'UNSPECIFIED' ) ;
#147 = ORIENTED_EDGE ( 'NONE', *, *, #190, .F. ) ;
#148 = ORIENTED_EDGE ( 'NONE', *, *, #13, .F. ) ;
#149 = CC_DESIGN_PERSON_AND_ORGANIZATION_ASSIGNMENT ( #112, #175, ( #38 ) ) ;
#150 = LOCAL_TIME ( 12, 16, 13.00000000000000000, #183 ) ;
#151 = EDGE_LOOP ( 'NONE', ( #147, #126, #170, #122 ) ) ;
#152 = APPLICATION_CONTEXT ( 'configuration controlled 3d designs of mechanical parts and assemblies' ) ;
#153 = AXIS2_PLACEMENT_3D ( 'NONE', #52, #138, #66 ) ;
#154 = DIRECTION ( 'NONE',  ( 1.000000000000000000, 0.000000000000000000, 0.000000000000000000 ) ) ;
#155 = CARTESIAN_POINT ( 'NONE',  ( 30.00000000000000000, 1.279459850465032237E-15, -6.447582530373998644 ) ) ;
#156 = DIRECTION ( 'NONE',  ( 0.000000000000000000, 0.000000000000000000, -1.000000000000000000 ) ) ;
#157 = CARTESIAN_POINT ( 'NONE',  ( 0.000000000000000000, 0.000000000000000000, 0.000000000000000000 ) ) ;
#158 = PERSON_AND_ORGANIZATION ( #144, #123 ) ;
#159 = EDGE_LOOP ( 'NONE', ( #124, #48, #121, #34 ) ) ;
#160 = SECURITY_CLASSIFICATION_LEVEL ( 'unclassified' ) ;
#161 = CIRCLE ( 'NONE', #153, 16.00000000000000000 ) ;
#162 = EDGE_LOOP ( 'NONE', ( #210, #241, #17, #68 ) ) ;
#163 = PERSON_AND_ORGANIZATION ( #144, #123 ) ;
#164 = CARTESIAN_POINT ( 'NONE',  ( 0.000000000000000000, -9.797174393178825657E-16, 16.00000000000000000 ) ) ;
#165 = CARTESIAN_POINT ( 'NONE',  ( 0.000000000000000000, 2.939152317953647894E-15, -16.00000000000000000 ) ) ;
#166 = EDGE_LOOP ( 'NONE', ( #148, #143 ) ) ;
#167 = AXIS2_PLACEMENT_3D ( 'NONE', #157, #8, #236 ) ;
#168 = FACE_OUTER_BOUND ( 'NONE', #159, .T. ) ;
#169 = CC_DESIGN_APPROVAL ( #23, ( #224 ) ) ;
#170 = ORIENTED_EDGE ( 'NONE', *, *, #101, .T. ) ;
#171 = CARTESIAN_POINT ( 'NONE',  ( 30.00000000000000000, 0.000000000000000000, 0.000000000000000000 ) ) ;
#172 = AXIS2_PLACEMENT_3D ( 'NONE', #93, #91, #127 ) ;
#173 = FACE_BOUND ( 'NONE', #90, .T. ) ;
#174 =( NAMED_UNIT ( * ) SI_UNIT ( $, .STERADIAN. ) SOLID_ANGLE_UNIT ( ) );
#175 = PERSON_AND_ORGANIZATION_ROLE ( 'design_owner' ) ;
#176 = AXIS2_PLACEMENT_3D ( 'NONE', #37, #216, #156 ) ;
#177 = CARTESIAN_POINT ( 'NONE',  ( 30.00000000000000000, 0.000000000000000000, 0.000000000000000000 ) ) ;
#178 = CARTESIAN_POINT ( 'NONE',  ( 29.61350602415950206, 8.022229604168322359E-16, -6.550647590598130954 ) ) ;
#179 = DATE_AND_TIME ( #12, #215 ) ;
#180 = DATE_AND_TIME ( #84, #193 ) ;
#181 = DIRECTION ( 'NONE',  ( 0.000000000000000000, 0.000000000000000000, 1.000000000000000000 ) ) ;
#182 = PRODUCT_RELATED_PRODUCT_CATEGORY ( 'detail', '', ( #38 ) ) ;
#183 = COORDINATED_UNIVERSAL_TIME_OFFSET ( 1, 0, .AHEAD. ) ;
#184 = DIRECTION ( 'NONE',  ( 1.000000000000000000, 0.000000000000000000, 0.000000000000000000 ) ) ;
#185 = ORIENTED_EDGE ( 'NONE', *, *, #128, .F. ) ;
#186 = APPROVAL_PERSON_ORGANIZATION ( #117, #23, #31 ) ;
#187 = VERTEX_POINT ( 'NONE', #137 ) ;
#188 = CONICAL_SURFACE ( 'NONE', #114, 8.000000000000000000, 0.2606023917473409557 ) ;
#189 = ORIENTED_EDGE ( 'NONE', *, *, #105, .T. ) ;
#190 = EDGE_CURVE ( 'NONE', #145, #208, #16, .T. ) ;
#191 = AXIS2_PLACEMENT_3D ( 'NONE', #228, #102, #30 ) ;
#192 = VERTEX_POINT ( 'NONE', #164 ) ;
#193 = LOCAL_TIME ( 12, 16, 13.00000000000000000, #28 ) ;
#194 = FACE_OUTER_BOUND ( 'NONE', #244, .T. ) ;
#195 = CARTESIAN_POINT ( 'NONE',  ( 0.000000000000000000, 0.000000000000000000, 0.000000000000000000 ) ) ;
#196 = CC_DESIGN_DATE_AND_TIME_ASSIGNMENT ( #238, #60, ( #109 ) ) ;
#197 = CLOSED_SHELL ( 'NONE', ( #202, #140, #221, #20, #243, #98 ) ) ;
#198 = DIRECTION ( 'NONE',  ( 0.000000000000000000, 0.000000000000000000, -1.000000000000000000 ) ) ;
#199 = CARTESIAN_POINT ( 'NONE',  ( 0.000000000000000000, 0.000000000000000000, 0.000000000000000000 ) ) ;
#200 = FACE_OUTER_BOUND ( 'NONE', #162, .T. ) ;
#201 = PERSON_AND_ORGANIZATION_ROLE ( 'creator' ) ;
#202 = ADVANCED_FACE ( 'NONE', ( #168 ), #108, .F. ) ;
#203 = CALENDAR_DATE ( 2024, 5, 9 ) ;
#204 = APPROVAL_PERSON_ORGANIZATION ( #58, #146, #116 ) ;
#205 =( GEOMETRIC_REPRESENTATION_CONTEXT ( 3 ) GLOBAL_UNCERTAINTY_ASSIGNED_CONTEXT ( ( #82 ) ) GLOBAL_UNIT_ASSIGNED_CONTEXT ( ( #214, #249, #174 ) ) REPRESENTATION_CONTEXT ( 'NONE', 'WORKASPACE' ) );
#206 = APPROVAL_DATE_TIME ( #225, #146 ) ;
#207 = AXIS2_PLACEMENT_3D ( 'NONE', #223, #184, #83 ) ;
#208 = VERTEX_POINT ( 'NONE', #99 ) ;
#209 = EDGE_CURVE ( 'NONE', #4, #187, #120, .T. ) ;
#210 = ORIENTED_EDGE ( 'NONE', *, *, #49, .F. ) ;
#211 = AXIS2_PLACEMENT_3D ( 'NONE', #195, #154, #219 ) ;
#212 = EDGE_LOOP ( 'NONE', ( #189, #21 ) ) ;
#213 = MECHANICAL_CONTEXT ( 'NONE', #152, 'mechanical' ) ;
#214 =( LENGTH_UNIT ( ) NAMED_UNIT ( * ) SI_UNIT ( .MILLI., .METRE. ) );
#215 = LOCAL_TIME ( 12, 16, 13.00000000000000000, #9 ) ;
#216 = DIRECTION ( 'NONE',  ( 1.000000000000000000, 0.000000000000000000, 0.000000000000000000 ) ) ;
#217 = EDGE_CURVE ( 'NONE', #192, #107, #220, .T. ) ;
#218 = DIRECTION ( 'NONE',  ( 0.000000000000000000, 0.000000000000000000, -1.000000000000000000 ) ) ;
#219 = DIRECTION ( 'NONE',  ( 0.000000000000000000, 0.000000000000000000, -1.000000000000000000 ) ) ;
#220 = CIRCLE ( 'NONE', #176, 16.00000000000000000 ) ;
#221 = ADVANCED_FACE ( 'NONE', ( #71, #36 ), #131, .T. ) ;
#222 = DIRECTION ( 'NONE',  ( 0.000000000000000000, 0.000000000000000000, 1.000000000000000000 ) ) ;
#223 = CARTESIAN_POINT ( 'NONE',  ( 30.00000000000000000, 0.000000000000000000, 0.000000000000000000 ) ) ;
#224 = SECURITY_CLASSIFICATION ( '', '', #160 ) ;
#225 = DATE_AND_TIME ( #29, #233 ) ;
#226 = CC_DESIGN_PERSON_AND_ORGANIZATION_ASSIGNMENT ( #14, #63, ( #53 ) ) ;
#227 = APPROVAL_STATUS ( 'not_yet_approved' ) ;
#228 = CARTESIAN_POINT ( 'NONE',  ( 30.00000000000000000, 0.000000000000000000, 0.000000000000000000 ) ) ;
#229 = MANIFOLD_SOLID_BREP ( 'Wandung2', #197 ) ;
#230 = VERTEX_POINT ( 'NONE', #73 ) ;
#231 = CARTESIAN_POINT ( 'NONE',  ( 29.61350602415950206, 0.000000000000000000, 6.550647590598130954 ) ) ;
#232 = CARTESIAN_POINT ( 'NONE',  ( 29.61350602415950206, 0.000000000000000000, 0.000000000000000000 ) ) ;
#233 = LOCAL_TIME ( 12, 16, 13.00000000000000000, #79 ) ;
#234 = PLANE ( 'NONE',  #86 ) ;
#235 = DIRECTION ( 'NONE',  ( 0.000000000000000000, 0.000000000000000000, 1.000000000000000000 ) ) ;
#236 = DIRECTION ( 'NONE',  ( 0.000000000000000000, 0.000000000000000000, -1.000000000000000000 ) ) ;
#237 = EDGE_CURVE ( 'NONE', #187, #230, #133, .T. ) ;
#238 = DATE_AND_TIME ( #203, #88 ) ;
#239 = AXIS2_PLACEMENT_3D ( 'NONE', #54, #39, #130 ) ;
#240 = PERSON_AND_ORGANIZATION ( #144, #123 ) ;
#241 = ORIENTED_EDGE ( 'NONE', *, *, #209, .T. ) ;
#242 = DESIGN_CONTEXT ( 'detailed design', #132, 'design' ) ;
#243 = ADVANCED_FACE ( 'NONE', ( #194 ), #6, .T. ) ;
#244 = EDGE_LOOP ( 'NONE', ( #185, #96, #87, #15 ) ) ;
#245 = EDGE_CURVE ( 'NONE', #230, #111, #22, .T. ) ;
#246 = CC_DESIGN_APPROVAL ( #146, ( #53 ) ) ;
#247 = AXIS2_PLACEMENT_3D ( 'NONE', #171, #57, #235 ) ;
#248 = ORIENTED_EDGE ( 'NONE', *, *, #217, .F. ) ;
#249 =( NAMED_UNIT ( * ) PLANE_ANGLE_UNIT ( ) SI_UNIT ( $, .RADIAN. ) );
ENDSEC;
END-ISO-10303-21;
