ISO-10303-21;
HEADER;
/* Generated by software containing ST-Developer
 * from STEP Tools, Inc. (www.steptools.com) 
 */

FILE_DESCRIPTION(
/* description */ (''),
/* implementation_level */ '2;1');

FILE_NAME(
/* name */ 
'C:\\Users\\cad\\Desktop\\Zeichnungen neu von Ralph\\3D_Kupplung_R666-
SG\\3D_R666-SG-26.9-DN20_17113727.stp',
/* time_stamp */ '2021-06-22T12:03:41+02:00',
/* author */ ('cad'),
/* organization */ (''),
/* preprocessor_version */ 'ST-DEVELOPER v18.1',
/* originating_system */ 'Autodesk Inventor 2022',
/* authorisation */ '');

FILE_SCHEMA (('AUTOMOTIVE_DESIGN { 1 0 10303 214 3 1 1 }'));
ENDSEC;

DATA;
#10=MECHANICAL_DESIGN_GEOMETRIC_PRESENTATION_REPRESENTATION('',(#13),#371);
#11=SHAPE_REPRESENTATION_RELATIONSHIP('SRR','None',#378,#12);
#12=ADVANCED_BREP_SHAPE_REPRESENTATION('',(#14),#370);
#13=STYLED_ITEM('',(#387),#14);
#14=MANIFOLD_SOLID_BREP('Volumenk\X\F6rper1',#197);
#15=CYLINDRICAL_SURFACE('',#223,13.45);
#16=CYLINDRICAL_SURFACE('',#228,11.45);
#17=CYLINDRICAL_SURFACE('',#236,7.);
#18=CYLINDRICAL_SURFACE('',#241,13.2);
#19=FACE_BOUND('',#37,.T.);
#20=FACE_BOUND('',#43,.T.);
#21=PLANE('',#221);
#22=PLANE('',#234);
#23=FACE_OUTER_BOUND('',#35,.T.);
#24=FACE_OUTER_BOUND('',#36,.T.);
#25=FACE_OUTER_BOUND('',#38,.T.);
#26=FACE_OUTER_BOUND('',#39,.T.);
#27=FACE_OUTER_BOUND('',#40,.T.);
#28=FACE_OUTER_BOUND('',#41,.T.);
#29=FACE_OUTER_BOUND('',#42,.T.);
#30=FACE_OUTER_BOUND('',#44,.T.);
#31=FACE_OUTER_BOUND('',#45,.T.);
#32=FACE_OUTER_BOUND('',#46,.T.);
#33=FACE_OUTER_BOUND('',#47,.T.);
#34=FACE_OUTER_BOUND('',#48,.T.);
#35=EDGE_LOOP('',(#127,#128,#129,#130,#131));
#36=EDGE_LOOP('',(#132));
#37=EDGE_LOOP('',(#133));
#38=EDGE_LOOP('',(#134,#135,#136,#137,#138));
#39=EDGE_LOOP('',(#139,#140,#141,#142,#143));
#40=EDGE_LOOP('',(#144,#145,#146,#147,#148));
#41=EDGE_LOOP('',(#149,#150,#151,#152,#153));
#42=EDGE_LOOP('',(#154));
#43=EDGE_LOOP('',(#155));
#44=EDGE_LOOP('',(#156,#157,#158,#159,#160));
#45=EDGE_LOOP('',(#161,#162,#163,#164,#165));
#46=EDGE_LOOP('',(#166,#167,#168,#169,#170));
#47=EDGE_LOOP('',(#171,#172,#173,#174));
#48=EDGE_LOOP('',(#175,#176,#177,#178));
#49=LINE('',#318,#59);
#50=LINE('',#327,#60);
#51=LINE('',#334,#61);
#52=LINE('',#337,#62);
#53=LINE('',#343,#63);
#54=LINE('',#353,#64);
#55=LINE('',#359,#65);
#56=LINE('',#363,#66);
#57=LINE('',#365,#67);
#58=LINE('',#367,#68);
#59=VECTOR('',#251,13.3);
#60=VECTOR('',#262,13.45);
#61=VECTOR('',#271,11.6);
#62=VECTOR('',#274,11.45);
#63=VECTOR('',#281,7.15);
#64=VECTOR('',#294,7.);
#65=VECTOR('',#301,12.4);
#66=VECTOR('',#306,13.2);
#67=VECTOR('',#309,9.225);
#68=VECTOR('',#312,13.325);
#69=CIRCLE('',#218,13.15);
#70=CIRCLE('',#219,13.45);
#71=CIRCLE('',#220,13.45);
#72=CIRCLE('',#222,11.75);
#73=CIRCLE('',#224,13.45);
#74=CIRCLE('',#226,11.45);
#75=CIRCLE('',#227,11.45);
#76=CIRCLE('',#229,11.45);
#77=CIRCLE('',#231,7.3);
#78=CIRCLE('',#232,7.);
#79=CIRCLE('',#233,7.);
#80=CIRCLE('',#235,11.6);
#81=CIRCLE('',#237,7.);
#82=CIRCLE('',#239,13.2);
#83=CIRCLE('',#240,13.2);
#84=CIRCLE('',#242,13.2);
#85=VERTEX_POINT('',#315);
#86=VERTEX_POINT('',#317);
#87=VERTEX_POINT('',#319);
#88=VERTEX_POINT('',#323);
#89=VERTEX_POINT('',#326);
#90=VERTEX_POINT('',#330);
#91=VERTEX_POINT('',#331);
#92=VERTEX_POINT('',#336);
#93=VERTEX_POINT('',#340);
#94=VERTEX_POINT('',#342);
#95=VERTEX_POINT('',#344);
#96=VERTEX_POINT('',#348);
#97=VERTEX_POINT('',#351);
#98=VERTEX_POINT('',#355);
#99=VERTEX_POINT('',#356);
#100=VERTEX_POINT('',#361);
#101=EDGE_CURVE('',#85,#85,#69,.T.);
#102=EDGE_CURVE('',#85,#86,#49,.T.);
#103=EDGE_CURVE('',#86,#87,#70,.T.);
#104=EDGE_CURVE('',#87,#86,#71,.T.);
#105=EDGE_CURVE('',#88,#88,#72,.T.);
#106=EDGE_CURVE('',#87,#89,#50,.T.);
#107=EDGE_CURVE('',#89,#89,#73,.T.);
#108=EDGE_CURVE('',#90,#91,#74,.T.);
#109=EDGE_CURVE('',#91,#90,#75,.T.);
#110=EDGE_CURVE('',#90,#88,#51,.T.);
#111=EDGE_CURVE('',#91,#92,#52,.T.);
#112=EDGE_CURVE('',#92,#92,#76,.T.);
#113=EDGE_CURVE('',#93,#93,#77,.T.);
#114=EDGE_CURVE('',#93,#94,#53,.T.);
#115=EDGE_CURVE('',#94,#95,#78,.T.);
#116=EDGE_CURVE('',#95,#94,#79,.T.);
#117=EDGE_CURVE('',#96,#96,#80,.T.);
#118=EDGE_CURVE('',#97,#97,#81,.T.);
#119=EDGE_CURVE('',#97,#95,#54,.T.);
#120=EDGE_CURVE('',#98,#99,#82,.T.);
#121=EDGE_CURVE('',#99,#98,#83,.T.);
#122=EDGE_CURVE('',#98,#96,#55,.T.);
#123=EDGE_CURVE('',#100,#100,#84,.T.);
#124=EDGE_CURVE('',#100,#99,#56,.T.);
#125=EDGE_CURVE('',#92,#97,#57,.T.);
#126=EDGE_CURVE('',#89,#100,#58,.T.);
#127=ORIENTED_EDGE('',*,*,#101,.T.);
#128=ORIENTED_EDGE('',*,*,#102,.T.);
#129=ORIENTED_EDGE('',*,*,#103,.T.);
#130=ORIENTED_EDGE('',*,*,#104,.T.);
#131=ORIENTED_EDGE('',*,*,#102,.F.);
#132=ORIENTED_EDGE('',*,*,#101,.F.);
#133=ORIENTED_EDGE('',*,*,#105,.F.);
#134=ORIENTED_EDGE('',*,*,#103,.F.);
#135=ORIENTED_EDGE('',*,*,#104,.F.);
#136=ORIENTED_EDGE('',*,*,#106,.T.);
#137=ORIENTED_EDGE('',*,*,#107,.T.);
#138=ORIENTED_EDGE('',*,*,#106,.F.);
#139=ORIENTED_EDGE('',*,*,#108,.T.);
#140=ORIENTED_EDGE('',*,*,#109,.T.);
#141=ORIENTED_EDGE('',*,*,#110,.T.);
#142=ORIENTED_EDGE('',*,*,#105,.T.);
#143=ORIENTED_EDGE('',*,*,#110,.F.);
#144=ORIENTED_EDGE('',*,*,#108,.F.);
#145=ORIENTED_EDGE('',*,*,#109,.F.);
#146=ORIENTED_EDGE('',*,*,#111,.T.);
#147=ORIENTED_EDGE('',*,*,#112,.F.);
#148=ORIENTED_EDGE('',*,*,#111,.F.);
#149=ORIENTED_EDGE('',*,*,#113,.T.);
#150=ORIENTED_EDGE('',*,*,#114,.T.);
#151=ORIENTED_EDGE('',*,*,#115,.T.);
#152=ORIENTED_EDGE('',*,*,#116,.T.);
#153=ORIENTED_EDGE('',*,*,#114,.F.);
#154=ORIENTED_EDGE('',*,*,#117,.F.);
#155=ORIENTED_EDGE('',*,*,#113,.F.);
#156=ORIENTED_EDGE('',*,*,#118,.T.);
#157=ORIENTED_EDGE('',*,*,#119,.T.);
#158=ORIENTED_EDGE('',*,*,#115,.F.);
#159=ORIENTED_EDGE('',*,*,#116,.F.);
#160=ORIENTED_EDGE('',*,*,#119,.F.);
#161=ORIENTED_EDGE('',*,*,#120,.T.);
#162=ORIENTED_EDGE('',*,*,#121,.T.);
#163=ORIENTED_EDGE('',*,*,#122,.T.);
#164=ORIENTED_EDGE('',*,*,#117,.T.);
#165=ORIENTED_EDGE('',*,*,#122,.F.);
#166=ORIENTED_EDGE('',*,*,#123,.F.);
#167=ORIENTED_EDGE('',*,*,#124,.T.);
#168=ORIENTED_EDGE('',*,*,#120,.F.);
#169=ORIENTED_EDGE('',*,*,#121,.F.);
#170=ORIENTED_EDGE('',*,*,#124,.F.);
#171=ORIENTED_EDGE('',*,*,#112,.T.);
#172=ORIENTED_EDGE('',*,*,#125,.T.);
#173=ORIENTED_EDGE('',*,*,#118,.F.);
#174=ORIENTED_EDGE('',*,*,#125,.F.);
#175=ORIENTED_EDGE('',*,*,#107,.F.);
#176=ORIENTED_EDGE('',*,*,#126,.T.);
#177=ORIENTED_EDGE('',*,*,#123,.T.);
#178=ORIENTED_EDGE('',*,*,#126,.F.);
#179=CONICAL_SURFACE('',#217,13.3,0.785398163397449);
#180=CONICAL_SURFACE('',#225,11.6,0.785398163397449);
#181=CONICAL_SURFACE('',#230,7.15,0.78539816339745);
#182=CONICAL_SURFACE('',#238,12.4,0.785398163397448);
#183=CONICAL_SURFACE('',#243,9.225,0.523598775598299);
#184=CONICAL_SURFACE('',#244,13.325,0.785398163397453);
#185=ADVANCED_FACE('',(#23),#179,.T.);
#186=ADVANCED_FACE('',(#24,#19),#21,.T.);
#187=ADVANCED_FACE('',(#25),#15,.T.);
#188=ADVANCED_FACE('',(#26),#180,.F.);
#189=ADVANCED_FACE('',(#27),#16,.F.);
#190=ADVANCED_FACE('',(#28),#181,.F.);
#191=ADVANCED_FACE('',(#29,#20),#22,.T.);
#192=ADVANCED_FACE('',(#30),#17,.F.);
#193=ADVANCED_FACE('',(#31),#182,.T.);
#194=ADVANCED_FACE('',(#32),#18,.T.);
#195=ADVANCED_FACE('',(#33),#183,.F.);
#196=ADVANCED_FACE('',(#34),#184,.T.);
#197=CLOSED_SHELL('',(#185,#186,#187,#188,#189,#190,#191,#192,#193,#194,
#195,#196));
#198=DERIVED_UNIT_ELEMENT(#200,1.);
#199=DERIVED_UNIT_ELEMENT(#373,-3.);
#200=(
MASS_UNIT()
NAMED_UNIT(*)
SI_UNIT($,.GRAM.)
);
#201=DERIVED_UNIT((#198,#199));
#202=MEASURE_REPRESENTATION_ITEM('density measure',
POSITIVE_RATIO_MEASURE(1.),#201);
#203=PROPERTY_DEFINITION_REPRESENTATION(#208,#205);
#204=PROPERTY_DEFINITION_REPRESENTATION(#209,#206);
#205=REPRESENTATION('material name',(#207),#370);
#206=REPRESENTATION('density',(#202),#370);
#207=DESCRIPTIVE_REPRESENTATION_ITEM('Generisch','Generisch');
#208=PROPERTY_DEFINITION('material property','material name',#380);
#209=PROPERTY_DEFINITION('material property','density of part',#380);
#210=DATE_TIME_ROLE('creation_date');
#211=APPLIED_DATE_AND_TIME_ASSIGNMENT(#212,#210,(#380));
#212=DATE_AND_TIME(#213,#214);
#213=CALENDAR_DATE(2021,22,6);
#214=LOCAL_TIME(0,0,0.,#215);
#215=COORDINATED_UNIVERSAL_TIME_OFFSET(0,0,.BEHIND.);
#216=AXIS2_PLACEMENT_3D('placement',#313,#245,#246);
#217=AXIS2_PLACEMENT_3D('',#314,#247,#248);
#218=AXIS2_PLACEMENT_3D('',#316,#249,#250);
#219=AXIS2_PLACEMENT_3D('',#320,#252,#253);
#220=AXIS2_PLACEMENT_3D('',#321,#254,#255);
#221=AXIS2_PLACEMENT_3D('',#322,#256,#257);
#222=AXIS2_PLACEMENT_3D('',#324,#258,#259);
#223=AXIS2_PLACEMENT_3D('',#325,#260,#261);
#224=AXIS2_PLACEMENT_3D('',#328,#263,#264);
#225=AXIS2_PLACEMENT_3D('',#329,#265,#266);
#226=AXIS2_PLACEMENT_3D('',#332,#267,#268);
#227=AXIS2_PLACEMENT_3D('',#333,#269,#270);
#228=AXIS2_PLACEMENT_3D('',#335,#272,#273);
#229=AXIS2_PLACEMENT_3D('',#338,#275,#276);
#230=AXIS2_PLACEMENT_3D('',#339,#277,#278);
#231=AXIS2_PLACEMENT_3D('',#341,#279,#280);
#232=AXIS2_PLACEMENT_3D('',#345,#282,#283);
#233=AXIS2_PLACEMENT_3D('',#346,#284,#285);
#234=AXIS2_PLACEMENT_3D('',#347,#286,#287);
#235=AXIS2_PLACEMENT_3D('',#349,#288,#289);
#236=AXIS2_PLACEMENT_3D('',#350,#290,#291);
#237=AXIS2_PLACEMENT_3D('',#352,#292,#293);
#238=AXIS2_PLACEMENT_3D('',#354,#295,#296);
#239=AXIS2_PLACEMENT_3D('',#357,#297,#298);
#240=AXIS2_PLACEMENT_3D('',#358,#299,#300);
#241=AXIS2_PLACEMENT_3D('',#360,#302,#303);
#242=AXIS2_PLACEMENT_3D('',#362,#304,#305);
#243=AXIS2_PLACEMENT_3D('',#364,#307,#308);
#244=AXIS2_PLACEMENT_3D('',#366,#310,#311);
#245=DIRECTION('axis',(0.,0.,1.));
#246=DIRECTION('refdir',(1.,0.,0.));
#247=DIRECTION('center_axis',(-1.,0.,0.));
#248=DIRECTION('ref_axis',(0.,-1.,0.));
#249=DIRECTION('center_axis',(-1.,0.,0.));
#250=DIRECTION('ref_axis',(0.,-1.,0.));
#251=DIRECTION('',(-0.707106781186547,0.707106781186548,8.65956056235494E-17));
#252=DIRECTION('center_axis',(1.,0.,0.));
#253=DIRECTION('ref_axis',(0.,-1.,0.));
#254=DIRECTION('center_axis',(1.,0.,0.));
#255=DIRECTION('ref_axis',(0.,-1.,0.));
#256=DIRECTION('center_axis',(1.,0.,0.));
#257=DIRECTION('ref_axis',(0.,0.,-1.));
#258=DIRECTION('center_axis',(1.,0.,0.));
#259=DIRECTION('ref_axis',(0.,-1.,0.));
#260=DIRECTION('center_axis',(1.,0.,0.));
#261=DIRECTION('ref_axis',(0.,1.,0.));
#262=DIRECTION('',(-1.,0.,0.));
#263=DIRECTION('center_axis',(1.,0.,0.));
#264=DIRECTION('ref_axis',(0.,0.,-1.));
#265=DIRECTION('center_axis',(1.,0.,0.));
#266=DIRECTION('ref_axis',(0.,-1.,0.));
#267=DIRECTION('center_axis',(-1.,0.,0.));
#268=DIRECTION('ref_axis',(0.,-1.,0.));
#269=DIRECTION('center_axis',(-1.,0.,0.));
#270=DIRECTION('ref_axis',(0.,-1.,0.));
#271=DIRECTION('',(0.707106781186547,0.707106781186548,-8.65956056235494E-17));
#272=DIRECTION('center_axis',(1.,0.,0.));
#273=DIRECTION('ref_axis',(0.,1.,0.));
#274=DIRECTION('',(-1.,0.,0.));
#275=DIRECTION('center_axis',(1.,0.,0.));
#276=DIRECTION('ref_axis',(0.,0.,-1.));
#277=DIRECTION('center_axis',(-1.,0.,0.));
#278=DIRECTION('ref_axis',(0.,-1.,0.));
#279=DIRECTION('center_axis',(-1.,0.,0.));
#280=DIRECTION('ref_axis',(0.,-1.,0.));
#281=DIRECTION('',(0.707106781186546,-0.707106781186549,8.65956056235495E-17));
#282=DIRECTION('center_axis',(1.,0.,0.));
#283=DIRECTION('ref_axis',(0.,-1.,0.));
#284=DIRECTION('center_axis',(1.,0.,0.));
#285=DIRECTION('ref_axis',(0.,-1.,0.));
#286=DIRECTION('center_axis',(-1.,0.,0.));
#287=DIRECTION('ref_axis',(0.,0.,1.));
#288=DIRECTION('center_axis',(1.,0.,0.));
#289=DIRECTION('ref_axis',(0.,-1.,0.));
#290=DIRECTION('center_axis',(1.,0.,0.));
#291=DIRECTION('ref_axis',(0.,1.,0.));
#292=DIRECTION('center_axis',(1.,0.,0.));
#293=DIRECTION('ref_axis',(0.,0.,-1.));
#294=DIRECTION('',(-1.,0.,0.));
#295=DIRECTION('center_axis',(1.,0.,0.));
#296=DIRECTION('ref_axis',(0.,-1.,0.));
#297=DIRECTION('center_axis',(-1.,0.,0.));
#298=DIRECTION('ref_axis',(0.,-1.,0.));
#299=DIRECTION('center_axis',(-1.,0.,0.));
#300=DIRECTION('ref_axis',(0.,-1.,0.));
#301=DIRECTION('',(-0.707106781186547,-0.707106781186547,-8.65956056235493E-17));
#302=DIRECTION('center_axis',(1.,0.,0.));
#303=DIRECTION('ref_axis',(0.,1.,0.));
#304=DIRECTION('center_axis',(1.,0.,0.));
#305=DIRECTION('ref_axis',(0.,0.,-1.));
#306=DIRECTION('',(-1.,0.,0.));
#307=DIRECTION('center_axis',(1.,0.,0.));
#308=DIRECTION('ref_axis',(0.,1.,0.));
#309=DIRECTION('',(-0.866025403784439,0.5,6.12323399573676E-17));
#310=DIRECTION('center_axis',(1.,0.,0.));
#311=DIRECTION('ref_axis',(0.,1.,0.));
#312=DIRECTION('',(-0.707106781186544,0.707106781186551,8.65956056235497E-17));
#313=CARTESIAN_POINT('',(0.,0.,0.));
#314=CARTESIAN_POINT('Origin',(-0.150000000000004,0.,0.));
#315=CARTESIAN_POINT('',(-3.50414142147315E-15,13.15,-1.61041054087877E-15));
#316=CARTESIAN_POINT('Origin',(-3.50414142147315E-15,0.,0.));
#317=CARTESIAN_POINT('',(-0.300000000000004,13.45,1.64714994485319E-15));
#318=CARTESIAN_POINT('',(-0.150000000000004,13.3,1.62878024286598E-15));
#319=CARTESIAN_POINT('',(-0.300000000000004,-13.45,-1.64714994485319E-15));
#320=CARTESIAN_POINT('Origin',(-0.300000000000004,0.,0.));
#321=CARTESIAN_POINT('Origin',(-0.300000000000004,0.,0.));
#322=CARTESIAN_POINT('Origin',(-3.5055514625593E-15,11.45,0.));
#323=CARTESIAN_POINT('',(-3.50414142147315E-15,11.75,1.43895998899814E-15));
#324=CARTESIAN_POINT('Origin',(-3.50414142147315E-15,0.,0.));
#325=CARTESIAN_POINT('Origin',(-5.37500000000001,0.,0.));
#326=CARTESIAN_POINT('',(-10.75,-13.45,-1.64714994485319E-15));
#327=CARTESIAN_POINT('',(-5.37500000000001,-13.45,-1.64714994485319E-15));
#328=CARTESIAN_POINT('Origin',(-10.75,0.,0.));
#329=CARTESIAN_POINT('Origin',(-0.150000000000003,0.,0.));
#330=CARTESIAN_POINT('',(-0.300000000000003,11.45,-1.40222058502372E-15));
#331=CARTESIAN_POINT('',(-0.300000000000003,-11.45,-1.40222058502372E-15));
#332=CARTESIAN_POINT('Origin',(-0.300000000000003,0.,0.));
#333=CARTESIAN_POINT('Origin',(-0.300000000000003,0.,0.));
#334=CARTESIAN_POINT('',(-0.150000000000003,11.6,-1.42059028701093E-15));
#335=CARTESIAN_POINT('Origin',(-2.64618695315925,0.,0.));
#336=CARTESIAN_POINT('',(-5.2923739063185,-11.45,-1.40222058502372E-15));
#337=CARTESIAN_POINT('',(-2.64618695315925,-11.45,-1.40222058502372E-15));
#338=CARTESIAN_POINT('Origin',(-5.2923739063185,0.,0.));
#339=CARTESIAN_POINT('Origin',(-20.85,0.,0.));
#340=CARTESIAN_POINT('',(-21.,7.3,-8.93992163377568E-16));
#341=CARTESIAN_POINT('Origin',(-21.,0.,0.));
#342=CARTESIAN_POINT('',(-20.7,7.,8.57252759403147E-16));
#343=CARTESIAN_POINT('',(-20.85,7.15,-8.75622461390357E-16));
#344=CARTESIAN_POINT('',(-20.7,-7.,-8.57252759403147E-16));
#345=CARTESIAN_POINT('Origin',(-20.7,0.,0.));
#346=CARTESIAN_POINT('Origin',(-20.7,0.,0.));
#347=CARTESIAN_POINT('Origin',(-21.,13.2,0.));
#348=CARTESIAN_POINT('',(-21.,11.6,1.42059028701093E-15));
#349=CARTESIAN_POINT('Origin',(-21.,0.,0.));
#350=CARTESIAN_POINT('Origin',(-17.,0.,0.));
#351=CARTESIAN_POINT('',(-13.,-7.,-8.57252759403147E-16));
#352=CARTESIAN_POINT('Origin',(-13.,0.,0.));
#353=CARTESIAN_POINT('',(-17.,-7.,-8.57252759403147E-16));
#354=CARTESIAN_POINT('Origin',(-20.2,0.,0.));
#355=CARTESIAN_POINT('',(-19.4,13.2,-1.61653377487451E-15));
#356=CARTESIAN_POINT('',(-19.4,-13.2,-1.61653377487451E-15));
#357=CARTESIAN_POINT('Origin',(-19.4,0.,0.));
#358=CARTESIAN_POINT('Origin',(-19.4,0.,0.));
#359=CARTESIAN_POINT('',(-20.2,12.4,1.51856203094272E-15));
#360=CARTESIAN_POINT('Origin',(-16.,0.,0.));
#361=CARTESIAN_POINT('',(-11.,-13.2,-1.61653377487451E-15));
#362=CARTESIAN_POINT('Origin',(-11.,0.,0.));
#363=CARTESIAN_POINT('',(-16.,-13.2,-1.61653377487451E-15));
#364=CARTESIAN_POINT('Origin',(-9.14618695315925,0.,0.));
#365=CARTESIAN_POINT('',(-9.14618695315925,-9.225,-1.12973667221343E-15));
#366=CARTESIAN_POINT('Origin',(-10.875,0.,0.));
#367=CARTESIAN_POINT('',(-10.875,-13.325,-1.63184185986385E-15));
#368=UNCERTAINTY_MEASURE_WITH_UNIT(LENGTH_MEASURE(0.01),#372,
'DISTANCE_ACCURACY_VALUE',
'Maximum model space distance between geometric entities at asserted c
onnectivities');
#369=UNCERTAINTY_MEASURE_WITH_UNIT(LENGTH_MEASURE(0.01),#372,
'DISTANCE_ACCURACY_VALUE',
'Maximum model space distance between geometric entities at asserted c
onnectivities');
#370=(
GEOMETRIC_REPRESENTATION_CONTEXT(3)
GLOBAL_UNCERTAINTY_ASSIGNED_CONTEXT((#368))
GLOBAL_UNIT_ASSIGNED_CONTEXT((#372,#374,#375))
REPRESENTATION_CONTEXT('','3D')
);
#371=(
GEOMETRIC_REPRESENTATION_CONTEXT(3)
GLOBAL_UNCERTAINTY_ASSIGNED_CONTEXT((#369))
GLOBAL_UNIT_ASSIGNED_CONTEXT((#372,#374,#375))
REPRESENTATION_CONTEXT('','3D')
);
#372=(
LENGTH_UNIT()
NAMED_UNIT(*)
SI_UNIT(.MILLI.,.METRE.)
);
#373=(
LENGTH_UNIT()
NAMED_UNIT(*)
SI_UNIT(.CENTI.,.METRE.)
);
#374=(
NAMED_UNIT(*)
PLANE_ANGLE_UNIT()
SI_UNIT($,.RADIAN.)
);
#375=(
NAMED_UNIT(*)
SI_UNIT($,.STERADIAN.)
SOLID_ANGLE_UNIT()
);
#376=SHAPE_DEFINITION_REPRESENTATION(#377,#378);
#377=PRODUCT_DEFINITION_SHAPE('',$,#380);
#378=SHAPE_REPRESENTATION('',(#216),#370);
#379=PRODUCT_DEFINITION_CONTEXT('part definition',#384,'design');
#380=PRODUCT_DEFINITION('3D_R666-SG-26.9-DN20_17113727',
'3D_R666-SG-26.9-DN20_17113727',#381,#379);
#381=PRODUCT_DEFINITION_FORMATION('',$,#386);
#382=PRODUCT_RELATED_PRODUCT_CATEGORY('3D_R666-SG-26.9-DN20_17113727',
'3D_R666-SG-26.9-DN20_17113727',(#386));
#383=APPLICATION_PROTOCOL_DEFINITION('international standard',
'automotive_design',2009,#384);
#384=APPLICATION_CONTEXT(
'Core Data for Automotive Mechanical Design Process');
#385=PRODUCT_CONTEXT('part definition',#384,'mechanical');
#386=PRODUCT('3D_R666-SG-26.9-DN20_17113727',
'3D_R666-SG-26.9-DN20_17113727',$,(#385));
#387=PRESENTATION_STYLE_ASSIGNMENT((#388));
#388=SURFACE_STYLE_USAGE(.BOTH.,#391);
#389=SURFACE_STYLE_RENDERING_WITH_PROPERTIES($,#395,(#390));
#390=SURFACE_STYLE_TRANSPARENT(0.);
#391=SURFACE_SIDE_STYLE('',(#392,#389));
#392=SURFACE_STYLE_FILL_AREA(#393);
#393=FILL_AREA_STYLE('',(#394));
#394=FILL_AREA_STYLE_COLOUR('',#395);
#395=COLOUR_RGB('',0.749019607843137,0.749019607843137,0.749019607843137);
ENDSEC;
END-ISO-10303-21;
