ISO-10303-21;
HEADER;
FILE_DESCRIPTION (( 'STEP AP203' ),
    '1' );
FILE_NAME ('3D_M2060_20-15_174121020.STEP',
    '2024-09-05T10:13:51',
    ( '' ),
    ( '' ),
    'SwSTEP 2.0',
    'SolidWorks 2024',
    '' );
FILE_SCHEMA (( 'CONFIG_CONTROL_DESIGN' ));
ENDSEC;

DATA;
#1 = DIRECTION ( 'NONE',  ( 0.000000000000000000, 0.000000000000000000, -1.000000000000000000 ) ) ;
#2 = DIRECTION ( 'NONE',  ( -1.000000000000000000, -0.000000000000000000, -0.000000000000000000 ) ) ;
#3 = DESIGN_CONTEXT ( 'detailed design', #235, 'design' ) ;
#4 = VERTEX_POINT ( 'NONE', #43 ) ;
#5 = ORIENTED_EDGE ( 'NONE', *, *, #132, .F. ) ;
#6 = ORIENTED_EDGE ( 'NONE', *, *, #108, .F. ) ;
#7 = ORIENTED_EDGE ( 'NONE', *, *, #35, .F. ) ;
#8 = CC_DESIGN_SECURITY_CLASSIFICATION ( #225, ( #126 ) ) ;
#9 = DIRECTION ( 'NONE',  ( 1.000000000000000000, 0.000000000000000000, 0.000000000000000000 ) ) ;
#10 = AXIS2_PLACEMENT_3D ( 'NONE', #241, #204, #46 ) ;
#11 = CARTESIAN_POINT ( 'NONE',  ( 0.000000000000000000, 0.000000000000000000, 8.439976452297031528 ) ) ;
#12 = DIRECTION ( 'NONE',  ( 1.000000000000000000, 0.000000000000000000, 0.000000000000000000 ) ) ;
#13 = PRODUCT_DEFINITION ( 'UNKNOWN', '', #126, #3 ) ;
#14 = LINE ( 'NONE', #201, #131 ) ;
#15 = CARTESIAN_POINT ( 'NONE',  ( 7.000000000000000000, 0.000000000000000000, 0.000000000000000000 ) ) ;
#16 = APPLICATION_PROTOCOL_DEFINITION ( 'international standard', 'config_control_design', 1994, #211 ) ;
#17 = PERSON_AND_ORGANIZATION ( #154, #193 ) ;
#18 = DATE_AND_TIME ( #208, #236 ) ;
#19 = PERSON_AND_ORGANIZATION ( #154, #193 ) ;
#20 = ADVANCED_FACE ( 'NONE', ( #165, #205 ), #246, .T. ) ;
#21 = APPROVAL_PERSON_ORGANIZATION ( #17, #40, #48 ) ;
#22 = APPROVAL_STATUS ( 'not_yet_approved' ) ;
#23 = DATE_AND_TIME ( #196, #101 ) ;
#24 = EDGE_LOOP ( 'NONE', ( #98, #237 ) ) ;
#25 = CARTESIAN_POINT ( 'NONE',  ( 0.000000000000000000, 0.000000000000000000, 0.000000000000000000 ) ) ;
#26 = DIRECTION ( 'NONE',  ( 0.000000000000000000, 0.000000000000000000, -1.000000000000000000 ) ) ;
#27 = DIRECTION ( 'NONE',  ( 0.000000000000000000, 0.000000000000000000, 1.000000000000000000 ) ) ;
#28 = CARTESIAN_POINT ( 'NONE',  ( 0.000000000000000000, -6.123233995736766282E-16, 10.00000000000000000 ) ) ;
#29 = CC_DESIGN_APPROVAL ( #187, ( #225 ) ) ;
#30 = DIRECTION ( 'NONE',  ( 1.000000000000000000, 0.000000000000000000, 0.000000000000000000 ) ) ;
#31 = AXIS2_PLACEMENT_3D ( 'NONE', #220, #106, #148 ) ;
#32 = CARTESIAN_POINT ( 'NONE',  ( 0.000000000000000000, 0.000000000000000000, 0.000000000000000000 ) ) ;
#33 = CARTESIAN_POINT ( 'NONE',  ( 0.000000000000000000, 0.000000000000000000, 0.000000000000000000 ) ) ;
#34 = PERSON_AND_ORGANIZATION_ROLE ( 'design_owner' ) ;
#35 = EDGE_CURVE ( 'NONE', #4, #41, #51, .T. ) ;
#36 = APPROVAL_STATUS ( 'not_yet_approved' ) ;
#37 = PERSON_AND_ORGANIZATION ( #154, #193 ) ;
#38 = AXIS2_PLACEMENT_3D ( 'NONE', #66, #224, #79 ) ;
#39 = AXIS2_PLACEMENT_3D ( 'NONE', #25, #124, #125 ) ;
#40 = APPROVAL ( #87, 'UNSPECIFIED' ) ;
#41 = VERTEX_POINT ( 'NONE', #143 ) ;
#42 = DIRECTION ( 'NONE',  ( 0.000000000000000000, 0.000000000000000000, -1.000000000000000000 ) ) ;
#43 = CARTESIAN_POINT ( 'NONE',  ( 7.000000000000000000, 4.898587196589412829E-16, 8.000000000000000000 ) ) ;
#44 = FACE_OUTER_BOUND ( 'NONE', #216, .T. ) ;
#45 = CARTESIAN_POINT ( 'NONE',  ( 7.000000000000000000, 0.000000000000000000, 6.439976452297031528 ) ) ;
#46 = DIRECTION ( 'NONE',  ( 0.000000000000000000, 0.000000000000000000, 1.000000000000000000 ) ) ;
#47 = EDGE_CURVE ( 'NONE', #214, #118, #166, .T. ) ;
#48 = APPROVAL_ROLE ( '' ) ;
#49 = APPROVAL_DATE_TIME ( #192, #75 ) ;
#50 = CC_DESIGN_PERSON_AND_ORGANIZATION_ASSIGNMENT ( #19, #89, ( #225 ) ) ;
#51 = CIRCLE ( 'NONE', #71, 8.000000000000000000 ) ;
#52 = PERSON_AND_ORGANIZATION ( #154, #193 ) ;
#53 = COORDINATED_UNIVERSAL_TIME_OFFSET ( 1, 0, .AHEAD. ) ;
#54 = EDGE_CURVE ( 'NONE', #41, #4, #82, .T. ) ;
#55 = CONICAL_SURFACE ( 'NONE', #10, 8.000000000000000000, 0.2782996590051113328 ) ;
#56 = EDGE_LOOP ( 'NONE', ( #73, #140, #174, #6 ) ) ;
#57 = PRODUCT ( '3D_M2060_20-15_174121020', '3D_M2060_20-15_174121020', '', ( #227 ) ) ;
#58 = ORIENTED_EDGE ( 'NONE', *, *, #219, .T. ) ;
#59 = CLOSED_SHELL ( 'NONE', ( #197, #240, #20, #93, #151, #121 ) ) ;
#60 = CONICAL_SURFACE ( 'NONE', #38, 6.557714078538765534, 0.2782996590051113328 ) ;
#61 = EDGE_LOOP ( 'NONE', ( #96, #231, #120, #134 ) ) ;
#62 = LINE ( 'NONE', #142, #102 ) ;
#63 = DIRECTION ( 'NONE',  ( 1.000000000000000000, 0.000000000000000000, 0.000000000000000000 ) ) ;
#64 = DIRECTION ( 'NONE',  ( 0.000000000000000000, 0.000000000000000000, -1.000000000000000000 ) ) ;
#65 = EDGE_LOOP ( 'NONE', ( #199, #94 ) ) ;
#66 = CARTESIAN_POINT ( 'NONE',  ( 6.587918308153932756, 0.000000000000000000, 0.000000000000000000 ) ) ;
#67 = DIRECTION ( 'NONE',  ( 0.000000000000000000, 0.000000000000000000, 1.000000000000000000 ) ) ;
#68 = CIRCLE ( 'NONE', #226, 6.439976452297031528 ) ;
#69 = CALENDAR_DATE ( 2024, 5, 9 ) ;
#70 = DIRECTION ( 'NONE',  ( -0.9615239476408231623, 0.000000000000000000, 0.2747211278973780701 ) ) ;
#71 = AXIS2_PLACEMENT_3D ( 'NONE', #185, #12, #42 ) ;
#72 = PERSON_AND_ORGANIZATION ( #154, #193 ) ;
#73 = ORIENTED_EDGE ( 'NONE', *, *, #178, .T. ) ;
#74 = DATE_AND_TIME ( #137, #116 ) ;
#75 = APPROVAL ( #36, 'UNSPECIFIED' ) ;
#76 = ORIENTED_EDGE ( 'NONE', *, *, #171, .F. ) ;
#77 = LOCAL_TIME ( 12, 13, 51.00000000000000000, #249 ) ;
#78 = AXIS2_PLACEMENT_3D ( 'NONE', #181, #9, #183 ) ;
#79 = DIRECTION ( 'NONE',  ( 0.000000000000000000, 0.000000000000000000, 1.000000000000000000 ) ) ;
#80 = DIRECTION ( 'NONE',  ( -0.9615239476408231623, 3.364363499376747047E-17, -0.2747211278973780701 ) ) ;
#81 = LINE ( 'NONE', #122, #243 ) ;
#82 = CIRCLE ( 'NONE', #230, 8.000000000000000000 ) ;
#83 = CARTESIAN_POINT ( 'NONE',  ( 0.000000000000000000, 0.000000000000000000, 0.000000000000000000 ) ) ;
#84 = CARTESIAN_POINT ( 'NONE',  ( 7.000000000000000000, 0.000000000000000000, 0.000000000000000000 ) ) ;
#85 = CC_DESIGN_PERSON_AND_ORGANIZATION_ASSIGNMENT ( #72, #34, ( #57 ) ) ;
#86 = LINE ( 'NONE', #169, #202 ) ;
#87 = APPROVAL_STATUS ( 'not_yet_approved' ) ;
#88 =( NAMED_UNIT ( * ) PLANE_ANGLE_UNIT ( ) SI_UNIT ( $, .RADIAN. ) );
#89 = PERSON_AND_ORGANIZATION_ROLE ( 'classification_officer' ) ;
#90 = DATE_TIME_ROLE ( 'creation_date' ) ;
#91 = CC_DESIGN_APPROVAL ( #75, ( #13 ) ) ;
#92 = DATE_TIME_ROLE ( 'classification_date' ) ;
#93 = ADVANCED_FACE ( 'NONE', ( #239, #127 ), #221, .F. ) ;
#94 = ORIENTED_EDGE ( 'NONE', *, *, #54, .T. ) ;
#95 = APPROVAL_ROLE ( '' ) ;
#96 = ORIENTED_EDGE ( 'NONE', *, *, #54, .F. ) ;
#97 = CIRCLE ( 'NONE', #39, 8.439976452297033305 ) ;
#98 = ORIENTED_EDGE ( 'NONE', *, *, #178, .F. ) ;
#99 = ORIENTED_EDGE ( 'NONE', *, *, #47, .T. ) ;
#100 = EDGE_LOOP ( 'NONE', ( #5, #99, #159, #232 ) ) ;
#101 = LOCAL_TIME ( 12, 13, 51.00000000000000000, #172 ) ;
#102 = VECTOR ( 'NONE', #80, 1000.000000000000114 ) ;
#103 = DIRECTION ( 'NONE',  ( 0.000000000000000000, 0.000000000000000000, -1.000000000000000000 ) ) ;
#104 = EDGE_CURVE ( 'NONE', #198, #200, #97, .T. ) ;
#105 = DIRECTION ( 'NONE',  ( 0.000000000000000000, 0.000000000000000000, -1.000000000000000000 ) ) ;
#106 = DIRECTION ( 'NONE',  ( 1.000000000000000000, 0.000000000000000000, 0.000000000000000000 ) ) ;
#107 = CC_DESIGN_APPROVAL ( #40, ( #126 ) ) ;
#108 = EDGE_CURVE ( 'NONE', #118, #198, #81, .T. ) ;
#109 = AXIS2_PLACEMENT_3D ( 'NONE', #203, #180, #27 ) ;
#110 = DIRECTION ( 'NONE',  ( -0.9615239476408231623, 3.364363499376747047E-17, -0.2747211278973780701 ) ) ;
#111 = CARTESIAN_POINT ( 'NONE',  ( 7.000000000000000000, 0.000000000000000000, 0.000000000000000000 ) ) ;
#112 = PERSON_AND_ORGANIZATION ( #154, #193 ) ;
#113 = APPROVAL_ROLE ( '' ) ;
#114 = PERSON_AND_ORGANIZATION_ROLE ( 'design_supplier' ) ;
#115 = COORDINATED_UNIVERSAL_TIME_OFFSET ( 1, 0, .AHEAD. ) ;
#116 = LOCAL_TIME ( 12, 13, 51.00000000000000000, #160 ) ;
#117 = ORIENTED_EDGE ( 'NONE', *, *, #213, .F. ) ;
#118 = VERTEX_POINT ( 'NONE', #45 ) ;
#119 = ORIENTED_EDGE ( 'NONE', *, *, #141, .T. ) ;
#120 = ORIENTED_EDGE ( 'NONE', *, *, #171, .T. ) ;
#121 = ADVANCED_FACE ( 'NONE', ( #123 ), #184, .F. ) ;
#122 = CARTESIAN_POINT ( 'NONE',  ( 6.587918308153932756, 0.000000000000000000, 6.557714078538765534 ) ) ;
#123 = FACE_OUTER_BOUND ( 'NONE', #100, .T. ) ;
#124 = DIRECTION ( 'NONE',  ( 1.000000000000000000, 0.000000000000000000, 0.000000000000000000 ) ) ;
#125 = DIRECTION ( 'NONE',  ( 0.000000000000000000, 0.000000000000000000, -1.000000000000000000 ) ) ;
#126 = PRODUCT_DEFINITION_FORMATION_WITH_SPECIFIED_SOURCE ( 'ANY', '', #57, .NOT_KNOWN. ) ;
#127 = FACE_OUTER_BOUND ( 'NONE', #179, .T. ) ;
#128 = CONICAL_SURFACE ( 'NONE', #207, 8.000000000000000000, 0.2782996590051113328 ) ;
#129 = CALENDAR_DATE ( 2024, 5, 9 ) ;
#130 = APPROVAL_DATE_TIME ( #229, #40 ) ;
#131 = VECTOR ( 'NONE', #110, 1000.000000000000114 ) ;
#132 = EDGE_CURVE ( 'NONE', #214, #200, #14, .T. ) ;
#133 = UNCERTAINTY_MEASURE_WITH_UNIT (LENGTH_MEASURE( 1.000000000000000082E-05 ), #153, 'distance_accuracy_value', 'NONE');
#134 = ORIENTED_EDGE ( 'NONE', *, *, #219, .F. ) ;
#135 = CIRCLE ( 'NONE', #248, 10.00000000000000000 ) ;
#136 = SHAPE_DEFINITION_REPRESENTATION ( #195, #209 ) ;
#137 = CALENDAR_DATE ( 2024, 5, 9 ) ;
#138 = EDGE_LOOP ( 'NONE', ( #177, #119 ) ) ;
#139 = APPROVAL_PERSON_ORGANIZATION ( #52, #75, #113 ) ;
#140 = ORIENTED_EDGE ( 'NONE', *, *, #132, .T. ) ;
#141 = EDGE_CURVE ( 'NONE', #200, #198, #194, .T. ) ;
#142 = CARTESIAN_POINT ( 'NONE',  ( 7.000000000000000000, 9.797174393178825657E-16, -8.000000000000000000 ) ) ;
#143 = CARTESIAN_POINT ( 'NONE',  ( 7.000000000000000000, 4.898587196589412829E-16, -8.000000000000000000 ) ) ;
#144 = MANIFOLD_SOLID_BREP ( 'Wandung2', #59 ) ;
#145 = DIRECTION ( 'NONE',  ( 0.000000000000000000, 0.000000000000000000, -1.000000000000000000 ) ) ;
#146 = CC_DESIGN_PERSON_AND_ORGANIZATION_ASSIGNMENT ( #210, #114, ( #126 ) ) ;
#147 = FACE_OUTER_BOUND ( 'NONE', #56, .T. ) ;
#148 = DIRECTION ( 'NONE',  ( 0.000000000000000000, 0.000000000000000000, -1.000000000000000000 ) ) ;
#149 = AXIS2_PLACEMENT_3D ( 'NONE', #33, #186, #189 ) ;
#150 = AXIS2_PLACEMENT_3D ( 'NONE', #83, #167, #103 ) ;
#151 = ADVANCED_FACE ( 'NONE', ( #44 ), #55, .T. ) ;
#152 = PERSON_AND_ORGANIZATION ( #154, #193 ) ;
#153 =( LENGTH_UNIT ( ) NAMED_UNIT ( * ) SI_UNIT ( .MILLI., .METRE. ) );
#154 = PERSON ( 'UNSPECIFIED', 'UNSPECIFIED', 'UNSPECIFIED', ('UNSPECIFIED'), ('UNSPECIFIED'), ('UNSPECIFIED') ) ;
#155 = AXIS2_PLACEMENT_3D ( 'NONE', #218, #168, #26 ) ;
#156 = APPLICATION_PROTOCOL_DEFINITION ( 'international standard', 'config_control_design', 1994, #235 ) ;
#157 = VERTEX_POINT ( 'NONE', #242 ) ;
#158 = VERTEX_POINT ( 'NONE', #28 ) ;
#159 = ORIENTED_EDGE ( 'NONE', *, *, #108, .T. ) ;
#160 = COORDINATED_UNIVERSAL_TIME_OFFSET ( 1, 0, .AHEAD. ) ;
#161 = LOCAL_TIME ( 12, 13, 51.00000000000000000, #115 ) ;
#162 =( GEOMETRIC_REPRESENTATION_CONTEXT ( 3 ) GLOBAL_UNCERTAINTY_ASSIGNED_CONTEXT ( ( #133 ) ) GLOBAL_UNIT_ASSIGNED_CONTEXT ( ( #153, #88, #212 ) ) REPRESENTATION_CONTEXT ( 'NONE', 'WORKASPACE' ) );
#163 = CARTESIAN_POINT ( 'NONE',  ( 0.000000000000000000, 1.033599014718459342E-15, -8.439976452297031528 ) ) ;
#164 = CARTESIAN_POINT ( 'NONE',  ( 7.000000000000000000, 9.111343348037239963E-16, -6.439976452297031528 ) ) ;
#165 = FACE_BOUND ( 'NONE', #24, .T. ) ;
#166 = CIRCLE ( 'NONE', #217, 6.439976452297031528 ) ;
#167 = DIRECTION ( 'NONE',  ( 1.000000000000000000, 0.000000000000000000, 0.000000000000000000 ) ) ;
#168 = DIRECTION ( 'NONE',  ( 1.000000000000000000, 0.000000000000000000, 0.000000000000000000 ) ) ;
#169 = CARTESIAN_POINT ( 'NONE',  ( 7.000000000000000000, 0.000000000000000000, 8.000000000000000000 ) ) ;
#170 = DIRECTION ( 'NONE',  ( 1.000000000000000000, 0.000000000000000000, 0.000000000000000000 ) ) ;
#171 = EDGE_CURVE ( 'NONE', #157, #158, #238, .T. ) ;
#172 = COORDINATED_UNIVERSAL_TIME_OFFSET ( 1, 0, .AHEAD. ) ;
#173 = FACE_OUTER_BOUND ( 'NONE', #61, .T. ) ;
#174 = ORIENTED_EDGE ( 'NONE', *, *, #104, .F. ) ;
#175 = APPROVAL_DATE_TIME ( #74, #187 ) ;
#176 = ORIENTED_EDGE ( 'NONE', *, *, #223, .T. ) ;
#177 = ORIENTED_EDGE ( 'NONE', *, *, #104, .T. ) ;
#178 = EDGE_CURVE ( 'NONE', #118, #214, #68, .T. ) ;
#179 = EDGE_LOOP ( 'NONE', ( #234, #76 ) ) ;
#180 = DIRECTION ( 'NONE',  ( -1.000000000000000000, -0.000000000000000000, -0.000000000000000000 ) ) ;
#181 = CARTESIAN_POINT ( 'NONE',  ( 0.000000000000000000, 0.000000000000000000, 0.000000000000000000 ) ) ;
#182 = CARTESIAN_POINT ( 'NONE',  ( 7.000000000000000000, 0.000000000000000000, 0.000000000000000000 ) ) ;
#183 = DIRECTION ( 'NONE',  ( 0.000000000000000000, 0.000000000000000000, -1.000000000000000000 ) ) ;
#184 = CONICAL_SURFACE ( 'NONE', #109, 6.557714078538765534, 0.2782996590051113328 ) ;
#185 = CARTESIAN_POINT ( 'NONE',  ( 7.000000000000000000, 0.000000000000000000, 0.000000000000000000 ) ) ;
#186 = DIRECTION ( 'NONE',  ( 0.000000000000000000, 0.000000000000000000, 1.000000000000000000 ) ) ;
#187 = APPROVAL ( #22, 'UNSPECIFIED' ) ;
#188 = PERSON_AND_ORGANIZATION_ROLE ( 'creator' ) ;
#189 = DIRECTION ( 'NONE',  ( 1.000000000000000000, 0.000000000000000000, 0.000000000000000000 ) ) ;
#190 = CC_DESIGN_DATE_AND_TIME_ASSIGNMENT ( #18, #90, ( #13 ) ) ;
#191 = SECURITY_CLASSIFICATION_LEVEL ( 'unclassified' ) ;
#192 = DATE_AND_TIME ( #129, #161 ) ;
#193 = ORGANIZATION ( 'UNSPECIFIED', 'UNSPECIFIED', '' ) ;
#194 = CIRCLE ( 'NONE', #78, 8.439976452297033305 ) ;
#195 = PRODUCT_DEFINITION_SHAPE ( 'NONE', 'NONE',  #13 ) ;
#196 = CALENDAR_DATE ( 2024, 5, 9 ) ;
#197 = ADVANCED_FACE ( 'NONE', ( #147 ), #60, .F. ) ;
#198 = VERTEX_POINT ( 'NONE', #11 ) ;
#199 = ORIENTED_EDGE ( 'NONE', *, *, #35, .T. ) ;
#200 = VERTEX_POINT ( 'NONE', #163 ) ;
#201 = CARTESIAN_POINT ( 'NONE',  ( 6.587918308153932756, 8.030883556006034906E-16, -6.557714078538765534 ) ) ;
#202 = VECTOR ( 'NONE', #70, 1000.000000000000114 ) ;
#203 = CARTESIAN_POINT ( 'NONE',  ( 6.587918308153932756, 0.000000000000000000, 0.000000000000000000 ) ) ;
#204 = DIRECTION ( 'NONE',  ( -1.000000000000000000, -0.000000000000000000, -0.000000000000000000 ) ) ;
#205 = FACE_OUTER_BOUND ( 'NONE', #65, .T. ) ;
#206 = CC_DESIGN_PERSON_AND_ORGANIZATION_ASSIGNMENT ( #152, #228, ( #126 ) ) ;
#207 = AXIS2_PLACEMENT_3D ( 'NONE', #111, #2, #67 ) ;
#208 = CALENDAR_DATE ( 2024, 5, 9 ) ;
#209 = ADVANCED_BREP_SHAPE_REPRESENTATION ( '3D_M2060_20-15_174121020', ( #144, #149 ), #162 ) ;
#210 = PERSON_AND_ORGANIZATION ( #154, #193 ) ;
#211 = APPLICATION_CONTEXT ( 'configuration controlled 3d designs of mechanical parts and assemblies' ) ;
#212 =( NAMED_UNIT ( * ) SI_UNIT ( $, .STERADIAN. ) SOLID_ANGLE_UNIT ( ) );
#213 = EDGE_CURVE ( 'NONE', #41, #157, #62, .T. ) ;
#214 = VERTEX_POINT ( 'NONE', #164 ) ;
#215 = CC_DESIGN_DATE_AND_TIME_ASSIGNMENT ( #23, #92, ( #225 ) ) ;
#216 = EDGE_LOOP ( 'NONE', ( #117, #7, #58, #176 ) ) ;
#217 = AXIS2_PLACEMENT_3D ( 'NONE', #15, #30, #145 ) ;
#218 = CARTESIAN_POINT ( 'NONE',  ( 7.000000000000000000, 0.000000000000000000, 0.000000000000000000 ) ) ;
#219 = EDGE_CURVE ( 'NONE', #4, #158, #86, .T. ) ;
#220 = CARTESIAN_POINT ( 'NONE',  ( 0.000000000000000000, 0.000000000000000000, 0.000000000000000000 ) ) ;
#221 = PLANE ( 'NONE',  #31 ) ;
#222 = DIRECTION ( 'NONE',  ( -0.9615239476408231623, 0.000000000000000000, 0.2747211278973780701 ) ) ;
#223 = EDGE_CURVE ( 'NONE', #158, #157, #135, .T. ) ;
#224 = DIRECTION ( 'NONE',  ( -1.000000000000000000, -0.000000000000000000, -0.000000000000000000 ) ) ;
#225 = SECURITY_CLASSIFICATION ( '', '', #191 ) ;
#226 = AXIS2_PLACEMENT_3D ( 'NONE', #84, #244, #105 ) ;
#227 = MECHANICAL_CONTEXT ( 'NONE', #211, 'mechanical' ) ;
#228 = PERSON_AND_ORGANIZATION_ROLE ( 'creator' ) ;
#229 = DATE_AND_TIME ( #69, #77 ) ;
#230 = AXIS2_PLACEMENT_3D ( 'NONE', #182, #63, #64 ) ;
#231 = ORIENTED_EDGE ( 'NONE', *, *, #213, .T. ) ;
#232 = ORIENTED_EDGE ( 'NONE', *, *, #141, .F. ) ;
#233 = CC_DESIGN_PERSON_AND_ORGANIZATION_ASSIGNMENT ( #112, #188, ( #13 ) ) ;
#234 = ORIENTED_EDGE ( 'NONE', *, *, #223, .F. ) ;
#235 = APPLICATION_CONTEXT ( 'configuration controlled 3d designs of mechanical parts and assemblies' ) ;
#236 = LOCAL_TIME ( 12, 13, 51.00000000000000000, #53 ) ;
#237 = ORIENTED_EDGE ( 'NONE', *, *, #47, .F. ) ;
#238 = CIRCLE ( 'NONE', #150, 10.00000000000000000 ) ;
#239 = FACE_BOUND ( 'NONE', #138, .T. ) ;
#240 = ADVANCED_FACE ( 'NONE', ( #173 ), #128, .T. ) ;
#241 = CARTESIAN_POINT ( 'NONE',  ( 7.000000000000000000, 0.000000000000000000, 0.000000000000000000 ) ) ;
#242 = CARTESIAN_POINT ( 'NONE',  ( 0.000000000000000000, 1.836970198721029589E-15, -10.00000000000000000 ) ) ;
#243 = VECTOR ( 'NONE', #222, 1000.000000000000114 ) ;
#244 = DIRECTION ( 'NONE',  ( 1.000000000000000000, 0.000000000000000000, 0.000000000000000000 ) ) ;
#245 = PRODUCT_RELATED_PRODUCT_CATEGORY ( 'detail', '', ( #57 ) ) ;
#246 = PLANE ( 'NONE',  #155 ) ;
#247 = APPROVAL_PERSON_ORGANIZATION ( #37, #187, #95 ) ;
#248 = AXIS2_PLACEMENT_3D ( 'NONE', #32, #170, #1 ) ;
#249 = COORDINATED_UNIVERSAL_TIME_OFFSET ( 1, 0, .AHEAD. ) ;
ENDSEC;
END-ISO-10303-21;
