ISO-10303-21;
HEADER;
FILE_DESCRIPTION (( 'STEP AP203' ),
    '1' );
FILE_NAME ('3D_GR1382_DN15x1_18380290.STEP',
    '2024-09-23T05:57:29',
    ( '' ),
    ( '' ),
    'SwSTEP 2.0',
    'SolidWorks 2024',
    '' );
FILE_SCHEMA (( 'CONFIG_CONTROL_DESIGN' ));
ENDSEC;

DATA;
#1 = ORIENTED_EDGE ( 'NONE', *, *, #50, .F. ) ;
#2 = CIRCLE ( 'NONE', #136, 5.500000000000019540 ) ;
#3 = ADVANCED_BREP_SHAPE_REPRESENTATION ( '3D_GR1382_DN15x1_18380290', ( #72, #16 ), #301 ) ;
#4 = CALENDAR_DATE ( 2024, 23, 9 ) ;
#5 = EDGE_CURVE ( 'NONE', #189, #336, #12, .T. ) ;
#6 = ORIENTED_EDGE ( 'NONE', *, *, #296, .F. ) ;
#7 = PERSON_AND_ORGANIZATION ( #85, #295 ) ;
#8 = ORIENTED_EDGE ( 'NONE', *, *, #26, .F. ) ;
#9 = APPROVAL_DATE_TIME ( #278, #204 ) ;
#10 = DATE_AND_TIME ( #33, #71 ) ;
#11 = AXIS2_PLACEMENT_3D ( 'NONE', #320, #148, #147 ) ;
#12 = LINE ( 'NONE', #170, #284 ) ;
#13 = CARTESIAN_POINT ( 'NONE',  ( 7.000000000000584421, 0.000000000000000000, 0.000000000000000000 ) ) ;
#14 = ORIENTED_EDGE ( 'NONE', *, *, #185, .T. ) ;
#15 = CARTESIAN_POINT ( 'NONE',  ( 0.000000000000000000, 0.000000000000000000, 0.000000000000000000 ) ) ;
#16 = AXIS2_PLACEMENT_3D ( 'NONE', #229, #196, #335 ) ;
#17 = PRODUCT_RELATED_PRODUCT_CATEGORY ( 'detail', '', ( #325 ) ) ;
#18 = CARTESIAN_POINT ( 'NONE',  ( -154.8395502972293230, 0.000000000000000000, 0.000000000000000000 ) ) ;
#19 = CC_DESIGN_SECURITY_CLASSIFICATION ( #353, ( #265 ) ) ;
#20 = DIRECTION ( 'NONE',  ( 0.000000000000000000, 0.000000000000000000, 1.000000000000000000 ) ) ;
#21 = ADVANCED_FACE ( 'NONE', ( #172 ), #318, .T. ) ;
#22 = CARTESIAN_POINT ( 'NONE',  ( -2.500000000000001332, 0.000000000000000000, 7.000000000000017764 ) ) ;
#23 = CARTESIAN_POINT ( 'NONE',  ( 0.000000000000000000, 9.184850993605173582E-16, -7.500000000000018652 ) ) ;
#24 = DIRECTION ( 'NONE',  ( -1.000000000000000000, -0.000000000000000000, -0.000000000000000000 ) ) ;
#25 = CARTESIAN_POINT ( 'NONE',  ( -3.000000000000002665, 0.000000000000000000, 7.000000000000017764 ) ) ;
#26 = EDGE_CURVE ( 'NONE', #57, #86, #117, .T. ) ;
#27 = APPLICATION_PROTOCOL_DEFINITION ( 'international standard', 'config_control_design', 1994, #328 ) ;
#28 = ADVANCED_FACE ( 'NONE', ( #238 ), #260, .T. ) ;
#29 = PERSON_AND_ORGANIZATION ( #85, #295 ) ;
#30 = ORIENTED_EDGE ( 'NONE', *, *, #283, .F. ) ;
#31 = LOCAL_TIME ( 7, 57, 29.00000000000000000, #133 ) ;
#32 = CIRCLE ( 'NONE', #125, 0.5000000000000004441 ) ;
#33 = CALENDAR_DATE ( 2024, 23, 9 ) ;
#34 =( NAMED_UNIT ( * ) SI_UNIT ( $, .STERADIAN. ) SOLID_ANGLE_UNIT ( ) );
#35 = ORIENTED_EDGE ( 'NONE', *, *, #306, .T. ) ;
#36 = CC_DESIGN_APPROVAL ( #180, ( #271 ) ) ;
#37 = VECTOR ( 'NONE', #184, 1000.000000000000000 ) ;
#38 = FACE_OUTER_BOUND ( 'NONE', #41, .T. ) ;
#39 = EDGE_LOOP ( 'NONE', ( #227, #35, #14, #6 ) ) ;
#40 = DIRECTION ( 'NONE',  ( 0.000000000000000000, 0.000000000000000000, 1.000000000000000000 ) ) ;
#41 = EDGE_LOOP ( 'NONE', ( #169, #165, #221, #333 ) ) ;
#42 = ADVANCED_FACE ( 'NONE', ( #267 ), #292, .F. ) ;
#43 = DIRECTION ( 'NONE',  ( -1.000000000000000000, -0.000000000000000000, -0.000000000000000000 ) ) ;
#44 = CARTESIAN_POINT ( 'NONE',  ( -154.8395502972293230, 0.000000000000000000, 0.000000000000000000 ) ) ;
#45 = DIRECTION ( 'NONE',  ( 0.000000000000000000, 0.000000000000000000, -1.000000000000000000 ) ) ;
#46 = DIRECTION ( 'NONE',  ( -1.000000000000000000, -0.000000000000000000, -0.000000000000000000 ) ) ;
#47 = CARTESIAN_POINT ( 'NONE',  ( -2.500000000000001332, 0.000000000000000000, 0.000000000000000000 ) ) ;
#48 = ORIENTED_EDGE ( 'NONE', *, *, #126, .T. ) ;
#49 = CARTESIAN_POINT ( 'NONE',  ( -2.500000000000002220, 0.000000000000000000, 0.000000000000000000 ) ) ;
#50 = EDGE_CURVE ( 'NONE', #107, #223, #94, .T. ) ;
#51 = CARTESIAN_POINT ( 'NONE',  ( 6.000000000001170619, 7.960204194457819143E-16, -6.500000000000018652 ) ) ;
#52 = AXIS2_PLACEMENT_3D ( 'NONE', #105, #182, #275 ) ;
#53 = AXIS2_PLACEMENT_3D ( 'NONE', #68, #239, #98 ) ;
#54 = ADVANCED_FACE ( 'NONE', ( #263 ), #340, .F. ) ;
#55 = EDGE_LOOP ( 'NONE', ( #48, #197, #115, #216 ) ) ;
#56 = CALENDAR_DATE ( 2024, 23, 9 ) ;
#57 = VERTEX_POINT ( 'NONE', #346 ) ;
#58 = DATE_AND_TIME ( #304, #31 ) ;
#59 = EDGE_LOOP ( 'NONE', ( #166, #254 ) ) ;
#60 = AXIS2_PLACEMENT_3D ( 'NONE', #215, #299, #211 ) ;
#61 = DATE_AND_TIME ( #4, #177 ) ;
#62 = PERSON_AND_ORGANIZATION ( #85, #295 ) ;
#63 = ORIENTED_EDGE ( 'NONE', *, *, #310, .F. ) ;
#64 = VERTEX_POINT ( 'NONE', #95 ) ;
#65 = CIRCLE ( 'NONE', #108, 7.000000000000017764 ) ;
#66 = CIRCLE ( 'NONE', #83, 7.500000000000018652 ) ;
#67 = EDGE_CURVE ( 'NONE', #245, #247, #156, .T. ) ;
#68 = CARTESIAN_POINT ( 'NONE',  ( -154.8395502972293230, 0.000000000000000000, 0.000000000000000000 ) ) ;
#69 = CYLINDRICAL_SURFACE ( 'NONE', #253, 7.500000000000018652 ) ;
#70 = LINE ( 'NONE', #178, #314 ) ;
#71 = LOCAL_TIME ( 7, 57, 29.00000000000000000, #332 ) ;
#72 = MANIFOLD_SOLID_BREP ( 'Rotation1', #210 ) ;
#73 = DIRECTION ( 'NONE',  ( -1.000000000000000000, -0.000000000000000000, -0.000000000000000000 ) ) ;
#74 = DIRECTION ( 'NONE',  ( -1.000000000000000000, -0.000000000000000000, -0.000000000000000000 ) ) ;
#75 = LINE ( 'NONE', #158, #319 ) ;
#76 = LOCAL_TIME ( 7, 57, 29.00000000000000000, #276 ) ;
#77 = AXIS2_PLACEMENT_3D ( 'NONE', #49, #74, #300 ) ;
#78 = APPROVAL ( #256, 'UNSPECIFIED' ) ;
#79 = CARTESIAN_POINT ( 'NONE',  ( 0.000000000000000000, 0.000000000000000000, 7.500000000000018652 ) ) ;
#80 = DIRECTION ( 'NONE',  ( 0.000000000000000000, 0.000000000000000000, 1.000000000000000000 ) ) ;
#81 = DIRECTION ( 'NONE',  ( 0.000000000000000000, 0.000000000000000000, 1.000000000000000000 ) ) ;
#82 = EDGE_CURVE ( 'NONE', #336, #107, #70, .T. ) ;
#83 = AXIS2_PLACEMENT_3D ( 'NONE', #101, #352, #212 ) ;
#84 = PERSON_AND_ORGANIZATION ( #85, #295 ) ;
#85 = PERSON ( 'UNSPECIFIED', 'UNSPECIFIED', 'UNSPECIFIED', ('UNSPECIFIED'), ('UNSPECIFIED'), ('UNSPECIFIED') ) ;
#86 = VERTEX_POINT ( 'NONE', #150 ) ;
#87 = AXIS2_PLACEMENT_3D ( 'NONE', #242, #351, #80 ) ;
#88 = EDGE_CURVE ( 'NONE', #57, #189, #2, .T. ) ;
#89 = SECURITY_CLASSIFICATION_LEVEL ( 'unclassified' ) ;
#90 = ORIENTED_EDGE ( 'NONE', *, *, #258, .T. ) ;
#91 = EDGE_LOOP ( 'NONE', ( #187, #90, #168, #257 ) ) ;
#92 = DIRECTION ( 'NONE',  ( 0.000000000000000000, 0.000000000000000000, 1.000000000000000000 ) ) ;
#93 = EDGE_CURVE ( 'NONE', #223, #107, #144, .T. ) ;
#94 = CIRCLE ( 'NONE', #11, 6.500000000000018652 ) ;
#95 = CARTESIAN_POINT ( 'NONE',  ( -3.000000000000002665, 8.878689293818333740E-16, -7.000000000000017764 ) ) ;
#96 = CARTESIAN_POINT ( 'NONE',  ( 6.000000000001170619, 0.000000000000000000, 0.000000000000000000 ) ) ;
#97 = CARTESIAN_POINT ( 'NONE',  ( 0.000000000000000000, 0.000000000000000000, 0.000000000000000000 ) ) ;
#98 = DIRECTION ( 'NONE',  ( 0.000000000000000000, 0.000000000000000000, 1.000000000000000000 ) ) ;
#99 = AXIS2_PLACEMENT_3D ( 'NONE', #15, #146, #92 ) ;
#100 = CARTESIAN_POINT ( 'NONE',  ( -3.000000000000002665, 0.000000000000000000, 0.000000000000000000 ) ) ;
#101 = CARTESIAN_POINT ( 'NONE',  ( 0.000000000000000000, 0.000000000000000000, 0.000000000000000000 ) ) ;
#102 = ADVANCED_FACE ( 'NONE', ( #236 ), #123, .T. ) ;
#103 = DIRECTION ( 'NONE',  ( 0.000000000000000000, -1.224646799147353454E-16, 1.000000000000000000 ) ) ;
#104 = DIRECTION ( 'NONE',  ( -1.000000000000000000, -0.000000000000000000, -0.000000000000000000 ) ) ;
#105 = CARTESIAN_POINT ( 'NONE',  ( -2.500000000000002220, 0.000000000000000000, 0.000000000000000000 ) ) ;
#106 = SHAPE_DEFINITION_REPRESENTATION ( #213, #3 ) ;
#107 = VERTEX_POINT ( 'NONE', #343 ) ;
#108 = AXIS2_PLACEMENT_3D ( 'NONE', #100, #46, #81 ) ;
#109 = AXIS2_PLACEMENT_3D ( 'NONE', #97, #43, #206 ) ;
#110 = DATE_TIME_ROLE ( 'classification_date' ) ;
#111 = PERSON_AND_ORGANIZATION_ROLE ( 'creator' ) ;
#112 = ADVANCED_FACE ( 'NONE', ( #315 ), #341, .T. ) ;
#113 = MECHANICAL_CONTEXT ( 'NONE', #311, 'mechanical' ) ;
#114 = AXIS2_PLACEMENT_3D ( 'NONE', #243, #186, #159 ) ;
#115 = ORIENTED_EDGE ( 'NONE', *, *, #93, .F. ) ;
#116 = CC_DESIGN_PERSON_AND_ORGANIZATION_ASSIGNMENT ( #161, #111, ( #271 ) ) ;
#117 = LINE ( 'NONE', #232, #173 ) ;
#118 = VERTEX_POINT ( 'NONE', #209 ) ;
#119 = DIRECTION ( 'NONE',  ( -1.000000000000000000, -0.000000000000000000, -0.000000000000000000 ) ) ;
#120 = DIRECTION ( 'NONE',  ( -1.000000000000000000, -0.000000000000000000, -0.000000000000000000 ) ) ;
#121 = ORIENTED_EDGE ( 'NONE', *, *, #219, .F. ) ;
#122 = DIRECTION ( 'NONE',  ( -1.000000000000000000, -0.000000000000000000, -0.000000000000000000 ) ) ;
#123 = CYLINDRICAL_SURFACE ( 'NONE', #348, 6.500000000000018652 ) ;
#124 = DIRECTION ( 'NONE',  ( -1.000000000000000000, -0.000000000000000000, -0.000000000000000000 ) ) ;
#125 = AXIS2_PLACEMENT_3D ( 'NONE', #354, #244, #103 ) ;
#126 = EDGE_CURVE ( 'NONE', #86, #336, #188, .T. ) ;
#127 = DIRECTION ( 'NONE',  ( 0.000000000000000000, 0.000000000000000000, 1.000000000000000000 ) ) ;
#128 = DIRECTION ( 'NONE',  ( 0.000000000000000000, 0.000000000000000000, 1.000000000000000000 ) ) ;
#129 = FACE_OUTER_BOUND ( 'NONE', #141, .T. ) ;
#130 =( LENGTH_UNIT ( ) NAMED_UNIT ( * ) SI_UNIT ( .MILLI., .METRE. ) );
#131 = DATE_TIME_ROLE ( 'creation_date' ) ;
#132 = ORIENTED_EDGE ( 'NONE', *, *, #126, .F. ) ;
#133 = COORDINATED_UNIVERSAL_TIME_OFFSET ( 1, 0, .AHEAD. ) ;
#134 = EDGE_LOOP ( 'NONE', ( #250, #30 ) ) ;
#135 = CIRCLE ( 'NONE', #52, 7.500000000000018652 ) ;
#136 = AXIS2_PLACEMENT_3D ( 'NONE', #203, #120, #40 ) ;
#137 = PERSON_AND_ORGANIZATION_ROLE ( 'design_supplier' ) ;
#138 = CC_DESIGN_PERSON_AND_ORGANIZATION_ASSIGNMENT ( #62, #224, ( #353 ) ) ;
#139 = ORIENTED_EDGE ( 'NONE', *, *, #334, .F. ) ;
#140 = PERSON_AND_ORGANIZATION ( #85, #295 ) ;
#141 = EDGE_LOOP ( 'NONE', ( #199, #355, #63, #225 ) ) ;
#142 = APPROVAL_PERSON_ORGANIZATION ( #249, #204, #337 ) ;
#143 = ADVANCED_FACE ( 'NONE', ( #38 ), #69, .T. ) ;
#144 = CIRCLE ( 'NONE', #99, 6.500000000000018652 ) ;
#145 = DIRECTION ( 'NONE',  ( 0.000000000000000000, 0.000000000000000000, 1.000000000000000000 ) ) ;
#146 = DIRECTION ( 'NONE',  ( -1.000000000000000000, -0.000000000000000000, -0.000000000000000000 ) ) ;
#147 = DIRECTION ( 'NONE',  ( 0.000000000000000000, 0.000000000000000000, 1.000000000000000000 ) ) ;
#148 = DIRECTION ( 'NONE',  ( -1.000000000000000000, -0.000000000000000000, -0.000000000000000000 ) ) ;
#149 = ADVANCED_FACE ( 'NONE', ( #261 ), #183, .T. ) ;
#150 = CARTESIAN_POINT ( 'NONE',  ( 6.000000000001170619, 0.000000000000000000, 6.500000000000018652 ) ) ;
#151 = CC_DESIGN_APPROVAL ( #78, ( #353 ) ) ;
#152 = DIRECTION ( 'NONE',  ( -0.000000000000000000, 0.000000000000000000, 1.000000000000000000 ) ) ;
#153 = EDGE_CURVE ( 'NONE', #118, #64, #32, .T. ) ;
#154 = CIRCLE ( 'NONE', #114, 6.500000000000018652 ) ;
#155 = CARTESIAN_POINT ( 'NONE',  ( -154.8395502972293230, 0.000000000000000000, 7.500000000000018652 ) ) ;
#156 = CIRCLE ( 'NONE', #109, 7.500000000000018652 ) ;
#157 = CARTESIAN_POINT ( 'NONE',  ( -2.500000000000002220, 0.000000000000000000, 7.500000000000018652 ) ) ;
#158 = CARTESIAN_POINT ( 'NONE',  ( -154.8395502972293230, 9.184850993605173582E-16, -7.500000000000018652 ) ) ;
#159 = DIRECTION ( 'NONE',  ( 0.000000000000000000, 0.000000000000000000, 1.000000000000000000 ) ) ;
#160 = AXIS2_PLACEMENT_3D ( 'NONE', #356, #24, #127 ) ;
#161 = PERSON_AND_ORGANIZATION ( #85, #295 ) ;
#162 = APPROVAL_ROLE ( '' ) ;
#163 = CC_DESIGN_PERSON_AND_ORGANIZATION_ASSIGNMENT ( #7, #137, ( #265 ) ) ;
#164 = PERSON_AND_ORGANIZATION ( #85, #295 ) ;
#165 = ORIENTED_EDGE ( 'NONE', *, *, #219, .T. ) ;
#166 = ORIENTED_EDGE ( 'NONE', *, *, #310, .T. ) ;
#167 = APPROVAL_STATUS ( 'not_yet_approved' ) ;
#168 = ORIENTED_EDGE ( 'NONE', *, *, #248, .F. ) ;
#169 = ORIENTED_EDGE ( 'NONE', *, *, #258, .F. ) ;
#170 = CARTESIAN_POINT ( 'NONE',  ( 7.000000000001172396, 6.735557395310466675E-16, -5.500000000000019540 ) ) ;
#171 = AXIS2_PLACEMENT_3D ( 'NONE', #22, #181, #268 ) ;
#172 = FACE_OUTER_BOUND ( 'NONE', #331, .T. ) ;
#173 = VECTOR ( 'NONE', #266, 1000.000000000000000 ) ;
#174 = DIRECTION ( 'NONE',  ( 0.000000000000000000, 0.000000000000000000, 1.000000000000000000 ) ) ;
#175 = EDGE_CURVE ( 'NONE', #245, #233, #327, .T. ) ;
#176 = CARTESIAN_POINT ( 'NONE',  ( -154.8395502972293230, 0.000000000000000000, 0.000000000000000000 ) ) ;
#177 = LOCAL_TIME ( 7, 57, 29.00000000000000000, #222 ) ;
#178 = CARTESIAN_POINT ( 'NONE',  ( -154.8395502972293230, 7.960204194457819143E-16, -6.500000000000018652 ) ) ;
#179 = DIRECTION ( 'NONE',  ( 0.000000000000000000, 0.000000000000000000, 1.000000000000000000 ) ) ;
#180 = APPROVAL ( #330, 'UNSPECIFIED' ) ;
#181 = DIRECTION ( 'NONE',  ( 0.000000000000000000, -1.000000000000000000, 0.000000000000000000 ) ) ;
#182 = DIRECTION ( 'NONE',  ( -1.000000000000000000, -0.000000000000000000, -0.000000000000000000 ) ) ;
#183 = TOROIDAL_SURFACE ( 'NONE', #285, 7.000000000000017764, 0.5000000000000004441 ) ;
#184 = DIRECTION ( 'NONE',  ( -1.000000000000000000, -0.000000000000000000, -0.000000000000000000 ) ) ;
#185 = EDGE_CURVE ( 'NONE', #233, #279, #329, .T. ) ;
#186 = DIRECTION ( 'NONE',  ( -1.000000000000000000, -0.000000000000000000, -0.000000000000000000 ) ) ;
#187 = ORIENTED_EDGE ( 'NONE', *, *, #67, .T. ) ;
#188 = CIRCLE ( 'NONE', #297, 6.500000000000018652 ) ;
#189 = VERTEX_POINT ( 'NONE', #246 ) ;
#190 = APPLICATION_PROTOCOL_DEFINITION ( 'international standard', 'config_control_design', 1994, #311 ) ;
#191 = CC_DESIGN_DATE_AND_TIME_ASSIGNMENT ( #61, #110, ( #353 ) ) ;
#192 = AXIS2_PLACEMENT_3D ( 'NONE', #18, #122, #174 ) ;
#193 =( NAMED_UNIT ( * ) PLANE_ANGLE_UNIT ( ) SI_UNIT ( $, .RADIAN. ) );
#194 = ORIENTED_EDGE ( 'NONE', *, *, #26, .T. ) ;
#195 = DATE_AND_TIME ( #56, #76 ) ;
#196 = DIRECTION ( 'NONE',  ( 0.000000000000000000, 0.000000000000000000, 1.000000000000000000 ) ) ;
#197 = ORIENTED_EDGE ( 'NONE', *, *, #82, .T. ) ;
#198 = UNCERTAINTY_MEASURE_WITH_UNIT (LENGTH_MEASURE( 1.000000000000000082E-05 ), #130, 'distance_accuracy_value', 'NONE');
#199 = ORIENTED_EDGE ( 'NONE', *, *, #248, .T. ) ;
#200 = ORIENTED_EDGE ( 'NONE', *, *, #82, .F. ) ;
#201 = DIRECTION ( 'NONE',  ( 0.000000000000000000, 0.000000000000000000, 1.000000000000000000 ) ) ;
#202 = AXIS2_PLACEMENT_3D ( 'NONE', #264, #287, #45 ) ;
#203 = CARTESIAN_POINT ( 'NONE',  ( 7.000000000001172396, 0.000000000000000000, 0.000000000000000000 ) ) ;
#204 = APPROVAL ( #167, 'UNSPECIFIED' ) ;
#205 = DIRECTION ( 'NONE',  ( -0.7071067811865482389, 8.659560562354925463E-17, -0.7071067811865469066 ) ) ;
#206 = DIRECTION ( 'NONE',  ( 0.000000000000000000, 0.000000000000000000, 1.000000000000000000 ) ) ;
#207 = CIRCLE ( 'NONE', #77, 7.500000000000018652 ) ;
#208 = EDGE_CURVE ( 'NONE', #86, #223, #273, .T. ) ;
#209 = CARTESIAN_POINT ( 'NONE',  ( -2.500000000000002220, 9.184850993605173582E-16, -7.500000000000018652 ) ) ;
#210 = CLOSED_SHELL ( 'NONE', ( #317, #112, #102, #322, #42, #28, #21, #214, #143, #149, #54 ) ) ;
#211 = DIRECTION ( 'NONE',  ( 0.000000000000000000, 0.000000000000000000, 1.000000000000000000 ) ) ;
#212 = DIRECTION ( 'NONE',  ( 0.000000000000000000, 0.000000000000000000, 1.000000000000000000 ) ) ;
#213 = PRODUCT_DEFINITION_SHAPE ( 'NONE', 'NONE',  #271 ) ;
#214 = ADVANCED_FACE ( 'NONE', ( #241, #298 ), #294, .F. ) ;
#215 = CARTESIAN_POINT ( 'NONE',  ( -2.500000000000001332, 0.000000000000000000, 0.000000000000000000 ) ) ;
#216 = ORIENTED_EDGE ( 'NONE', *, *, #208, .F. ) ;
#217 = CARTESIAN_POINT ( 'NONE',  ( -154.8395502972293230, 0.000000000000000000, 6.500000000000018652 ) ) ;
#218 = CIRCLE ( 'NONE', #87, 7.000000000000017764 ) ;
#219 = EDGE_CURVE ( 'NONE', #247, #245, #66, .T. ) ;
#220 = AXIS2_PLACEMENT_3D ( 'NONE', #326, #270, #152 ) ;
#221 = ORIENTED_EDGE ( 'NONE', *, *, #175, .T. ) ;
#222 = COORDINATED_UNIVERSAL_TIME_OFFSET ( 1, 0, .AHEAD. ) ;
#223 = VERTEX_POINT ( 'NONE', #324 ) ;
#224 = PERSON_AND_ORGANIZATION_ROLE ( 'classification_officer' ) ;
#225 = ORIENTED_EDGE ( 'NONE', *, *, #185, .F. ) ;
#226 = APPROVAL_DATE_TIME ( #58, #180 ) ;
#227 = ORIENTED_EDGE ( 'NONE', *, *, #153, .F. ) ;
#228 = APPROVAL_PERSON_ORGANIZATION ( #140, #78, #259 ) ;
#229 = CARTESIAN_POINT ( 'NONE',  ( 0.000000000000000000, 0.000000000000000000, 0.000000000000000000 ) ) ;
#230 = ORIENTED_EDGE ( 'NONE', *, *, #5, .T. ) ;
#231 = DESIGN_CONTEXT ( 'detailed design', #328, 'design' ) ;
#232 = CARTESIAN_POINT ( 'NONE',  ( 7.000000000001172396, 0.000000000000000000, 5.500000000000019540 ) ) ;
#233 = VERTEX_POINT ( 'NONE', #157 ) ;
#234 = DIRECTION ( 'NONE',  ( -1.000000000000000000, -0.000000000000000000, -0.000000000000000000 ) ) ;
#235 = VECTOR ( 'NONE', #104, 1000.000000000000000 ) ;
#236 = FACE_OUTER_BOUND ( 'NONE', #55, .T. ) ;
#237 = ORIENTED_EDGE ( 'NONE', *, *, #208, .T. ) ;
#238 = FACE_OUTER_BOUND ( 'NONE', #339, .T. ) ;
#239 = DIRECTION ( 'NONE',  ( -1.000000000000000000, -0.000000000000000000, -0.000000000000000000 ) ) ;
#240 = CIRCLE ( 'NONE', #160, 5.500000000000019540 ) ;
#241 = FACE_OUTER_BOUND ( 'NONE', #309, .T. ) ;
#242 = CARTESIAN_POINT ( 'NONE',  ( -3.000000000000002665, 0.000000000000000000, 0.000000000000000000 ) ) ;
#243 = CARTESIAN_POINT ( 'NONE',  ( 6.000000000001170619, 0.000000000000000000, 0.000000000000000000 ) ) ;
#244 = DIRECTION ( 'NONE',  ( -0.000000000000000000, 1.000000000000000000, 1.224646799147353207E-16 ) ) ;
#245 = VERTEX_POINT ( 'NONE', #79 ) ;
#246 = CARTESIAN_POINT ( 'NONE',  ( 7.000000000001172396, 7.347880794884142416E-16, -5.500000000000019540 ) ) ;
#247 = VERTEX_POINT ( 'NONE', #23 ) ;
#248 = EDGE_CURVE ( 'NONE', #233, #118, #207, .T. ) ;
#249 = PERSON_AND_ORGANIZATION ( #85, #295 ) ;
#250 = ORIENTED_EDGE ( 'NONE', *, *, #88, .F. ) ;
#251 = PERSON_AND_ORGANIZATION_ROLE ( 'creator' ) ;
#252 = CONICAL_SURFACE ( 'NONE', #342, 5.500000000000019540, 0.7853981633974473908 ) ;
#253 = AXIS2_PLACEMENT_3D ( 'NONE', #44, #312, #145 ) ;
#254 = ORIENTED_EDGE ( 'NONE', *, *, #296, .T. ) ;
#255 = PERSON_AND_ORGANIZATION_ROLE ( 'design_owner' ) ;
#256 = APPROVAL_STATUS ( 'not_yet_approved' ) ;
#257 = ORIENTED_EDGE ( 'NONE', *, *, #175, .F. ) ;
#258 = EDGE_CURVE ( 'NONE', #247, #118, #75, .T. ) ;
#259 = APPROVAL_ROLE ( '' ) ;
#260 = CONICAL_SURFACE ( 'NONE', #269, 5.500000000000019540, 0.7853981633974473908 ) ;
#261 = FACE_OUTER_BOUND ( 'NONE', #39, .T. ) ;
#262 = CC_DESIGN_PERSON_AND_ORGANIZATION_ASSIGNMENT ( #29, #251, ( #265 ) ) ;
#263 = FACE_OUTER_BOUND ( 'NONE', #59, .T. ) ;
#264 = CARTESIAN_POINT ( 'NONE',  ( -3.000000000000001332, 7.000000000000017764, 0.000000000000000000 ) ) ;
#265 = PRODUCT_DEFINITION_FORMATION_WITH_SPECIFIED_SOURCE ( 'ANY', '', #325, .NOT_KNOWN. ) ;
#266 = DIRECTION ( 'NONE',  ( -0.7071067811865482389, 0.000000000000000000, 0.7071067811865469066 ) ) ;
#267 = FACE_OUTER_BOUND ( 'NONE', #134, .T. ) ;
#268 = DIRECTION ( 'NONE',  ( 0.000000000000000000, 0.000000000000000000, -1.000000000000000000 ) ) ;
#269 = AXIS2_PLACEMENT_3D ( 'NONE', #289, #290, #20 ) ;
#270 = DIRECTION ( 'NONE',  ( -1.000000000000000000, 0.000000000000000000, -0.000000000000000000 ) ) ;
#271 = PRODUCT_DEFINITION ( 'UNKNOWN', '', #265, #231 ) ;
#272 = DIRECTION ( 'NONE',  ( 0.000000000000000000, 0.000000000000000000, 1.000000000000000000 ) ) ;
#273 = LINE ( 'NONE', #217, #235 ) ;
#274 = ORIENTED_EDGE ( 'NONE', *, *, #88, .T. ) ;
#275 = DIRECTION ( 'NONE',  ( 0.000000000000000000, 0.000000000000000000, 1.000000000000000000 ) ) ;
#276 = COORDINATED_UNIVERSAL_TIME_OFFSET ( 1, 0, .AHEAD. ) ;
#277 = ORIENTED_EDGE ( 'NONE', *, *, #93, .T. ) ;
#278 = DATE_AND_TIME ( #280, #347 ) ;
#279 = VERTEX_POINT ( 'NONE', #25 ) ;
#280 = CALENDAR_DATE ( 2024, 23, 9 ) ;
#281 = CC_DESIGN_APPROVAL ( #204, ( #265 ) ) ;
#282 = EDGE_LOOP ( 'NONE', ( #277, #305 ) ) ;
#283 = EDGE_CURVE ( 'NONE', #189, #57, #240, .T. ) ;
#284 = VECTOR ( 'NONE', #205, 1000.000000000000000 ) ;
#285 = AXIS2_PLACEMENT_3D ( 'NONE', #47, #124, #272 ) ;
#286 = CC_DESIGN_PERSON_AND_ORGANIZATION_ASSIGNMENT ( #164, #255, ( #325 ) ) ;
#287 = DIRECTION ( 'NONE',  ( 1.000000000000000000, 0.000000000000000000, 0.000000000000000000 ) ) ;
#288 = ORIENTED_EDGE ( 'NONE', *, *, #67, .F. ) ;
#289 = CARTESIAN_POINT ( 'NONE',  ( 7.000000000001172396, 0.000000000000000000, 0.000000000000000000 ) ) ;
#290 = DIRECTION ( 'NONE',  ( -1.000000000000000000, -0.000000000000000000, -0.000000000000000000 ) ) ;
#291 = APPROVAL_PERSON_ORGANIZATION ( #84, #180, #162 ) ;
#292 = PLANE ( 'NONE',  #302 ) ;
#293 = DIRECTION ( 'NONE',  ( -1.000000000000000000, -0.000000000000000000, -0.000000000000000000 ) ) ;
#294 = PLANE ( 'NONE',  #220 ) ;
#295 = ORGANIZATION ( 'UNSPECIFIED', 'UNSPECIFIED', '' ) ;
#296 = EDGE_CURVE ( 'NONE', #64, #279, #218, .T. ) ;
#297 = AXIS2_PLACEMENT_3D ( 'NONE', #96, #73, #179 ) ;
#298 = FACE_BOUND ( 'NONE', #282, .T. ) ;
#299 = DIRECTION ( 'NONE',  ( -1.000000000000000000, -0.000000000000000000, -0.000000000000000000 ) ) ;
#300 = DIRECTION ( 'NONE',  ( 0.000000000000000000, 0.000000000000000000, 1.000000000000000000 ) ) ;
#301 =( GEOMETRIC_REPRESENTATION_CONTEXT ( 3 ) GLOBAL_UNCERTAINTY_ASSIGNED_CONTEXT ( ( #198 ) ) GLOBAL_UNIT_ASSIGNED_CONTEXT ( ( #130, #193, #34 ) ) REPRESENTATION_CONTEXT ( 'NONE', 'WORKASPACE' ) );
#302 = AXIS2_PLACEMENT_3D ( 'NONE', #13, #345, #316 ) ;
#303 = EDGE_LOOP ( 'NONE', ( #274, #230, #132, #8 ) ) ;
#304 = CALENDAR_DATE ( 2024, 23, 9 ) ;
#305 = ORIENTED_EDGE ( 'NONE', *, *, #50, .T. ) ;
#306 = EDGE_CURVE ( 'NONE', #118, #233, #135, .T. ) ;
#307 = COORDINATED_UNIVERSAL_TIME_OFFSET ( 1, 0, .AHEAD. ) ;
#308 = ORIENTED_EDGE ( 'NONE', *, *, #5, .F. ) ;
#309 = EDGE_LOOP ( 'NONE', ( #288, #121 ) ) ;
#310 = EDGE_CURVE ( 'NONE', #279, #64, #65, .T. ) ;
#311 = APPLICATION_CONTEXT ( 'configuration controlled 3d designs of mechanical parts and assemblies' ) ;
#312 = DIRECTION ( 'NONE',  ( -1.000000000000000000, -0.000000000000000000, -0.000000000000000000 ) ) ;
#313 = TOROIDAL_SURFACE ( 'NONE', #60, 7.000000000000017764, 0.5000000000000004441 ) ;
#314 = VECTOR ( 'NONE', #119, 1000.000000000000000 ) ;
#315 = FACE_OUTER_BOUND ( 'NONE', #91, .T. ) ;
#316 = DIRECTION ( 'NONE',  ( -0.000000000000000000, 0.000000000000000000, 1.000000000000000000 ) ) ;
#317 = ADVANCED_FACE ( 'NONE', ( #129 ), #313, .T. ) ;
#318 = CYLINDRICAL_SURFACE ( 'NONE', #192, 6.500000000000018652 ) ;
#319 = VECTOR ( 'NONE', #350, 1000.000000000000000 ) ;
#320 = CARTESIAN_POINT ( 'NONE',  ( 0.000000000000000000, 0.000000000000000000, 0.000000000000000000 ) ) ;
#321 = FACE_OUTER_BOUND ( 'NONE', #303, .T. ) ;
#322 = ADVANCED_FACE ( 'NONE', ( #321 ), #252, .T. ) ;
#323 = CARTESIAN_POINT ( 'NONE',  ( 7.000000000001172396, 0.000000000000000000, 0.000000000000000000 ) ) ;
#324 = CARTESIAN_POINT ( 'NONE',  ( 0.000000000000000000, 0.000000000000000000, 6.500000000000018652 ) ) ;
#325 = PRODUCT ( '3D_GR1382_DN15x1_18380290', '3D_GR1382_DN15x1_18380290', '', ( #113 ) ) ;
#326 = CARTESIAN_POINT ( 'NONE',  ( -6.123233995736136180E-16, 6.500000000000018652, 0.000000000000000000 ) ) ;
#327 = LINE ( 'NONE', #155, #37 ) ;
#328 = APPLICATION_CONTEXT ( 'configuration controlled 3d designs of mechanical parts and assemblies' ) ;
#329 = CIRCLE ( 'NONE', #171, 0.5000000000000004441 ) ;
#330 = APPROVAL_STATUS ( 'not_yet_approved' ) ;
#331 = EDGE_LOOP ( 'NONE', ( #200, #357, #237, #1 ) ) ;
#332 = COORDINATED_UNIVERSAL_TIME_OFFSET ( 1, 0, .AHEAD. ) ;
#333 = ORIENTED_EDGE ( 'NONE', *, *, #306, .F. ) ;
#334 = EDGE_CURVE ( 'NONE', #336, #86, #154, .T. ) ;
#335 = DIRECTION ( 'NONE',  ( 1.000000000000000000, 0.000000000000000000, 0.000000000000000000 ) ) ;
#336 = VERTEX_POINT ( 'NONE', #51 ) ;
#337 = APPROVAL_ROLE ( '' ) ;
#338 = APPROVAL_DATE_TIME ( #10, #78 ) ;
#339 = EDGE_LOOP ( 'NONE', ( #308, #344, #194, #139 ) ) ;
#340 = PLANE ( 'NONE',  #202 ) ;
#341 = CYLINDRICAL_SURFACE ( 'NONE', #53, 7.500000000000018652 ) ;
#342 = AXIS2_PLACEMENT_3D ( 'NONE', #323, #293, #128 ) ;
#343 = CARTESIAN_POINT ( 'NONE',  ( 0.000000000000000000, 7.960204194457819143E-16, -6.500000000000018652 ) ) ;
#344 = ORIENTED_EDGE ( 'NONE', *, *, #283, .T. ) ;
#345 = DIRECTION ( 'NONE',  ( -1.000000000000000000, 0.000000000000000000, -0.000000000000000000 ) ) ;
#346 = CARTESIAN_POINT ( 'NONE',  ( 7.000000000001172396, 0.000000000000000000, 5.500000000000019540 ) ) ;
#347 = LOCAL_TIME ( 7, 57, 29.00000000000000000, #307 ) ;
#348 = AXIS2_PLACEMENT_3D ( 'NONE', #176, #234, #201 ) ;
#349 = CC_DESIGN_DATE_AND_TIME_ASSIGNMENT ( #195, #131, ( #271 ) ) ;
#350 = DIRECTION ( 'NONE',  ( -1.000000000000000000, -0.000000000000000000, -0.000000000000000000 ) ) ;
#351 = DIRECTION ( 'NONE',  ( -1.000000000000000000, -0.000000000000000000, -0.000000000000000000 ) ) ;
#352 = DIRECTION ( 'NONE',  ( -1.000000000000000000, -0.000000000000000000, -0.000000000000000000 ) ) ;
#353 = SECURITY_CLASSIFICATION ( '', '', #89 ) ;
#354 = CARTESIAN_POINT ( 'NONE',  ( -2.500000000000001332, 8.572527594031493897E-16, -7.000000000000017764 ) ) ;
#355 = ORIENTED_EDGE ( 'NONE', *, *, #153, .T. ) ;
#356 = CARTESIAN_POINT ( 'NONE',  ( 7.000000000001172396, 0.000000000000000000, 0.000000000000000000 ) ) ;
#357 = ORIENTED_EDGE ( 'NONE', *, *, #334, .T. ) ;
ENDSEC;
END-ISO-10303-21;
