ISO-10303-21;
HEADER;
FILE_DESCRIPTION (( 'STEP AP203' ),
    '1' );
FILE_NAME ('OT214-300-306x3_OSTP.step',
    '2021-02-10T12:51:30',
    ( '' ),
    ( '' ),
    'SwSTEP 2.0',
    'SolidWorks 2014',
    '' );
FILE_SCHEMA (( 'CONFIG_CONTROL_DESIGN' ));
ENDSEC;

DATA;
#1 = DATE_TIME_ROLE ( 'classification_date' ) ;
#2 = TOROIDAL_SURFACE ( 'NONE', #112, 400.0000000000000000, 153.0000000000000000 ) ;
#3 = PERSON_AND_ORGANIZATION_ROLE ( 'design_supplier' ) ;
#4 =( GEOMETRIC_REPRESENTATION_CONTEXT ( 3 ) GLOBAL_UNCERTAINTY_ASSIGNED_CONTEXT ( ( #109 ) ) GLOBAL_UNIT_ASSIGNED_CONTEXT ( ( #54, #141, #23 ) ) REPRESENTATION_CONTEXT ( 'NONE', 'WORKASPACE' ) );
#5 = ORIENTED_EDGE ( 'NONE', *, *, #146, .F. ) ;
#6 = EDGE_CURVE ( 'NONE', #215, #21, #10, .T. ) ;
#7 = CIRCLE ( 'NONE', #143, 153.0000000000000000 ) ;
#8 = PERSON_AND_ORGANIZATION ( #78, #236 ) ;
#9 = VERTEX_POINT ( 'NONE', #195 ) ;
#10 = CIRCLE ( 'NONE', #249, 553.0000000000000000 ) ;
#11 = AXIS2_PLACEMENT_3D ( 'NONE', #88, #247, #53 ) ;
#12 = DIRECTION ( 'NONE',  ( 0.0000000000000000000, 0.0000000000000000000, 1.000000000000000000 ) ) ;
#13 = ORIENTED_EDGE ( 'NONE', *, *, #6, .F. ) ;
#14 = DATE_AND_TIME ( #207, #183 ) ;
#15 = CARTESIAN_POINT ( 'NONE',  ( 399.9999999999998900, 553.0000000000000000, 0.0000000000000000000 ) ) ;
#16 = CC_DESIGN_APPROVAL ( #80, ( #26 ) ) ;
#17 = CARTESIAN_POINT ( 'NONE',  ( 399.9999999999999400, 400.0000000000000000, 0.0000000000000000000 ) ) ;
#18 = EDGE_LOOP ( 'NONE', ( #155, #227 ) ) ;
#19 = DIRECTION ( 'NONE',  ( 0.0000000000000000000, 1.000000000000000000, 0.0000000000000000000 ) ) ;
#20 = APPROVAL ( #163, 'UNSPECIFIED' ) ;
#21 = VERTEX_POINT ( 'NONE', #115 ) ;
#22 = CIRCLE ( 'NONE', #188, 150.0000000000000300 ) ;
#23 =( NAMED_UNIT ( * ) SI_UNIT ( $, .STERADIAN. ) SOLID_ANGLE_UNIT ( ) );
#24 = SHAPE_DEFINITION_REPRESENTATION ( #37, #120 ) ;
#25 = SECURITY_CLASSIFICATION_LEVEL ( 'unclassified' ) ;
#26 = PRODUCT_DEFINITION_FORMATION_WITH_SPECIFIED_SOURCE ( 'ANY', '', #57, .NOT_KNOWN. ) ;
#27 = TOROIDAL_SURFACE ( 'NONE', #216, 400.0000000000000000, 153.0000000000000000 ) ;
#28 = ORIENTED_EDGE ( 'NONE', *, *, #166, .F. ) ;
#29 = EDGE_CURVE ( 'NONE', #93, #130, #219, .T. ) ;
#30 = CARTESIAN_POINT ( 'NONE',  ( 150.0000000000000000, 0.0000000000000000000, -1.836970198721029400E-014 ) ) ;
#31 = CC_DESIGN_APPROVAL ( #20, ( #81 ) ) ;
#32 = COORDINATED_UNIVERSAL_TIME_OFFSET ( 1, 0, .AHEAD. ) ;
#33 = CARTESIAN_POINT ( 'NONE',  ( 400.0000000000000000, 0.0000000000000000000, 0.0000000000000000000 ) ) ;
#34 = DIRECTION ( 'NONE',  ( 0.0000000000000000000, 0.0000000000000000000, 1.000000000000000000 ) ) ;
#35 = EDGE_LOOP ( 'NONE', ( #235, #65 ) ) ;
#36 = PLANE ( 'NONE',  #164 ) ;
#37 = PRODUCT_DEFINITION_SHAPE ( 'NONE', 'NONE',  #226 ) ;
#38 = CC_DESIGN_PERSON_AND_ORGANIZATION_ASSIGNMENT ( #119, #138, ( #26 ) ) ;
#39 = APPLICATION_CONTEXT ( 'configuration controlled 3d designs of mechanical parts and assemblies' ) ;
#40 = ORIENTED_EDGE ( 'NONE', *, *, #205, .T. ) ;
#41 = APPROVAL_PERSON_ORGANIZATION ( #122, #94, #139 ) ;
#42 = AXIS2_PLACEMENT_3D ( 'NONE', #232, #178, #152 ) ;
#43 = TOROIDAL_SURFACE ( 'NONE', #64, 400.0000000000000000, 150.0000000000000000 ) ;
#44 = ORIENTED_EDGE ( 'NONE', *, *, #181, .T. ) ;
#45 = AXIS2_PLACEMENT_3D ( 'NONE', #203, #51, #202 ) ;
#46 = DIRECTION ( 'NONE',  ( 0.0000000000000000000, 0.0000000000000000000, 1.000000000000000000 ) ) ;
#47 = DIRECTION ( 'NONE',  ( 0.0000000000000000000, 0.0000000000000000000, 1.000000000000000000 ) ) ;
#48 = CARTESIAN_POINT ( 'NONE',  ( 400.0000000000000000, 400.0000000000000000, 0.0000000000000000000 ) ) ;
#49 = DIRECTION ( 'NONE',  ( 0.0000000000000000000, 0.0000000000000000000, 1.000000000000000000 ) ) ;
#50 = CC_DESIGN_DATE_AND_TIME_ASSIGNMENT ( #14, #1, ( #81 ) ) ;
#51 = DIRECTION ( 'NONE',  ( 0.0000000000000000000, 0.0000000000000000000, 1.000000000000000000 ) ) ;
#52 = ORIENTED_EDGE ( 'NONE', *, *, #29, .F. ) ;
#53 = DIRECTION ( 'NONE',  ( 0.0000000000000000000, -0.0000000000000000000, 1.000000000000000000 ) ) ;
#54 =( LENGTH_UNIT ( ) NAMED_UNIT ( * ) SI_UNIT ( .MILLI., .METRE. ) );
#55 = EDGE_CURVE ( 'NONE', #21, #222, #194, .T. ) ;
#56 = PERSON_AND_ORGANIZATION_ROLE ( 'creator' ) ;
#57 = PRODUCT ( 'OT214-300-306x3_OSTP', 'OT214-300-306x3_OSTP', '', ( #214 ) ) ;
#58 = FACE_OUTER_BOUND ( 'NONE', #91, .T. ) ;
#59 = APPLICATION_PROTOCOL_DEFINITION ( 'international standard', 'config_control_design', 1994, #185 ) ;
#60 = VERTEX_POINT ( 'NONE', #246 ) ;
#61 = APPROVAL_DATE_TIME ( #172, #80 ) ;
#62 = EDGE_CURVE ( 'NONE', #60, #130, #150, .T. ) ;
#63 = VERTEX_POINT ( 'NONE', #68 ) ;
#64 = AXIS2_PLACEMENT_3D ( 'NONE', #174, #253, #206 ) ;
#65 = ORIENTED_EDGE ( 'NONE', *, *, #205, .F. ) ;
#66 = CARTESIAN_POINT ( 'NONE',  ( 400.0000000000000000, 0.0000000000000000000, -1.836970198721029700E-014 ) ) ;
#67 = EDGE_LOOP ( 'NONE', ( #199, #144 ) ) ;
#68 = CARTESIAN_POINT ( 'NONE',  ( 399.9999999999999400, 247.0000000000000300, -1.873709602695450300E-014 ) ) ;
#69 = DIRECTION ( 'NONE',  ( 1.000000000000000000, 6.123233995736766000E-017, 0.0000000000000000000 ) ) ;
#70 = PLANE ( 'NONE',  #11 ) ;
#71 = DIRECTION ( 'NONE',  ( 0.0000000000000000000, 1.000000000000000000, 0.0000000000000000000 ) ) ;
#72 = APPROVAL_PERSON_ORGANIZATION ( #8, #80, #182 ) ;
#73 = DIRECTION ( 'NONE',  ( 1.000000000000000000, 6.123233995736766000E-017, -0.0000000000000000000 ) ) ;
#74 = AXIS2_PLACEMENT_3D ( 'NONE', #17, #208, #225 ) ;
#75 = CARTESIAN_POINT ( 'NONE',  ( 400.0000000000000000, 0.0000000000000000000, 0.0000000000000000000 ) ) ;
#76 = ORIENTED_EDGE ( 'NONE', *, *, #241, .T. ) ;
#77 = FACE_OUTER_BOUND ( 'NONE', #217, .T. ) ;
#78 = PERSON ( 'UNSPECIFIED', 'UNSPECIFIED', 'UNSPECIFIED', ('UNSPECIFIED'), ('UNSPECIFIED'), ('UNSPECIFIED') ) ;
#79 = PERSON_AND_ORGANIZATION_ROLE ( 'design_owner' ) ;
#80 = APPROVAL ( #212, 'UNSPECIFIED' ) ;
#81 = SECURITY_CLASSIFICATION ( '', '', #25 ) ;
#82 = CC_DESIGN_APPROVAL ( #94, ( #226 ) ) ;
#83 = ORIENTED_EDGE ( 'NONE', *, *, #146, .T. ) ;
#84 = APPROVAL_DATE_TIME ( #243, #94 ) ;
#85 = DATE_AND_TIME ( #90, #151 ) ;
#86 = CARTESIAN_POINT ( 'NONE',  ( 400.0000000000000000, 400.0000000000000000, 0.0000000000000000000 ) ) ;
#87 = CALENDAR_DATE ( 2021, 10, 2 ) ;
#88 = CARTESIAN_POINT ( 'NONE',  ( 0.0000000000000000000, 0.0000000000000000000, 0.0000000000000000000 ) ) ;
#89 = ORIENTED_EDGE ( 'NONE', *, *, #6, .T. ) ;
#90 = CALENDAR_DATE ( 2021, 10, 2 ) ;
#91 = EDGE_LOOP ( 'NONE', ( #136, #83, #191, #52 ) ) ;
#92 = CC_DESIGN_PERSON_AND_ORGANIZATION_ASSIGNMENT ( #123, #3, ( #26 ) ) ;
#93 = VERTEX_POINT ( 'NONE', #102 ) ;
#94 = APPROVAL ( #124, 'UNSPECIFIED' ) ;
#95 = FACE_OUTER_BOUND ( 'NONE', #67, .T. ) ;
#96 = CC_DESIGN_SECURITY_CLASSIFICATION ( #81, ( #26 ) ) ;
#97 = ORIENTED_EDGE ( 'NONE', *, *, #157, .F. ) ;
#98 = CARTESIAN_POINT ( 'NONE',  ( 0.0000000000000000000, 0.0000000000000000000, 0.0000000000000000000 ) ) ;
#99 = EDGE_CURVE ( 'NONE', #93, #9, #22, .T. ) ;
#100 = DIRECTION ( 'NONE',  ( 1.000000000000000000, 6.123233995736766000E-017, 0.0000000000000000000 ) ) ;
#101 = ORIENTED_EDGE ( 'NONE', *, *, #62, .T. ) ;
#102 = CARTESIAN_POINT ( 'NONE',  ( 400.0000000000000000, 250.0000000000000000, -1.836970198721029400E-014 ) ) ;
#103 = CC_DESIGN_PERSON_AND_ORGANIZATION_ASSIGNMENT ( #186, #56, ( #226 ) ) ;
#104 = CARTESIAN_POINT ( 'NONE',  ( 399.9999999999999400, 400.0000000000000000, 0.0000000000000000000 ) ) ;
#105 = DIRECTION ( 'NONE',  ( 1.000000000000000000, 0.0000000000000000000, 0.0000000000000000000 ) ) ;
#106 = PERSON_AND_ORGANIZATION ( #78, #236 ) ;
#107 = CC_DESIGN_DATE_AND_TIME_ASSIGNMENT ( #223, #211, ( #226 ) ) ;
#108 = CARTESIAN_POINT ( 'NONE',  ( 400.0000000000000000, 0.0000000000000000000, 0.0000000000000000000 ) ) ;
#109 = UNCERTAINTY_MEASURE_WITH_UNIT (LENGTH_MEASURE( 1.000000000000000100E-005 ), #54, 'distance_accuracy_value', 'NONE');
#110 = CIRCLE ( 'NONE', #129, 153.0000000000000000 ) ;
#111 = ORIENTED_EDGE ( 'NONE', *, *, #29, .T. ) ;
#112 = AXIS2_PLACEMENT_3D ( 'NONE', #108, #175, #105 ) ;
#113 = CC_DESIGN_PERSON_AND_ORGANIZATION_ASSIGNMENT ( #106, #187, ( #81 ) ) ;
#114 = CARTESIAN_POINT ( 'NONE',  ( 0.0000000000000000000, 0.0000000000000000000, 0.0000000000000000000 ) ) ;
#115 = CARTESIAN_POINT ( 'NONE',  ( -153.0000000000000300, 0.0000000000000000000, 0.0000000000000000000 ) ) ;
#116 = CARTESIAN_POINT ( 'NONE',  ( 0.0000000000000000000, 0.0000000000000000000, 0.0000000000000000000 ) ) ;
#117 = AXIS2_PLACEMENT_3D ( 'NONE', #66, #12, #149 ) ;
#118 = CLOSED_SHELL ( 'NONE', ( #132, #153, #135, #231, #209, #184 ) ) ;
#119 = PERSON_AND_ORGANIZATION ( #78, #236 ) ;
#120 = ADVANCED_BREP_SHAPE_REPRESENTATION ( 'OT214-300-306x3_OSTP', ( #167, #121 ), #4 ) ;
#121 = AXIS2_PLACEMENT_3D ( 'NONE', #116, #154, #162 ) ;
#122 = PERSON_AND_ORGANIZATION ( #78, #236 ) ;
#123 = PERSON_AND_ORGANIZATION ( #78, #236 ) ;
#124 = APPROVAL_STATUS ( 'not_yet_approved' ) ;
#125 = PRODUCT_RELATED_PRODUCT_CATEGORY ( 'detail', '', ( #57 ) ) ;
#126 = LOCAL_TIME ( 13, 51, 30.00000000000000000, #176 ) ;
#127 = COORDINATED_UNIVERSAL_TIME_OFFSET ( 1, 0, .AHEAD. ) ;
#128 = DIRECTION ( 'NONE',  ( 1.000000000000000000, 0.0000000000000000000, 0.0000000000000000000 ) ) ;
#129 = AXIS2_PLACEMENT_3D ( 'NONE', #179, #239, #142 ) ;
#130 = VERTEX_POINT ( 'NONE', #30 ) ;
#131 = AXIS2_PLACEMENT_3D ( 'NONE', #133, #19, #34 ) ;
#132 = ADVANCED_FACE ( 'NONE', ( #58 ), #43, .F. ) ;
#133 = CARTESIAN_POINT ( 'NONE',  ( 0.0000000000000000000, 0.0000000000000000000, 0.0000000000000000000 ) ) ;
#134 = DIRECTION ( 'NONE',  ( 0.0000000000000000000, 0.0000000000000000000, 1.000000000000000000 ) ) ;
#135 = ADVANCED_FACE ( 'NONE', ( #252 ), #2, .T. ) ;
#136 = ORIENTED_EDGE ( 'NONE', *, *, #99, .T. ) ;
#137 = DIRECTION ( 'NONE',  ( 1.000000000000000000, 0.0000000000000000000, 0.0000000000000000000 ) ) ;
#138 = PERSON_AND_ORGANIZATION_ROLE ( 'creator' ) ;
#139 = APPROVAL_ROLE ( '' ) ;
#140 = CIRCLE ( 'NONE', #131, 150.0000000000000000 ) ;
#141 =( NAMED_UNIT ( * ) PLANE_ANGLE_UNIT ( ) SI_UNIT ( $, .RADIAN. ) );
#142 = DIRECTION ( 'NONE',  ( 0.0000000000000000000, 0.0000000000000000000, 1.000000000000000000 ) ) ;
#143 = AXIS2_PLACEMENT_3D ( 'NONE', #104, #177, #180 ) ;
#144 = ORIENTED_EDGE ( 'NONE', *, *, #55, .F. ) ;
#145 = LOCAL_TIME ( 13, 51, 30.00000000000000000, #169 ) ;
#146 = EDGE_CURVE ( 'NONE', #9, #60, #218, .T. ) ;
#147 = ORIENTED_EDGE ( 'NONE', *, *, #170, .T. ) ;
#148 = CIRCLE ( 'NONE', #221, 150.0000000000000300 ) ;
#149 = DIRECTION ( 'NONE',  ( 1.000000000000000000, 0.0000000000000000000, 0.0000000000000000000 ) ) ;
#150 = CIRCLE ( 'NONE', #213, 150.0000000000000000 ) ;
#151 = LOCAL_TIME ( 13, 51, 30.00000000000000000, #127 ) ;
#152 = DIRECTION ( 'NONE',  ( 1.000000000000000000, 0.0000000000000000000, 0.0000000000000000000 ) ) ;
#153 = ADVANCED_FACE ( 'NONE', ( #77 ), #27, .T. ) ;
#154 = DIRECTION ( 'NONE',  ( 0.0000000000000000000, 0.0000000000000000000, 1.000000000000000000 ) ) ;
#155 = ORIENTED_EDGE ( 'NONE', *, *, #157, .T. ) ;
#156 = FACE_BOUND ( 'NONE', #251, .T. ) ;
#157 = EDGE_CURVE ( 'NONE', #63, #215, #190, .T. ) ;
#158 = DIRECTION ( 'NONE',  ( 1.000000000000000000, 0.0000000000000000000, 0.0000000000000000000 ) ) ;
#159 = APPLICATION_PROTOCOL_DEFINITION ( 'international standard', 'config_control_design', 1994, #39 ) ;
#160 = EDGE_LOOP ( 'NONE', ( #5, #40, #111, #165 ) ) ;
#161 = TOROIDAL_SURFACE ( 'NONE', #42, 400.0000000000000000, 150.0000000000000000 ) ;
#162 = DIRECTION ( 'NONE',  ( 1.000000000000000000, 0.0000000000000000000, 0.0000000000000000000 ) ) ;
#163 = APPROVAL_STATUS ( 'not_yet_approved' ) ;
#164 = AXIS2_PLACEMENT_3D ( 'NONE', #233, #73, #248 ) ;
#165 = ORIENTED_EDGE ( 'NONE', *, *, #62, .F. ) ;
#166 = EDGE_CURVE ( 'NONE', #215, #63, #7, .T. ) ;
#167 = MANIFOLD_SOLID_BREP ( 'cut-body', #118 ) ;
#168 = PERSON_AND_ORGANIZATION ( #78, #236 ) ;
#169 = COORDINATED_UNIVERSAL_TIME_OFFSET ( 1, 0, .AHEAD. ) ;
#170 = EDGE_CURVE ( 'NONE', #130, #60, #140, .T. ) ;
#171 = FACE_BOUND ( 'NONE', #35, .T. ) ;
#172 = DATE_AND_TIME ( #196, #145 ) ;
#173 = APPROVAL_DATE_TIME ( #85, #20 ) ;
#174 = CARTESIAN_POINT ( 'NONE',  ( 400.0000000000000000, 0.0000000000000000000, 0.0000000000000000000 ) ) ;
#175 = DIRECTION ( 'NONE',  ( 0.0000000000000000000, 0.0000000000000000000, 1.000000000000000000 ) ) ;
#176 = COORDINATED_UNIVERSAL_TIME_OFFSET ( 1, 0, .AHEAD. ) ;
#177 = DIRECTION ( 'NONE',  ( 1.000000000000000000, 6.123233995736766000E-017, 0.0000000000000000000 ) ) ;
#178 = DIRECTION ( 'NONE',  ( 0.0000000000000000000, 0.0000000000000000000, 1.000000000000000000 ) ) ;
#179 = CARTESIAN_POINT ( 'NONE',  ( 0.0000000000000000000, 0.0000000000000000000, 0.0000000000000000000 ) ) ;
#180 = DIRECTION ( 'NONE',  ( 0.0000000000000000000, 0.0000000000000000000, 1.000000000000000000 ) ) ;
#181 = EDGE_CURVE ( 'NONE', #63, #222, #242, .T. ) ;
#182 = APPROVAL_ROLE ( '' ) ;
#183 = LOCAL_TIME ( 13, 51, 30.00000000000000000, #201 ) ;
#184 = ADVANCED_FACE ( 'NONE', ( #220 ), #161, .F. ) ;
#185 = APPLICATION_CONTEXT ( 'configuration controlled 3d designs of mechanical parts and assemblies' ) ;
#186 = PERSON_AND_ORGANIZATION ( #78, #236 ) ;
#187 = PERSON_AND_ORGANIZATION_ROLE ( 'classification_officer' ) ;
#188 = AXIS2_PLACEMENT_3D ( 'NONE', #86, #100, #245 ) ;
#189 = DESIGN_CONTEXT ( 'detailed design', #185, 'design' ) ;
#190 = CIRCLE ( 'NONE', #74, 153.0000000000000000 ) ;
#191 = ORIENTED_EDGE ( 'NONE', *, *, #170, .F. ) ;
#192 = AXIS2_PLACEMENT_3D ( 'NONE', #114, #224, #46 ) ;
#193 = ORIENTED_EDGE ( 'NONE', *, *, #55, .T. ) ;
#194 = CIRCLE ( 'NONE', #192, 153.0000000000000000 ) ;
#195 = CARTESIAN_POINT ( 'NONE',  ( 400.0000000000000000, 550.0000000000000000, 0.0000000000000000000 ) ) ;
#196 = CALENDAR_DATE ( 2021, 10, 2 ) ;
#197 = AXIS2_PLACEMENT_3D ( 'NONE', #75, #49, #158 ) ;
#198 = DIRECTION ( 'NONE',  ( 0.0000000000000000000, 0.0000000000000000000, 1.000000000000000000 ) ) ;
#199 = ORIENTED_EDGE ( 'NONE', *, *, #241, .F. ) ;
#200 = FACE_OUTER_BOUND ( 'NONE', #18, .T. ) ;
#201 = COORDINATED_UNIVERSAL_TIME_OFFSET ( 1, 0, .AHEAD. ) ;
#202 = DIRECTION ( 'NONE',  ( 1.000000000000000000, 0.0000000000000000000, 0.0000000000000000000 ) ) ;
#203 = CARTESIAN_POINT ( 'NONE',  ( 400.0000000000000000, 0.0000000000000000000, -1.873709602695450300E-014 ) ) ;
#204 = EDGE_LOOP ( 'NONE', ( #13, #97, #44, #76 ) ) ;
#205 = EDGE_CURVE ( 'NONE', #9, #93, #148, .T. ) ;
#206 = DIRECTION ( 'NONE',  ( 1.000000000000000000, 0.0000000000000000000, 0.0000000000000000000 ) ) ;
#207 = CALENDAR_DATE ( 2021, 10, 2 ) ;
#208 = DIRECTION ( 'NONE',  ( 1.000000000000000000, 6.123233995736766000E-017, 0.0000000000000000000 ) ) ;
#209 = ADVANCED_FACE ( 'NONE', ( #156, #95 ), #70, .F. ) ;
#210 = ORIENTED_EDGE ( 'NONE', *, *, #181, .F. ) ;
#211 = DATE_TIME_ROLE ( 'creation_date' ) ;
#212 = APPROVAL_STATUS ( 'not_yet_approved' ) ;
#213 = AXIS2_PLACEMENT_3D ( 'NONE', #98, #244, #198 ) ;
#214 = MECHANICAL_CONTEXT ( 'NONE', #39, 'mechanical' ) ;
#215 = VERTEX_POINT ( 'NONE', #15 ) ;
#216 = AXIS2_PLACEMENT_3D ( 'NONE', #250, #134, #137 ) ;
#217 = EDGE_LOOP ( 'NONE', ( #28, #89, #193, #210 ) ) ;
#218 = CIRCLE ( 'NONE', #197, 550.0000000000000000 ) ;
#219 = CIRCLE ( 'NONE', #117, 250.0000000000000000 ) ;
#220 = FACE_OUTER_BOUND ( 'NONE', #160, .T. ) ;
#221 = AXIS2_PLACEMENT_3D ( 'NONE', #48, #69, #71 ) ;
#222 = VERTEX_POINT ( 'NONE', #228 ) ;
#223 = DATE_AND_TIME ( #238, #230 ) ;
#224 = DIRECTION ( 'NONE',  ( 0.0000000000000000000, 1.000000000000000000, 0.0000000000000000000 ) ) ;
#225 = DIRECTION ( 'NONE',  ( 0.0000000000000000000, 0.0000000000000000000, 1.000000000000000000 ) ) ;
#226 = PRODUCT_DEFINITION ( 'UNKNOWN', '', #26, #189 ) ;
#227 = ORIENTED_EDGE ( 'NONE', *, *, #166, .T. ) ;
#228 = CARTESIAN_POINT ( 'NONE',  ( 153.0000000000000000, 0.0000000000000000000, -1.873709602695450300E-014 ) ) ;
#229 = PERSON_AND_ORGANIZATION ( #78, #236 ) ;
#230 = LOCAL_TIME ( 13, 51, 30.00000000000000000, #32 ) ;
#231 = ADVANCED_FACE ( 'NONE', ( #171, #200 ), #36, .T. ) ;
#232 = CARTESIAN_POINT ( 'NONE',  ( 400.0000000000000000, 0.0000000000000000000, 0.0000000000000000000 ) ) ;
#233 = CARTESIAN_POINT ( 'NONE',  ( 399.9999999999999400, 400.0000000000000000, 0.0000000000000000000 ) ) ;
#234 = CC_DESIGN_PERSON_AND_ORGANIZATION_ASSIGNMENT ( #168, #79, ( #57 ) ) ;
#235 = ORIENTED_EDGE ( 'NONE', *, *, #99, .F. ) ;
#236 = ORGANIZATION ( 'UNSPECIFIED', 'UNSPECIFIED', '' ) ;
#237 = APPROVAL_PERSON_ORGANIZATION ( #229, #20, #240 ) ;
#238 = CALENDAR_DATE ( 2021, 10, 2 ) ;
#239 = DIRECTION ( 'NONE',  ( 0.0000000000000000000, 1.000000000000000000, 0.0000000000000000000 ) ) ;
#240 = APPROVAL_ROLE ( '' ) ;
#241 = EDGE_CURVE ( 'NONE', #222, #21, #110, .T. ) ;
#242 = CIRCLE ( 'NONE', #45, 247.0000000000000000 ) ;
#243 = DATE_AND_TIME ( #87, #126 ) ;
#244 = DIRECTION ( 'NONE',  ( 0.0000000000000000000, 1.000000000000000000, 0.0000000000000000000 ) ) ;
#245 = DIRECTION ( 'NONE',  ( 0.0000000000000000000, 1.000000000000000000, 0.0000000000000000000 ) ) ;
#246 = CARTESIAN_POINT ( 'NONE',  ( -150.0000000000000300, 0.0000000000000000000, 0.0000000000000000000 ) ) ;
#247 = DIRECTION ( 'NONE',  ( 0.0000000000000000000, 1.000000000000000000, 0.0000000000000000000 ) ) ;
#248 = DIRECTION ( 'NONE',  ( 0.0000000000000000000, 0.0000000000000000000, 1.000000000000000000 ) ) ;
#249 = AXIS2_PLACEMENT_3D ( 'NONE', #33, #47, #128 ) ;
#250 = CARTESIAN_POINT ( 'NONE',  ( 400.0000000000000000, 0.0000000000000000000, 0.0000000000000000000 ) ) ;
#251 = EDGE_LOOP ( 'NONE', ( #147, #101 ) ) ;
#252 = FACE_OUTER_BOUND ( 'NONE', #204, .T. ) ;
#253 = DIRECTION ( 'NONE',  ( 0.0000000000000000000, 0.0000000000000000000, 1.000000000000000000 ) ) ;
ENDSEC;
END-ISO-10303-21;
