ISO-10303-21;
HEADER;
FILE_DESCRIPTION (( 'STEP AP203' ),
    '1' );
FILE_NAME ('3D_R-159_DN25_1780125.STEP',
    '2024-08-12T06:40:37',
    ( '' ),
    ( '' ),
    'SwSTEP 2.0',
    'SolidWorks 2024',
    '' );
FILE_SCHEMA (( 'CONFIG_CONTROL_DESIGN' ));
ENDSEC;

DATA;
#1 = ORIENTED_EDGE ( 'NONE', *, *, #85, .F. ) ;
#2 =( NAMED_UNIT ( * ) SI_UNIT ( $, .STERADIAN. ) SOLID_ANGLE_UNIT ( ) );
#3 = AXIS2_PLACEMENT_3D ( 'NONE', #191, #313, #368 ) ;
#4 = CC_DESIGN_DATE_AND_TIME_ASSIGNMENT ( #148, #355, ( #68 ) ) ;
#5 = CARTESIAN_POINT ( 'NONE',  ( -106.4543947916046562, 5.277730951084153688, 0.000000000000000000 ) ) ;
#6 = EDGE_CURVE ( 'NONE', #335, #12, #227, .T. ) ;
#7 = PERSON_AND_ORGANIZATION_ROLE ( 'creator' ) ;
#8 = COORDINATED_UNIVERSAL_TIME_OFFSET ( 1, 0, .AHEAD. ) ;
#9 = ORIENTED_EDGE ( 'NONE', *, *, #143, .F. ) ;
#10 = DIRECTION ( 'NONE',  ( 0.9999999997022959164, 2.440099081145985212E-05, 0.000000000000000000 ) ) ;
#11 = EDGE_CURVE ( 'NONE', #147, #213, #260, .T. ) ;
#12 = VERTEX_POINT ( 'NONE', #248 ) ;
#13 = CARTESIAN_POINT ( 'NONE',  ( -61.45410930001214922, -11.57117100237904594, 0.000000000000000000 ) ) ;
#14 = ORIENTED_EDGE ( 'NONE', *, *, #222, .T. ) ;
#15 = DIRECTION ( 'NONE',  ( -0.9999999997022959164, -2.440099081145985212E-05, -0.000000000000000000 ) ) ;
#16 = EDGE_CURVE ( 'NONE', #12, #335, #99, .T. ) ;
#17 = CARTESIAN_POINT ( 'NONE',  ( -106.4538579698068048, -16.72226904236635292, 0.000000000000000000 ) ) ;
#18 = EDGE_CURVE ( 'NONE', #178, #58, #257, .T. ) ;
#19 = CARTESIAN_POINT ( 'NONE',  ( -61.45456925868893450, 5.278828991413826444, 0.000000000000000000 ) ) ;
#20 = DIRECTION ( 'NONE',  ( 2.440099081112052394E-05, -0.9999999997022958054, 0.000000000000000000 ) ) ;
#21 = CC_DESIGN_APPROVAL ( #237, ( #36 ) ) ;
#22 = AXIS2_PLACEMENT_3D ( 'NONE', #108, #371, #224 ) ;
#23 = CARTESIAN_POINT ( 'NONE',  ( -106.4541092464254035, -11.57336709155141996, 2.063664328242110346E-15 ) ) ;
#24 = CONICAL_SURFACE ( 'NONE', #359, 16.85109804458651794, 1.570771925804083757 ) ;
#25 = ADVANCED_FACE ( 'NONE', ( #246 ), #338, .T. ) ;
#26 = DIRECTION ( 'NONE',  ( -0.9999999997022959164, -2.440099081145985212E-05, -0.000000000000000000 ) ) ;
#27 = LINE ( 'NONE', #144, #124 ) ;
#28 = CC_DESIGN_DATE_AND_TIME_ASSIGNMENT ( #329, #60, ( #330 ) ) ;
#29 = DIRECTION ( 'NONE',  ( -1.000000000000000000, -1.363926332986764578E-16, 2.988259529311125187E-21 ) ) ;
#30 = EDGE_LOOP ( 'NONE', ( #1, #295, #354, #366 ) ) ;
#31 = MECHANICAL_CONTEXT ( 'NONE', #234, 'mechanical' ) ;
#32 = VERTEX_POINT ( 'NONE', #128 ) ;
#33 = DATE_AND_TIME ( #120, #89 ) ;
#34 = ORIENTED_EDGE ( 'NONE', *, *, #210, .F. ) ;
#35 = DIRECTION ( 'NONE',  ( -0.9999999997022959164, -2.440099081145985212E-05, -0.000000000000000000 ) ) ;
#36 = PRODUCT_DEFINITION_FORMATION_WITH_SPECIFIED_SOURCE ( 'ANY', '', #349, .NOT_KNOWN. ) ;
#37 = VECTOR ( 'NONE', #43, 1000.000000000000114 ) ;
#38 = ORIENTED_EDGE ( 'NONE', *, *, #6, .T. ) ;
#39 = AXIS2_PLACEMENT_3D ( 'NONE', #137, #233, #199 ) ;
#40 = CARTESIAN_POINT ( 'NONE',  ( -61.45456925868893450, 5.278828991413826444, 0.000000000000000000 ) ) ;
#41 = ORIENTED_EDGE ( 'NONE', *, *, #93, .F. ) ;
#42 = CARTESIAN_POINT ( 'NONE',  ( -108.4549316134024934, 20.12882898758832795, 1.818740945004614712E-15 ) ) ;
#43 = DIRECTION ( 'NONE',  ( -0.9999999988091832215, -4.880198160825475177E-05, 0.000000000000000000 ) ) ;
#44 = CONICAL_SURFACE ( 'NONE', #293, 14.85114684716354816, 2.440099081370469272E-05 ) ;
#45 = FACE_OUTER_BOUND ( 'NONE', #183, .T. ) ;
#46 = DIRECTION ( 'NONE',  ( -0.9999999997022959164, -2.440099081145985212E-05, -0.000000000000000000 ) ) ;
#47 = CARTESIAN_POINT ( 'NONE',  ( -106.4543947916046562, 5.277730951084153688, 0.000000000000000000 ) ) ;
#48 = EDGE_CURVE ( 'NONE', #12, #358, #339, .T. ) ;
#49 = CIRCLE ( 'NONE', #289, 14.85114684716354816 ) ;
#50 = DIRECTION ( 'NONE',  ( 0.9999999997022959164, 2.440099081145985212E-05, 0.000000000000000000 ) ) ;
#51 = DIRECTION ( 'NONE',  ( 2.440099081124636255E-05, -0.9999999997022958054, 0.000000000000000000 ) ) ;
#52 = APPROVAL ( #206, 'UNSPECIFIED' ) ;
#53 = LINE ( 'NONE', #348, #225 ) ;
#54 = CONICAL_SURFACE ( 'NONE', #377, 16.85109804458651794, 1.570771925804083757 ) ;
#55 = EDGE_LOOP ( 'NONE', ( #264, #309, #278, #88 ) ) ;
#56 = CALENDAR_DATE ( 2024, 12, 8 ) ;
#57 = VECTOR ( 'NONE', #29, 1000.000000000000000 ) ;
#58 = VERTEX_POINT ( 'NONE', #106 ) ;
#59 = APPROVAL_DATE_TIME ( #389, #71 ) ;
#60 = DATE_TIME_ROLE ( 'creation_date' ) ;
#61 = EDGE_CURVE ( 'NONE', #131, #121, #90, .T. ) ;
#62 = DIRECTION ( 'NONE',  ( 1.000000000000000000, 0.000000000000000000, 0.000000000000000000 ) ) ;
#63 =( LENGTH_UNIT ( ) NAMED_UNIT ( * ) SI_UNIT ( .MILLI., .METRE. ) );
#64 = CC_DESIGN_PERSON_AND_ORGANIZATION_ASSIGNMENT ( #362, #96, ( #36 ) ) ;
#65 = ORIENTED_EDGE ( 'NONE', *, *, #228, .T. ) ;
#66 = EDGE_LOOP ( 'NONE', ( #250, #187, #159, #323 ) ) ;
#67 = DIRECTION ( 'NONE',  ( 2.440099081149256792E-05, -0.9999999997022959164, 0.000000000000000000 ) ) ;
#68 = SECURITY_CLASSIFICATION ( '', '', #212 ) ;
#69 = AXIS2_PLACEMENT_3D ( 'NONE', #164, #221, #74 ) ;
#70 = ORIENTED_EDGE ( 'NONE', *, *, #6, .F. ) ;
#71 = APPROVAL ( #328, 'UNSPECIFIED' ) ;
#72 = VECTOR ( 'NONE', #382, 1000.000000000000114 ) ;
#73 = DIRECTION ( 'NONE',  ( 2.440099081163321943E-05, -0.9999999997022958054, 0.000000000000000000 ) ) ;
#74 = DIRECTION ( 'NONE',  ( 2.440099081124635916E-05, -0.9999999997022958054, 0.000000000000000000 ) ) ;
#75 = EDGE_CURVE ( 'NONE', #129, #32, #139, .T. ) ;
#76 = LINE ( 'NONE', #193, #357 ) ;
#77 =( GEOMETRIC_REPRESENTATION_CONTEXT ( 3 ) GLOBAL_UNCERTAINTY_ASSIGNED_CONTEXT ( ( #156 ) ) GLOBAL_UNIT_ASSIGNED_CONTEXT ( ( #63, #151, #2 ) ) REPRESENTATION_CONTEXT ( 'NONE', 'WORKASPACE' ) );
#78 = MANIFOLD_SOLID_BREP ( 'Rotation1', #300 ) ;
#79 = DIRECTION ( 'NONE',  ( -0.9999999997022959164, -2.440099081145985212E-05, -0.000000000000000000 ) ) ;
#80 = EDGE_CURVE ( 'NONE', #147, #121, #194, .T. ) ;
#81 = DIRECTION ( 'NONE',  ( 0.9999999997022959164, 2.440099081145985212E-05, 0.000000000000000000 ) ) ;
#82 = DIRECTION ( 'NONE',  ( -0.9999999997022959164, -2.440099081145985212E-05, -0.000000000000000000 ) ) ;
#83 = CARTESIAN_POINT ( 'NONE',  ( -61.45452045670732133, 5.278828992604642778, 0.000000000000000000 ) ) ;
#84 = FACE_OUTER_BOUND ( 'NONE', #150, .T. ) ;
#85 = EDGE_CURVE ( 'NONE', #32, #58, #314, .T. ) ;
#86 = ORIENTED_EDGE ( 'NONE', *, *, #215, .F. ) ;
#87 = DIRECTION ( 'NONE',  ( -0.9999999997022959164, -2.440099081145985212E-05, -0.000000000000000000 ) ) ;
#88 = ORIENTED_EDGE ( 'NONE', *, *, #179, .F. ) ;
#89 = LOCAL_TIME ( 8, 40, 37.00000000000000000, #202 ) ;
#90 = CIRCLE ( 'NONE', #239, 16.85109804458651084 ) ;
#91 = PERSON_AND_ORGANIZATION ( #383, #273 ) ;
#92 = AXIS2_PLACEMENT_3D ( 'NONE', #47, #82, #51 ) ;
#93 = EDGE_CURVE ( 'NONE', #32, #129, #373, .T. ) ;
#94 = APPROVAL_ROLE ( '' ) ;
#95 = PERSON_AND_ORGANIZATION_ROLE ( 'creator' ) ;
#96 = PERSON_AND_ORGANIZATION_ROLE ( 'design_supplier' ) ;
#97 = ORIENTED_EDGE ( 'NONE', *, *, #48, .F. ) ;
#98 = DATE_AND_TIME ( #334, #287 ) ;
#99 = CIRCLE ( 'NONE', #315, 14.85000000059541314 ) ;
#100 = ORIENTED_EDGE ( 'NONE', *, *, #11, .F. ) ;
#101 = DIRECTION ( 'NONE',  ( -0.9999999997022959164, -2.440099081145985212E-05, -0.000000000000000000 ) ) ;
#102 = EDGE_LOOP ( 'NONE', ( #117, #65, #266, #268 ) ) ;
#103 = DIRECTION ( 'NONE',  ( 2.440099081165815608E-05, -0.9999999997022959164, 0.000000000000000000 ) ) ;
#104 = AXIS2_PLACEMENT_3D ( 'NONE', #284, #101, #73 ) ;
#105 = EDGE_CURVE ( 'NONE', #58, #178, #378, .T. ) ;
#106 = CARTESIAN_POINT ( 'NONE',  ( -108.4549316134024934, 27.27773094469097970, 0.000000000000000000 ) ) ;
#107 = CARTESIAN_POINT ( 'NONE',  ( -108.4549316134024934, 27.27773094453466385, 0.000000000000000000 ) ) ;
#108 = CARTESIAN_POINT ( 'NONE',  ( -106.4543947916046562, 5.277730951084153688, 0.000000000000000000 ) ) ;
#109 = APPROVAL_PERSON_ORGANIZATION ( #242, #71, #94 ) ;
#110 = FACE_OUTER_BOUND ( 'NONE', #337, .T. ) ;
#111 = AXIS2_PLACEMENT_3D ( 'NONE', #83, #87, #286 ) ;
#112 = APPLICATION_CONTEXT ( 'configuration controlled 3d designs of mechanical parts and assemblies' ) ;
#113 = AXIS2_PLACEMENT_3D ( 'NONE', #219, #15, #254 ) ;
#114 = DIRECTION ( 'NONE',  ( 9.085275392249625437E-17, 1.000000000000000000, 0.000000000000000000 ) ) ;
#115 = CARTESIAN_POINT ( 'NONE',  ( -61.45493161340250055, 22.12882898758833505, 2.063529856563291033E-15 ) ) ;
#116 = DIRECTION ( 'NONE',  ( -2.440099081166978754E-05, 0.9999999997022959164, 0.000000000000000000 ) ) ;
#117 = ORIENTED_EDGE ( 'NONE', *, *, #181, .F. ) ;
#118 = CARTESIAN_POINT ( 'NONE',  ( -106.4545204299139556, 5.277730948018453994, 0.000000000000000000 ) ) ;
#119 = VERTEX_POINT ( 'NONE', #133 ) ;
#120 = CALENDAR_DATE ( 2024, 12, 8 ) ;
#121 = VERTEX_POINT ( 'NONE', #189 ) ;
#122 = CC_DESIGN_APPROVAL ( #71, ( #330 ) ) ;
#123 = DIRECTION ( 'NONE',  ( 2.440099081124636255E-05, -0.9999999997022958054, 0.000000000000000000 ) ) ;
#124 = VECTOR ( 'NONE', #345, 1000.000000000000114 ) ;
#125 = CALENDAR_DATE ( 2024, 12, 8 ) ;
#126 = ORIENTED_EDGE ( 'NONE', *, *, #181, .T. ) ;
#127 = CONICAL_SURFACE ( 'NONE', #344, 16.85000000000000497, 2.440099081374488274E-05 ) ;
#128 = CARTESIAN_POINT ( 'NONE',  ( -106.4549316134024934, 27.27773094453466385, 2.694225946383707328E-15 ) ) ;
#129 = VERTEX_POINT ( 'NONE', #17 ) ;
#130 = DIRECTION ( 'NONE',  ( -2.440099081163322282E-05, 0.9999999997022958054, 0.000000000000000000 ) ) ;
#131 = VERTEX_POINT ( 'NONE', #166 ) ;
#132 = EDGE_CURVE ( 'NONE', #119, #358, #49, .T. ) ;
#133 = CARTESIAN_POINT ( 'NONE',  ( -108.4542068480069901, -9.573464697896268305, 0.000000000000000000 ) ) ;
#134 = DIRECTION ( 'NONE',  ( 2.440099081112052394E-05, -0.9999999997022958054, 0.000000000000000000 ) ) ;
#135 = ADVANCED_FACE ( 'NONE', ( #375 ), #152, .T. ) ;
#136 = CARTESIAN_POINT ( 'NONE',  ( -106.4549316134024934, 27.27773094453466030, 2.694222958124176809E-15 ) ) ;
#137 = CARTESIAN_POINT ( 'NONE',  ( -108.4543947904138292, 5.277682149102544962, 0.000000000000000000 ) ) ;
#138 = APPROVAL_PERSON_ORGANIZATION ( #91, #52, #367 ) ;
#139 = CIRCLE ( 'NONE', #69, 22.00000000000000000 ) ;
#140 = CARTESIAN_POINT ( 'NONE',  ( -106.4538579698068048, -16.72226904236635292, 0.000000000000000000 ) ) ;
#141 = CC_DESIGN_PERSON_AND_ORGANIZATION_ASSIGNMENT ( #302, #240, ( #349 ) ) ;
#142 = LINE ( 'NONE', #115, #57 ) ;
#143 = EDGE_CURVE ( 'NONE', #121, #131, #170, .T. ) ;
#144 = CARTESIAN_POINT ( 'NONE',  ( -108.4538579674251508, -16.72236664632957215, 2.694228934643235875E-15 ) ) ;
#145 = CONICAL_SURFACE ( 'NONE', #363, 14.85114684716354816, 2.440099081370469272E-05 ) ;
#146 = DIRECTION ( 'NONE',  ( -0.9999999988091832215, -4.880198160991245623E-05, 0.000000000000000000 ) ) ;
#147 = VERTEX_POINT ( 'NONE', #311 ) ;
#148 = DATE_AND_TIME ( #56, #184 ) ;
#149 = EDGE_CURVE ( 'NONE', #358, #58, #186, .T. ) ;
#150 = EDGE_LOOP ( 'NONE', ( #332, #369, #298, #351 ) ) ;
#151 =( NAMED_UNIT ( * ) PLANE_ANGLE_UNIT ( ) SI_UNIT ( $, .RADIAN. ) );
#152 = CONICAL_SURFACE ( 'NONE', #198, 16.85000000000000497, 2.440099081374488274E-05 ) ;
#153 = PERSON_AND_ORGANIZATION ( #383, #273 ) ;
#154 = COORDINATED_UNIVERSAL_TIME_OFFSET ( 1, 0, .AHEAD. ) ;
#155 = ORIENTED_EDGE ( 'NONE', *, *, #105, .T. ) ;
#156 = UNCERTAINTY_MEASURE_WITH_UNIT (LENGTH_MEASURE( 1.000000000000000082E-05 ), #63, 'distance_accuracy_value', 'NONE');
#157 = CARTESIAN_POINT ( 'NONE',  ( -61.45452045670732133, 5.278828992604642778, 0.000000000000000000 ) ) ;
#158 = PRODUCT_DEFINITION_SHAPE ( 'NONE', 'NONE',  #330 ) ;
#159 = ORIENTED_EDGE ( 'NONE', *, *, #251, .T. ) ;
#160 = VECTOR ( 'NONE', #146, 1000.000000000000114 ) ;
#161 = DIRECTION ( 'NONE',  ( 2.440099081166979432E-05, -0.9999999997022959164, 0.000000000000000000 ) ) ;
#162 = EDGE_CURVE ( 'NONE', #335, #119, #76, .T. ) ;
#163 = ORIENTED_EDGE ( 'NONE', *, *, #132, .F. ) ;
#164 = CARTESIAN_POINT ( 'NONE',  ( -106.4543947916046562, 5.277730951084153688, 0.000000000000000000 ) ) ;
#165 = DIRECTION ( 'NONE',  ( -1.000000000000000000, 1.521315218981980633E-15, 2.988259529514135882E-21 ) ) ;
#166 = CARTESIAN_POINT ( 'NONE',  ( -106.4549316134024934, 22.12882898758832440, 0.000000000000000000 ) ) ;
#167 = DIRECTION ( 'NONE',  ( 0.9999999997022959164, 2.440099081145985212E-05, 0.000000000000000000 ) ) ;
#168 = CC_DESIGN_PERSON_AND_ORGANIZATION_ASSIGNMENT ( #244, #7, ( #36 ) ) ;
#169 = DIRECTION ( 'NONE',  ( -0.9999999997022959164, -2.440099081145985212E-05, -0.000000000000000000 ) ) ;
#170 = CIRCLE ( 'NONE', #204, 16.85109804458651084 ) ;
#171 = CARTESIAN_POINT ( 'NONE',  ( -61.45420690397536134, -9.571171004760678613, 1.941065176685013486E-15 ) ) ;
#172 = ADVANCED_FACE ( 'NONE', ( #45 ), #308, .F. ) ;
#173 = DIRECTION ( 'NONE',  ( -2.440099081166978754E-05, 0.9999999997022959164, 0.000000000000000000 ) ) ;
#174 = DIRECTION ( 'NONE',  ( -2.440099081149255775E-05, 0.9999999997022956943, 0.000000000000000000 ) ) ;
#175 = ORIENTED_EDGE ( 'NONE', *, *, #333, .T. ) ;
#176 = CONICAL_SURFACE ( 'NONE', #92, 21.99999999999999645, 2.440099081540259059E-05 ) ;
#177 = ORIENTED_EDGE ( 'NONE', *, *, #251, .F. ) ;
#178 = VERTEX_POINT ( 'NONE', #379 ) ;
#179 = EDGE_CURVE ( 'NONE', #12, #213, #53, .T. ) ;
#180 = DIRECTION ( 'NONE',  ( 2.440099081112052394E-05, -0.9999999997022958054, 0.000000000000000000 ) ) ;
#181 = EDGE_CURVE ( 'NONE', #213, #131, #142, .T. ) ;
#182 = ORIENTED_EDGE ( 'NONE', *, *, #333, .F. ) ;
#183 = EDGE_LOOP ( 'NONE', ( #235, #38, #249, #100 ) ) ;
#184 = LOCAL_TIME ( 8, 40, 37.00000000000000000, #325 ) ;
#185 = VECTOR ( 'NONE', #165, 1000.000000000000000 ) ;
#186 = LINE ( 'NONE', #107, #306 ) ;
#187 = ORIENTED_EDGE ( 'NONE', *, *, #143, .T. ) ;
#188 = AXIS2_PLACEMENT_3D ( 'NONE', #40, #167, #173 ) ;
#189 = CARTESIAN_POINT ( 'NONE',  ( -106.4541092464254035, -11.57336709155141641, 2.378943643183143380E-15 ) ) ;
#190 = DESIGN_CONTEXT ( 'detailed design', #112, 'design' ) ;
#191 = CARTESIAN_POINT ( 'NONE',  ( -108.4543947904138292, 5.277682149102544962, 0.000000000000000000 ) ) ;
#192 = CONICAL_SURFACE ( 'NONE', #324, 21.99999999999999645, 2.440099081540259059E-05 ) ;
#193 = CARTESIAN_POINT ( 'NONE',  ( -108.4542068480069901, -9.573464697896268305, 0.000000000000000000 ) ) ;
#194 = LINE ( 'NONE', #13, #37 ) ;
#195 = DIRECTION ( 'NONE',  ( -1.019370270702660286E-15, 1.000000000000000000, 0.000000000000000000 ) ) ;
#196 = CARTESIAN_POINT ( 'NONE',  ( -61.45452045670732133, 5.278828992604642778, 0.000000000000000000 ) ) ;
#197 = ADVANCED_FACE ( 'NONE', ( #230 ), #24, .F. ) ;
#198 = AXIS2_PLACEMENT_3D ( 'NONE', #157, #276, #103 ) ;
#199 = DIRECTION ( 'NONE',  ( -2.440099081163322282E-05, 0.9999999997022958054, 0.000000000000000000 ) ) ;
#200 = CARTESIAN_POINT ( 'NONE',  ( -108.4545692307047489, 5.277682144846028933, 0.000000000000000000 ) ) ;
#201 = ORIENTED_EDGE ( 'NONE', *, *, #80, .F. ) ;
#202 = COORDINATED_UNIVERSAL_TIME_OFFSET ( 1, 0, .AHEAD. ) ;
#203 = VECTOR ( 'NONE', #350, 1000.000000000000114 ) ;
#204 = AXIS2_PLACEMENT_3D ( 'NONE', #216, #336, #67 ) ;
#205 = EDGE_LOOP ( 'NONE', ( #388, #126, #9, #201 ) ) ;
#206 = APPROVAL_STATUS ( 'not_yet_approved' ) ;
#207 = CIRCLE ( 'NONE', #258, 14.85114684716354816 ) ;
#208 = APPLICATION_PROTOCOL_DEFINITION ( 'international standard', 'config_control_design', 1994, #234 ) ;
#209 = APPROVAL_ROLE ( '' ) ;
#210 = EDGE_CURVE ( 'NONE', #358, #119, #207, .T. ) ;
#211 = AXIS2_PLACEMENT_3D ( 'NONE', #384, #81, #116 ) ;
#212 = SECURITY_CLASSIFICATION_LEVEL ( 'unclassified' ) ;
#213 = VERTEX_POINT ( 'NONE', #294 ) ;
#214 = ORIENTED_EDGE ( 'NONE', *, *, #149, .T. ) ;
#215 = EDGE_CURVE ( 'NONE', #129, #178, #259, .T. ) ;
#216 = CARTESIAN_POINT ( 'NONE',  ( -106.4545204299139556, 5.277730948018453994, 0.000000000000000000 ) ) ;
#217 = EDGE_LOOP ( 'NONE', ( #281, #14, #41, #177 ) ) ;
#218 = VECTOR ( 'NONE', #374, 1000.000000000000000 ) ;
#219 = CARTESIAN_POINT ( 'NONE',  ( -61.45452045670732133, 5.278828992604642778, 0.000000000000000000 ) ) ;
#220 = CARTESIAN_POINT ( 'NONE',  ( -61.45456925868893450, 5.278828991413826444, 0.000000000000000000 ) ) ;
#221 = DIRECTION ( 'NONE',  ( -0.9999999997022959164, -2.440099081145985212E-05, -0.000000000000000000 ) ) ;
#222 = EDGE_CURVE ( 'NONE', #121, #129, #265, .T. ) ;
#223 = CONICAL_SURFACE ( 'NONE', #211, 14.85000000059541669, 1.570771925804082647 ) ;
#224 = DIRECTION ( 'NONE',  ( 2.440099081124635916E-05, -0.9999999997022958054, 0.000000000000000000 ) ) ;
#225 = VECTOR ( 'NONE', #114, 1000.000000000000000 ) ;
#226 = CARTESIAN_POINT ( 'NONE',  ( -108.4545692307047489, 5.277682144846028933, 0.000000000000000000 ) ) ;
#227 = CIRCLE ( 'NONE', #279, 14.85000000059541314 ) ;
#228 = EDGE_CURVE ( 'NONE', #213, #147, #277, .T. ) ;
#229 = FACE_OUTER_BOUND ( 'NONE', #217, .T. ) ;
#230 = FACE_OUTER_BOUND ( 'NONE', #66, .T. ) ;
#231 = CARTESIAN_POINT ( 'NONE',  ( -108.4549316134024934, 20.12882898758832795, 1.818740945004614712E-15 ) ) ;
#232 = ORIENTED_EDGE ( 'NONE', *, *, #18, .T. ) ;
#233 = DIRECTION ( 'NONE',  ( 0.9999999997022959164, 2.440099081145985212E-05, 0.000000000000000000 ) ) ;
#234 = APPLICATION_CONTEXT ( 'configuration controlled 3d designs of mechanical parts and assemblies' ) ;
#235 = ORIENTED_EDGE ( 'NONE', *, *, #312, .F. ) ;
#236 = PERSON_AND_ORGANIZATION_ROLE ( 'classification_officer' ) ;
#237 = APPROVAL ( #361, 'UNSPECIFIED' ) ;
#238 = LOCAL_TIME ( 8, 40, 37.00000000000000000, #8 ) ;
#239 = AXIS2_PLACEMENT_3D ( 'NONE', #252, #285, #340 ) ;
#240 = PERSON_AND_ORGANIZATION_ROLE ( 'design_owner' ) ;
#241 = ADVANCED_BREP_SHAPE_REPRESENTATION ( '3D_R-159_DN25_1780125', ( #78, #342 ), #77 ) ;
#242 = PERSON_AND_ORGANIZATION ( #383, #273 ) ;
#243 = CALENDAR_DATE ( 2024, 12, 8 ) ;
#244 = PERSON_AND_ORGANIZATION ( #383, #273 ) ;
#245 = EDGE_LOOP ( 'NONE', ( #97, #70, #274, #247 ) ) ;
#246 = FACE_OUTER_BOUND ( 'NONE', #385, .T. ) ;
#247 = ORIENTED_EDGE ( 'NONE', *, *, #132, .T. ) ;
#248 = CARTESIAN_POINT ( 'NONE',  ( -61.45493161340250055, 20.12882898758833150, 0.000000000000000000 ) ) ;
#249 = ORIENTED_EDGE ( 'NONE', *, *, #179, .T. ) ;
#250 = ORIENTED_EDGE ( 'NONE', *, *, #222, .F. ) ;
#251 = EDGE_CURVE ( 'NONE', #131, #32, #381, .T. ) ;
#252 = CARTESIAN_POINT ( 'NONE',  ( -106.4545204299139556, 5.277730948018453994, 0.000000000000000000 ) ) ;
#253 = COORDINATED_UNIVERSAL_TIME_OFFSET ( 1, 0, .AHEAD. ) ;
#254 = DIRECTION ( 'NONE',  ( 2.440099081165815608E-05, -0.9999999997022959164, 0.000000000000000000 ) ) ;
#255 = APPROVAL_PERSON_ORGANIZATION ( #153, #237, #209 ) ;
#256 = FACE_OUTER_BOUND ( 'NONE', #245, .T. ) ;
#257 = CIRCLE ( 'NONE', #3, 22.00004880198162738 ) ;
#258 = AXIS2_PLACEMENT_3D ( 'NONE', #352, #46, #20 ) ;
#259 = LINE ( 'NONE', #140, #160 ) ;
#260 = CIRCLE ( 'NONE', #113, 16.85000000000000497 ) ;
#261 = DIRECTION ( 'NONE',  ( 2.440099081165815608E-05, -0.9999999997022959164, 0.000000000000000000 ) ) ;
#262 = CC_DESIGN_PERSON_AND_ORGANIZATION_ASSIGNMENT ( #365, #236, ( #68 ) ) ;
#263 = FACE_OUTER_BOUND ( 'NONE', #55, .T. ) ;
#264 = ORIENTED_EDGE ( 'NONE', *, *, #16, .T. ) ;
#265 = LINE ( 'NONE', #23, #72 ) ;
#266 = ORIENTED_EDGE ( 'NONE', *, *, #80, .T. ) ;
#267 = APPLICATION_PROTOCOL_DEFINITION ( 'international standard', 'config_control_design', 1994, #112 ) ;
#268 = ORIENTED_EDGE ( 'NONE', *, *, #61, .F. ) ;
#269 = AXIS2_PLACEMENT_3D ( 'NONE', #280, #10, #130 ) ;
#270 = ADVANCED_FACE ( 'NONE', ( #110 ), #380, .T. ) ;
#271 = APPROVAL_DATE_TIME ( #33, #237 ) ;
#272 = DIRECTION ( 'NONE',  ( 0.000000000000000000, 0.000000000000000000, 1.000000000000000000 ) ) ;
#273 = ORGANIZATION ( 'UNSPECIFIED', 'UNSPECIFIED', '' ) ;
#274 = ORIENTED_EDGE ( 'NONE', *, *, #162, .T. ) ;
#275 = APPROVAL_DATE_TIME ( #98, #52 ) ;
#276 = DIRECTION ( 'NONE',  ( -0.9999999997022959164, -2.440099081145985212E-05, -0.000000000000000000 ) ) ;
#277 = CIRCLE ( 'NONE', #111, 16.85000000000000497 ) ;
#278 = ORIENTED_EDGE ( 'NONE', *, *, #228, .F. ) ;
#279 = AXIS2_PLACEMENT_3D ( 'NONE', #220, #79, #376 ) ;
#280 = CARTESIAN_POINT ( 'NONE',  ( -108.4543947904138292, 5.277682149102544962, 0.000000000000000000 ) ) ;
#281 = ORIENTED_EDGE ( 'NONE', *, *, #61, .T. ) ;
#282 = DIRECTION ( 'NONE',  ( -0.9999999997022959164, -2.440099081145985212E-05, -0.000000000000000000 ) ) ;
#283 = ADVANCED_FACE ( 'NONE', ( #320 ), #176, .T. ) ;
#284 = CARTESIAN_POINT ( 'NONE',  ( -108.4543947904138292, 5.277682149102544962, 0.000000000000000000 ) ) ;
#285 = DIRECTION ( 'NONE',  ( -0.9999999997022959164, -2.440099081145985212E-05, -0.000000000000000000 ) ) ;
#286 = DIRECTION ( 'NONE',  ( 2.440099081165815608E-05, -0.9999999997022959164, 0.000000000000000000 ) ) ;
#287 = LOCAL_TIME ( 8, 40, 37.00000000000000000, #253 ) ;
#288 = CARTESIAN_POINT ( 'NONE',  ( -106.4549316134024934, 22.12882898758832795, 0.000000000000000000 ) ) ;
#289 = AXIS2_PLACEMENT_3D ( 'NONE', #343, #35, #134 ) ;
#290 = CARTESIAN_POINT ( 'NONE',  ( -106.4545204299139556, 5.277730948018453994, 0.000000000000000000 ) ) ;
#291 = DIRECTION ( 'NONE',  ( -2.440099081149255775E-05, 0.9999999997022956943, 0.000000000000000000 ) ) ;
#292 = ADVANCED_FACE ( 'NONE', ( #318 ), #127, .T. ) ;
#293 = AXIS2_PLACEMENT_3D ( 'NONE', #226, #26, #387 ) ;
#294 = CARTESIAN_POINT ( 'NONE',  ( -61.45493161340250055, 22.12882898771782791, 0.000000000000000000 ) ) ;
#295 = ORIENTED_EDGE ( 'NONE', *, *, #93, .T. ) ;
#296 = ORIENTED_EDGE ( 'NONE', *, *, #18, .F. ) ;
#297 = PERSON_AND_ORGANIZATION ( #383, #273 ) ;
#298 = ORIENTED_EDGE ( 'NONE', *, *, #210, .T. ) ;
#299 = ADVANCED_FACE ( 'NONE', ( #229 ), #54, .F. ) ;
#300 = CLOSED_SHELL ( 'NONE', ( #135, #299, #370, #270, #364, #353, #172, #321, #25, #283, #197, #292 ) ) ;
#301 = CARTESIAN_POINT ( 'NONE',  ( 0.000000000000000000, 0.000000000000000000, 0.000000000000000000 ) ) ;
#302 = PERSON_AND_ORGANIZATION ( #383, #273 ) ;
#303 = ORIENTED_EDGE ( 'NONE', *, *, #75, .T. ) ;
#304 = ORIENTED_EDGE ( 'NONE', *, *, #85, .T. ) ;
#305 = CC_DESIGN_APPROVAL ( #52, ( #68 ) ) ;
#306 = VECTOR ( 'NONE', #341, 1000.000000000000000 ) ;
#307 = DIRECTION ( 'NONE',  ( -0.9999999988091832215, -4.880198160821456175E-05, 0.000000000000000000 ) ) ;
#308 = CONICAL_SURFACE ( 'NONE', #188, 14.85000000059541669, 1.570771925804082647 ) ;
#309 = ORIENTED_EDGE ( 'NONE', *, *, #312, .T. ) ;
#310 = SHAPE_DEFINITION_REPRESENTATION ( #158, #241 ) ;
#311 = CARTESIAN_POINT ( 'NONE',  ( -61.45410930001215633, -11.57117100225300454, 2.063529856547855392E-15 ) ) ;
#312 = EDGE_CURVE ( 'NONE', #335, #147, #316, .T. ) ;
#313 = DIRECTION ( 'NONE',  ( -0.9999999997022959164, -2.440099081145985212E-05, -0.000000000000000000 ) ) ;
#314 = LINE ( 'NONE', #136, #185 ) ;
#315 = AXIS2_PLACEMENT_3D ( 'NONE', #19, #282, #161 ) ;
#316 = LINE ( 'NONE', #347, #203 ) ;
#317 = LOCAL_TIME ( 8, 40, 37.00000000000000000, #154 ) ;
#318 = FACE_OUTER_BOUND ( 'NONE', #102, .T. ) ;
#319 = DIRECTION ( 'NONE',  ( 0.9999999997022959164, 2.440099081145985212E-05, 0.000000000000000000 ) ) ;
#320 = FACE_OUTER_BOUND ( 'NONE', #30, .T. ) ;
#321 = ADVANCED_FACE ( 'NONE', ( #256 ), #44, .F. ) ;
#322 = DIRECTION ( 'NONE',  ( -0.9999999997022959164, -2.440099081145985212E-05, -0.000000000000000000 ) ) ;
#323 = ORIENTED_EDGE ( 'NONE', *, *, #75, .F. ) ;
#324 = AXIS2_PLACEMENT_3D ( 'NONE', #5, #331, #123 ) ;
#325 = COORDINATED_UNIVERSAL_TIME_OFFSET ( 1, 0, .AHEAD. ) ;
#326 = ORIENTED_EDGE ( 'NONE', *, *, #149, .F. ) ;
#327 = VECTOR ( 'NONE', #195, 1000.000000000000000 ) ;
#328 = APPROVAL_STATUS ( 'not_yet_approved' ) ;
#329 = DATE_AND_TIME ( #125, #238 ) ;
#330 = PRODUCT_DEFINITION ( 'UNKNOWN', '', #36, #190 ) ;
#331 = DIRECTION ( 'NONE',  ( -0.9999999997022959164, -2.440099081145985212E-05, -0.000000000000000000 ) ) ;
#332 = ORIENTED_EDGE ( 'NONE', *, *, #16, .F. ) ;
#333 = EDGE_CURVE ( 'NONE', #119, #178, #27, .T. ) ;
#334 = CALENDAR_DATE ( 2024, 12, 8 ) ;
#335 = VERTEX_POINT ( 'NONE', #171 ) ;
#336 = DIRECTION ( 'NONE',  ( -0.9999999997022959164, -2.440099081145985212E-05, -0.000000000000000000 ) ) ;
#337 = EDGE_LOOP ( 'NONE', ( #163, #175, #232, #326 ) ) ;
#338 = CONICAL_SURFACE ( 'NONE', #269, 22.00004880198162382, 1.570771925804081537 ) ;
#339 = LINE ( 'NONE', #42, #218 ) ;
#340 = DIRECTION ( 'NONE',  ( 2.440099081149256792E-05, -0.9999999997022959164, 0.000000000000000000 ) ) ;
#341 = DIRECTION ( 'NONE',  ( 1.201075778547652795E-15, 1.000000000000000000, 0.000000000000000000 ) ) ;
#342 = AXIS2_PLACEMENT_3D ( 'NONE', #301, #272, #62 ) ;
#343 = CARTESIAN_POINT ( 'NONE',  ( -108.4545692307047489, 5.277682144846028933, 0.000000000000000000 ) ) ;
#344 = AXIS2_PLACEMENT_3D ( 'NONE', #196, #169, #261 ) ;
#345 = DIRECTION ( 'NONE',  ( 4.880198160959222357E-05, -0.9999999988091832215, 1.224646798782770786E-16 ) ) ;
#346 = CC_DESIGN_PERSON_AND_ORGANIZATION_ASSIGNMENT ( #297, #95, ( #330 ) ) ;
#347 = CARTESIAN_POINT ( 'NONE',  ( -61.45420690397536134, -9.571171004760682166, 1.818600496806737122E-15 ) ) ;
#348 = CARTESIAN_POINT ( 'NONE',  ( -61.45493161340250055, 20.12882898758833505, 0.000000000000000000 ) ) ;
#349 = PRODUCT ( '3D_R-159_DN25_1780125', '3D_R-159_DN25_1780125', '', ( #31 ) ) ;
#350 = DIRECTION ( 'NONE',  ( 4.880198160848200055E-05, -0.9999999988091832215, 1.224646798782770786E-16 ) ) ;
#351 = ORIENTED_EDGE ( 'NONE', *, *, #162, .F. ) ;
#352 = CARTESIAN_POINT ( 'NONE',  ( -108.4545692307047489, 5.277682144846028933, 0.000000000000000000 ) ) ;
#353 = ADVANCED_FACE ( 'NONE', ( #263 ), #223, .F. ) ;
#354 = ORIENTED_EDGE ( 'NONE', *, *, #215, .T. ) ;
#355 = DATE_TIME_ROLE ( 'classification_date' ) ;
#356 = CC_DESIGN_SECURITY_CLASSIFICATION ( #68, ( #36 ) ) ;
#357 = VECTOR ( 'NONE', #307, 1000.000000000000114 ) ;
#358 = VERTEX_POINT ( 'NONE', #231 ) ;
#359 = AXIS2_PLACEMENT_3D ( 'NONE', #118, #50, #174 ) ;
#360 = FACE_OUTER_BOUND ( 'NONE', #372, .T. ) ;
#361 = APPROVAL_STATUS ( 'not_yet_approved' ) ;
#362 = PERSON_AND_ORGANIZATION ( #383, #273 ) ;
#363 = AXIS2_PLACEMENT_3D ( 'NONE', #200, #322, #180 ) ;
#364 = ADVANCED_FACE ( 'NONE', ( #84 ), #145, .F. ) ;
#365 = PERSON_AND_ORGANIZATION ( #383, #273 ) ;
#366 = ORIENTED_EDGE ( 'NONE', *, *, #105, .F. ) ;
#367 = APPROVAL_ROLE ( '' ) ;
#368 = DIRECTION ( 'NONE',  ( 2.440099081163321943E-05, -0.9999999997022958054, 0.000000000000000000 ) ) ;
#369 = ORIENTED_EDGE ( 'NONE', *, *, #48, .T. ) ;
#370 = ADVANCED_FACE ( 'NONE', ( #360 ), #192, .T. ) ;
#371 = DIRECTION ( 'NONE',  ( -0.9999999997022959164, -2.440099081145985212E-05, -0.000000000000000000 ) ) ;
#372 = EDGE_LOOP ( 'NONE', ( #303, #304, #296, #86 ) ) ;
#373 = CIRCLE ( 'NONE', #22, 22.00000000000000000 ) ;
#374 = DIRECTION ( 'NONE',  ( -1.000000000000000000, -1.765826525799985003E-16, 2.988259529306203533E-21 ) ) ;
#375 = FACE_OUTER_BOUND ( 'NONE', #205, .T. ) ;
#376 = DIRECTION ( 'NONE',  ( 2.440099081166979432E-05, -0.9999999997022959164, 0.000000000000000000 ) ) ;
#377 = AXIS2_PLACEMENT_3D ( 'NONE', #290, #319, #291 ) ;
#378 = CIRCLE ( 'NONE', #104, 22.00004880198162738 ) ;
#379 = CARTESIAN_POINT ( 'NONE',  ( -108.4538579674251650, -16.72236664617325630, 2.694228934624092587E-15 ) ) ;
#380 = CONICAL_SURFACE ( 'NONE', #39, 22.00004880198162382, 1.570771925804081537 ) ;
#381 = LINE ( 'NONE', #288, #327 ) ;
#382 = DIRECTION ( 'NONE',  ( 4.880198160737177752E-05, -0.9999999988091832215, 1.224646798782770786E-16 ) ) ;
#383 = PERSON ( 'UNSPECIFIED', 'UNSPECIFIED', 'UNSPECIFIED', ('UNSPECIFIED'), ('UNSPECIFIED'), ('UNSPECIFIED') ) ;
#384 = CARTESIAN_POINT ( 'NONE',  ( -61.45456925868893450, 5.278828991413826444, 0.000000000000000000 ) ) ;
#385 = EDGE_LOOP ( 'NONE', ( #182, #34, #214, #155 ) ) ;
#386 = PRODUCT_RELATED_PRODUCT_CATEGORY ( 'detail', '', ( #349 ) ) ;
#387 = DIRECTION ( 'NONE',  ( 2.440099081112052394E-05, -0.9999999997022958054, 0.000000000000000000 ) ) ;
#388 = ORIENTED_EDGE ( 'NONE', *, *, #11, .T. ) ;
#389 = DATE_AND_TIME ( #243, #317 ) ;
ENDSEC;
END-ISO-10303-21;
