ISO-10303-21;
HEADER;
FILE_DESCRIPTION (( 'STEP AP203' ),
    '1' );
FILE_NAME ('3D_R365_114.3x2_173371151.STEP',
    '2024-07-16T06:37:07',
    ( '' ),
    ( '' ),
    'SwSTEP 2.0',
    'SolidWorks 2024',
    '' );
FILE_SCHEMA (( 'CONFIG_CONTROL_DESIGN' ));
ENDSEC;

DATA;
#1 = DIRECTION ( 'NONE',  ( 0.000000000000000000, 0.000000000000000000, 1.000000000000000000 ) ) ;
#2 = FACE_OUTER_BOUND ( 'NONE', #84, .T. ) ;
#3 = VECTOR ( 'NONE', #166, 1000.000000000000000 ) ;
#4 = EDGE_CURVE ( 'NONE', #94, #304, #278, .T. ) ;
#5 = LOCAL_TIME ( 8, 37, 7.000000000000000000, #380 ) ;
#6 = CARTESIAN_POINT ( 'NONE',  ( -49.43693653677914313, 12.68310937458581833, 0.000000000000000000 ) ) ;
#7 = CC_DESIGN_DATE_AND_TIME_ASSIGNMENT ( #133, #407, ( #377 ) ) ;
#8 = CARTESIAN_POINT ( 'NONE',  ( -57.14999999999999147, 2.627175837386805841E-16, 0.000000000000000000 ) ) ;
#9 = DIRECTION ( 'NONE',  ( -1.000000000000000000, 0.000000000000000000, 0.000000000000000000 ) ) ;
#10 = AXIS2_PLACEMENT_3D ( 'NONE', #333, #118, #158 ) ;
#11 = CIRCLE ( 'NONE', #67, 57.14999999999999147 ) ;
#12 = CARTESIAN_POINT ( 'NONE',  ( -57.14999999999997726, 2817.965330118411202, 0.000000000000000000 ) ) ;
#13 = ORIENTED_EDGE ( 'NONE', *, *, #263, .T. ) ;
#14 = DIRECTION ( 'NONE',  ( 4.596983092540343816E-18, 1.000000000000000000, -0.000000000000000000 ) ) ;
#15 = ORIENTED_EDGE ( 'NONE', *, *, #163, .T. ) ;
#16 = CARTESIAN_POINT ( 'NONE',  ( 9.895363256640624922E-16, 14.33276878388545228, 0.000000000000000000 ) ) ;
#17 = PRODUCT_DEFINITION ( 'UNKNOWN', '', #73, #152 ) ;
#18 = AXIS2_PLACEMENT_3D ( 'NONE', #241, #367, #330 ) ;
#19 = LOCAL_TIME ( 8, 37, 7.000000000000000000, #310 ) ;
#20 = CARTESIAN_POINT ( 'NONE',  ( -6.038541452798833069E-34, -1.313587918693402920E-16, 0.000000000000000000 ) ) ;
#21 = ORIENTED_EDGE ( 'NONE', *, *, #285, .T. ) ;
#22 = ORIENTED_EDGE ( 'NONE', *, *, #35, .F. ) ;
#23 = MECHANICAL_CONTEXT ( 'NONE', #331, 'mechanical' ) ;
#24 = AXIS2_PLACEMENT_3D ( 'NONE', #189, #345, #311 ) ;
#25 = ORIENTED_EDGE ( 'NONE', *, *, #4, .F. ) ;
#26 = FACE_OUTER_BOUND ( 'NONE', #270, .T. ) ;
#27 = EDGE_LOOP ( 'NONE', ( #141, #25, #298, #209 ) ) ;
#28 = VERTEX_POINT ( 'NONE', #401 ) ;
#29 = EDGE_CURVE ( 'NONE', #28, #244, #131, .T. ) ;
#30 = AXIS2_PLACEMENT_3D ( 'NONE', #379, #1, #165 ) ;
#31 = CARTESIAN_POINT ( 'NONE',  ( 9.321106019766132365E-16, 1.840722906963243588, 0.000000000000000000 ) ) ;
#32 = SECURITY_CLASSIFICATION_LEVEL ( 'unclassified' ) ;
#33 = DIRECTION ( 'NONE',  ( -1.000000000000000000, 0.000000000000000000, 0.000000000000000000 ) ) ;
#34 = CARTESIAN_POINT ( 'NONE',  ( 57.14999999999999147, -2.627175837386805841E-16, 6.998856457127122552E-15 ) ) ;
#35 = EDGE_CURVE ( 'NONE', #248, #375, #116, .T. ) ;
#36 = AXIS2_PLACEMENT_3D ( 'NONE', #111, #178, #361 ) ;
#37 = PERSON_AND_ORGANIZATION ( #61, #109 ) ;
#38 = CARTESIAN_POINT ( 'NONE',  ( 3.047250153147553150E-31, 1.840722906963233596, 0.000000000000000000 ) ) ;
#39 = APPROVAL_PERSON_ORGANIZATION ( #154, #125, #251 ) ;
#40 = DIRECTION ( 'NONE',  ( 4.596983092540343816E-18, 1.000000000000000000, -0.000000000000000000 ) ) ;
#41 = CYLINDRICAL_SURFACE ( 'NONE', #124, 55.14999999999999147 ) ;
#42 = EDGE_LOOP ( 'NONE', ( #363, #13, #87, #274 ) ) ;
#43 = LINE ( 'NONE', #12, #3 ) ;
#44 = AXIS2_PLACEMENT_3D ( 'NONE', #20, #174, #236 ) ;
#45 = AXIS2_PLACEMENT_3D ( 'NONE', #279, #218, #315 ) ;
#46 = DIRECTION ( 'NONE',  ( -1.000000000000000000, 4.596983092540343046E-18, 0.000000000000000000 ) ) ;
#47 = CARTESIAN_POINT ( 'NONE',  ( 57.15000000000000568, 2817.965330118411202, 6.998856457127122552E-15 ) ) ;
#48 = VERTEX_POINT ( 'NONE', #69 ) ;
#49 = AXIS2_PLACEMENT_3D ( 'NONE', #199, #101, #196 ) ;
#50 = CARTESIAN_POINT ( 'NONE',  ( 1.387778780781445676E-14, 2817.965330118411202, 0.000000000000000000 ) ) ;
#51 = ORIENTED_EDGE ( 'NONE', *, *, #68, .T. ) ;
#52 = PERSON_AND_ORGANIZATION ( #61, #109 ) ;
#53 = ORIENTED_EDGE ( 'NONE', *, *, #316, .F. ) ;
#54 = PRODUCT ( '3D_R365_114.3x2_173371151', '3D_R365_114.3x2_173371151', '', ( #23 ) ) ;
#55 = CARTESIAN_POINT ( 'NONE',  ( 55.15000000000000568, 2817.965330118411202, 6.753927097297651467E-15 ) ) ;
#56 = ORIENTED_EDGE ( 'NONE', *, *, #186, .T. ) ;
#57 = APPROVAL_STATUS ( 'not_yet_approved' ) ;
#58 = EDGE_LOOP ( 'NONE', ( #231, #105, #91 ) ) ;
#59 = CALENDAR_DATE ( 2024, 16, 7 ) ;
#60 = ORIENTED_EDGE ( 'NONE', *, *, #217, .T. ) ;
#61 = PERSON ( 'UNSPECIFIED', 'UNSPECIFIED', 'UNSPECIFIED', ('UNSPECIFIED'), ('UNSPECIFIED'), ('UNSPECIFIED') ) ;
#62 = EDGE_CURVE ( 'NONE', #304, #94, #146, .T. ) ;
#63 = DIRECTION ( 'NONE',  ( 4.596983092540343816E-18, 1.000000000000000000, -0.000000000000000000 ) ) ;
#64 = APPROVAL_DATE_TIME ( #341, #138 ) ;
#65 = CIRCLE ( 'NONE', #382, 13.14499999999999780 ) ;
#66 = DIRECTION ( 'NONE',  ( -1.000000000000000000, 4.596983092540343816E-18, 0.000000000000000000 ) ) ;
#67 = AXIS2_PLACEMENT_3D ( 'NONE', #182, #92, #122 ) ;
#68 = EDGE_CURVE ( 'NONE', #244, #28, #139, .T. ) ;
#69 = CARTESIAN_POINT ( 'NONE',  ( 57.15000000000000568, 1.840722906963243366, 6.998856457127124130E-15 ) ) ;
#70 = DIRECTION ( 'NONE',  ( 1.000000000000000000, -4.596983092540343816E-18, 0.000000000000000000 ) ) ;
#71 = DIRECTION ( 'NONE',  ( -1.000000000000000000, 0.000000000000000000, 0.000000000000000000 ) ) ;
#72 = AXIS2_PLACEMENT_3D ( 'NONE', #359, #360, #286 ) ;
#73 = PRODUCT_DEFINITION_FORMATION_WITH_SPECIFIED_SOURCE ( 'ANY', '', #54, .NOT_KNOWN. ) ;
#74 = DIRECTION ( 'NONE',  ( -1.000000000000000000, 0.000000000000000000, 0.000000000000000000 ) ) ;
#75 = VERTEX_POINT ( 'NONE', #6 ) ;
#76 = DIRECTION ( 'NONE',  ( 4.596983092540343816E-18, 1.000000000000000000, -0.000000000000000000 ) ) ;
#77 = DIRECTION ( 'NONE',  ( 4.596983092540343816E-18, 1.000000000000000000, -0.000000000000000000 ) ) ;
#78 = CLOSED_SHELL ( 'NONE', ( #179, #252, #275, #148, #135, #402, #411, #107, #303, #335, #256, #79, #173 ) ) ;
#79 = ADVANCED_FACE ( 'NONE', ( #100 ), #337, .F. ) ;
#80 = CARTESIAN_POINT ( 'NONE',  ( 1.095324097157392610E-14, -59.43999999999999062, 0.000000000000000000 ) ) ;
#81 = ORIENTED_EDGE ( 'NONE', *, *, #263, .F. ) ;
#82 = DIRECTION ( 'NONE',  ( -1.000000000000000000, 4.596983092540343816E-18, 0.000000000000000000 ) ) ;
#83 = FACE_BOUND ( 'NONE', #112, .T. ) ;
#84 = EDGE_LOOP ( 'NONE', ( #370, #238, #60 ) ) ;
#85 = AXIS2_PLACEMENT_3D ( 'NONE', #247, #144, #396 ) ;
#86 = DATE_AND_TIME ( #364, #376 ) ;
#87 = ORIENTED_EDGE ( 'NONE', *, *, #121, .F. ) ;
#88 = COORDINATED_UNIVERSAL_TIME_OFFSET ( 1, 0, .AHEAD. ) ;
#89 = ORIENTED_EDGE ( 'NONE', *, *, #62, .T. ) ;
#90 = APPROVAL_ROLE ( '' ) ;
#91 = ORIENTED_EDGE ( 'NONE', *, *, #265, .F. ) ;
#92 = DIRECTION ( 'NONE',  ( 4.596983092540343816E-18, 1.000000000000000000, -0.000000000000000000 ) ) ;
#93 = EDGE_CURVE ( 'NONE', #48, #289, #301, .T. ) ;
#94 = VERTEX_POINT ( 'NONE', #347 ) ;
#95 = FACE_OUTER_BOUND ( 'NONE', #145, .T. ) ;
#96 = DIRECTION ( 'NONE',  ( 0.000000000000000000, 0.000000000000000000, 1.000000000000000000 ) ) ;
#97 = CALENDAR_DATE ( 2024, 16, 7 ) ;
#98 = DIRECTION ( 'NONE',  ( 4.596983092540343816E-18, 1.000000000000000000, -0.000000000000000000 ) ) ;
#99 = CARTESIAN_POINT ( 'NONE',  ( -42.00499999999999545, 1.840722906963167427, 0.000000000000000000 ) ) ;
#100 = FACE_OUTER_BOUND ( 'NONE', #27, .T. ) ;
#101 = DIRECTION ( 'NONE',  ( 4.596983092540343816E-18, 1.000000000000000000, -0.000000000000000000 ) ) ;
#102 = EDGE_CURVE ( 'NONE', #94, #75, #65, .T. ) ;
#103 = AXIS2_PLACEMENT_3D ( 'NONE', #306, #63, #70 ) ;
#104 = DIRECTION ( 'NONE',  ( -0.000000000000000000, 0.000000000000000000, -1.000000000000000000 ) ) ;
#105 = ORIENTED_EDGE ( 'NONE', *, *, #35, .T. ) ;
#106 = FACE_OUTER_BOUND ( 'NONE', #212, .T. ) ;
#107 = ADVANCED_FACE ( 'NONE', ( #221 ), #312, .T. ) ;
#108 = CARTESIAN_POINT ( 'NONE',  ( 1.095324097157392610E-14, -59.43999999999999062, 0.000000000000000000 ) ) ;
#109 = ORGANIZATION ( 'UNSPECIFIED', 'UNSPECIFIED', '' ) ;
#110 = CARTESIAN_POINT ( 'NONE',  ( 1.387778780781445676E-14, 2817.965330118411202, 0.000000000000000000 ) ) ;
#111 = CARTESIAN_POINT ( 'NONE',  ( 0.000000000000000000, 0.000000000000000000, 0.000000000000000000 ) ) ;
#112 = EDGE_LOOP ( 'NONE', ( #51, #246 ) ) ;
#113 = PERSON_AND_ORGANIZATION_ROLE ( 'design_owner' ) ;
#114 = EDGE_CURVE ( 'NONE', #244, #94, #161, .T. ) ;
#115 = VERTEX_POINT ( 'NONE', #34 ) ;
#116 = CIRCLE ( 'NONE', #325, 89.43999999999999773 ) ;
#117 = DIRECTION ( 'NONE',  ( 4.596983092540343816E-18, 1.000000000000000000, -0.000000000000000000 ) ) ;
#118 = DIRECTION ( 'NONE',  ( 4.596983092540343816E-18, 1.000000000000000000, -0.000000000000000000 ) ) ;
#119 = CALENDAR_DATE ( 2024, 16, 7 ) ;
#120 = ORIENTED_EDGE ( 'NONE', *, *, #192, .T. ) ;
#121 = EDGE_CURVE ( 'NONE', #289, #48, #198, .T. ) ;
#122 = DIRECTION ( 'NONE',  ( -1.000000000000000000, 4.596983092540343046E-18, 0.000000000000000000 ) ) ;
#123 = VERTEX_POINT ( 'NONE', #223 ) ;
#124 = AXIS2_PLACEMENT_3D ( 'NONE', #110, #230, #74 ) ;
#125 = APPROVAL ( #255, 'UNSPECIFIED' ) ;
#126 = DIRECTION ( 'NONE',  ( 4.596983092540343816E-18, 1.000000000000000000, -0.000000000000000000 ) ) ;
#127 = MANIFOLD_SOLID_BREP ( 'Wandung1', #78 ) ;
#128 = PERSON_AND_ORGANIZATION_ROLE ( 'classification_officer' ) ;
#129 = CARTESIAN_POINT ( 'NONE',  ( 1.095324097157392610E-14, -59.43999999999999062, 0.000000000000000000 ) ) ;
#130 = CARTESIAN_POINT ( 'NONE',  ( 6.001045367313426119E-15, 27.99999999999999645, 0.000000000000000000 ) ) ;
#131 = CIRCLE ( 'NONE', #10, 55.14999999999999147 ) ;
#132 = CARTESIAN_POINT ( 'NONE',  ( 9.321106019766132365E-16, 1.840722906963243588, 0.000000000000000000 ) ) ;
#133 = DATE_AND_TIME ( #59, #19 ) ;
#134 = CARTESIAN_POINT ( 'NONE',  ( 42.00499999999999545, 1.840722906963166983, 5.144128879818455925E-15 ) ) ;
#135 = ADVANCED_FACE ( 'NONE', ( #346 ), #153, .T. ) ;
#136 = LINE ( 'NONE', #47, #213 ) ;
#137 = CARTESIAN_POINT ( 'NONE',  ( 0.000000000000000000, 1.840722906963167205, 0.000000000000000000 ) ) ;
#138 = APPROVAL ( #57, 'UNSPECIFIED' ) ;
#139 = CIRCLE ( 'NONE', #103, 55.14999999999999147 ) ;
#140 = DIRECTION ( 'NONE',  ( -1.000000000000000000, 0.000000000000000000, 0.000000000000000000 ) ) ;
#141 = ORIENTED_EDGE ( 'NONE', *, *, #291, .F. ) ;
#142 = DIRECTION ( 'NONE',  ( -0.000000000000000000, 0.000000000000000000, -1.000000000000000000 ) ) ;
#143 = ORIENTED_EDGE ( 'NONE', *, *, #201, .T. ) ;
#144 = DIRECTION ( 'NONE',  ( 4.596983092540343816E-18, 1.000000000000000000, -0.000000000000000000 ) ) ;
#145 = EDGE_LOOP ( 'NONE', ( #356, #273, #336 ) ) ;
#146 = CIRCLE ( 'NONE', #172, 55.14999999999999147 ) ;
#147 = VERTEX_POINT ( 'NONE', #130 ) ;
#148 = ADVANCED_FACE ( 'NONE', ( #283 ), #253, .T. ) ;
#149 =( NAMED_UNIT ( * ) SI_UNIT ( $, .STERADIAN. ) SOLID_ANGLE_UNIT ( ) );
#150 = ORIENTED_EDGE ( 'NONE', *, *, #163, .F. ) ;
#151 = DIRECTION ( 'NONE',  ( -1.000000000000000000, 3.794233324533698915E-18, 0.000000000000000000 ) ) ;
#152 = DESIGN_CONTEXT ( 'detailed design', #314, 'design' ) ;
#153 = TOROIDAL_SURFACE ( 'NONE', #24, 42.00499999999999545, 15.14499999999999957 ) ;
#154 = PERSON_AND_ORGANIZATION ( #61, #109 ) ;
#155 = DIRECTION ( 'NONE',  ( -1.000000000000000000, 3.931830181271095688E-18, 0.000000000000000000 ) ) ;
#156 = DATE_AND_TIME ( #97, #5 ) ;
#157 = CARTESIAN_POINT ( 'NONE',  ( 9.895363256640624922E-16, 14.33276878388545228, 0.000000000000000000 ) ) ;
#158 = DIRECTION ( 'NONE',  ( 1.000000000000000000, -4.596983092540343816E-18, 0.000000000000000000 ) ) ;
#159 = SHAPE_DEFINITION_REPRESENTATION ( #237, #225 ) ;
#160 = AXIS2_PLACEMENT_3D ( 'NONE', #409, #216, #66 ) ;
#161 = LINE ( 'NONE', #254, #271 ) ;
#162 = APPROVAL_PERSON_ORGANIZATION ( #334, #138, #405 ) ;
#163 = EDGE_CURVE ( 'NONE', #48, #248, #181, .T. ) ;
#164 = CARTESIAN_POINT ( 'NONE',  ( 1.095324097157392610E-14, -59.43999999999999062, 0.000000000000000000 ) ) ;
#165 = DIRECTION ( 'NONE',  ( -1.000000000000000000, 0.000000000000000000, 0.000000000000000000 ) ) ;
#166 = DIRECTION ( 'NONE',  ( 4.596983092540343816E-18, 1.000000000000000000, -0.000000000000000000 ) ) ;
#167 = VECTOR ( 'NONE', #117, 1000.000000000000000 ) ;
#168 = ORIENTED_EDGE ( 'NONE', *, *, #68, .F. ) ;
#169 = DIRECTION ( 'NONE',  ( 4.596983092540343816E-18, 1.000000000000000000, -0.000000000000000000 ) ) ;
#170 = DIRECTION ( 'NONE',  ( 4.596983092540343816E-18, 1.000000000000000000, -0.000000000000000000 ) ) ;
#171 = CIRCLE ( 'NONE', #220, 57.14999999999999147 ) ;
#172 = AXIS2_PLACEMENT_3D ( 'NONE', #38, #191, #155 ) ;
#173 = ADVANCED_FACE ( 'NONE', ( #2 ), #259, .F. ) ;
#174 = DIRECTION ( 'NONE',  ( -4.596983092540343816E-18, -1.000000000000000000, 0.000000000000000000 ) ) ;
#175 = ORIENTED_EDGE ( 'NONE', *, *, #114, .F. ) ;
#176 =( NAMED_UNIT ( * ) PLANE_ANGLE_UNIT ( ) SI_UNIT ( $, .RADIAN. ) );
#177 = EDGE_LOOP ( 'NONE', ( #81, #21, #120, #302 ) ) ;
#178 = DIRECTION ( 'NONE',  ( 0.000000000000000000, 0.000000000000000000, 1.000000000000000000 ) ) ;
#179 = ADVANCED_FACE ( 'NONE', ( #95 ), #277, .F. ) ;
#180 = ORIENTED_EDGE ( 'NONE', *, *, #93, .T. ) ;
#181 = CIRCLE ( 'NONE', #365, 15.14499999999999957 ) ;
#182 = CARTESIAN_POINT ( 'NONE',  ( 9.236488298952508525E-16, 0.000000000000000000, 0.000000000000000000 ) ) ;
#183 = ORIENTED_EDGE ( 'NONE', *, *, #114, .T. ) ;
#184 = EDGE_LOOP ( 'NONE', ( #373, #15, #269, #53 ) ) ;
#185 = DIRECTION ( 'NONE',  ( 1.000000000000000000, 0.000000000000000000, 1.224646799147353207E-16 ) ) ;
#186 = EDGE_CURVE ( 'NONE', #248, #123, #393, .T. ) ;
#187 = AXIS2_PLACEMENT_3D ( 'NONE', #157, #170, #140 ) ;
#188 = CALENDAR_DATE ( 2024, 16, 7 ) ;
#189 = CARTESIAN_POINT ( 'NONE',  ( 0.000000000000000000, 1.840722906963167205, 0.000000000000000000 ) ) ;
#190 = DIRECTION ( 'NONE',  ( -1.224646799147353207E-16, 5.629680630014033300E-34, 1.000000000000000000 ) ) ;
#191 = DIRECTION ( 'NONE',  ( 4.596983092540343816E-18, 1.000000000000000000, -0.000000000000000000 ) ) ;
#192 = EDGE_CURVE ( 'NONE', #215, #289, #43, .T. ) ;
#193 = CC_DESIGN_APPROVAL ( #395, ( #17 ) ) ;
#194 = CARTESIAN_POINT ( 'NONE',  ( 50.56769903762028662, 14.33276878388545228, 6.595806766896979317E-15 ) ) ;
#195 = ORIENTED_EDGE ( 'NONE', *, *, #102, .F. ) ;
#196 = DIRECTION ( 'NONE',  ( -1.000000000000000000, 0.000000000000000000, 0.000000000000000000 ) ) ;
#197 = DIRECTION ( 'NONE',  ( -1.000000000000000000, 0.000000000000000000, 0.000000000000000000 ) ) ;
#198 = CIRCLE ( 'NONE', #358, 57.14999999999999858 ) ;
#199 = CARTESIAN_POINT ( 'NONE',  ( 1.387778780781445676E-14, 2817.965330118411202, 0.000000000000000000 ) ) ;
#200 = DIRECTION ( 'NONE',  ( -1.224646799147353207E-16, 5.629680630014033300E-34, 1.000000000000000000 ) ) ;
#201 = EDGE_CURVE ( 'NONE', #339, #75, #242, .T. ) ;
#202 = DIRECTION ( 'NONE',  ( -1.000000000000000000, 0.000000000000000000, 0.000000000000000000 ) ) ;
#203 = ORIENTED_EDGE ( 'NONE', *, *, #186, .F. ) ;
#204 = AXIS2_PLACEMENT_3D ( 'NONE', #129, #96, #33 ) ;
#205 = CC_DESIGN_PERSON_AND_ORGANIZATION_ASSIGNMENT ( #329, #297, ( #17 ) ) ;
#206 = APPROVAL_DATE_TIME ( #86, #395 ) ;
#207 = ORIENTED_EDGE ( 'NONE', *, *, #62, .F. ) ;
#208 = PERSON_AND_ORGANIZATION ( #61, #109 ) ;
#209 = ORIENTED_EDGE ( 'NONE', *, *, #348, .T. ) ;
#210 = DATE_TIME_ROLE ( 'creation_date' ) ;
#211 = CC_DESIGN_PERSON_AND_ORGANIZATION_ASSIGNMENT ( #378, #222, ( #73 ) ) ;
#212 = EDGE_LOOP ( 'NONE', ( #150, #180, #296, #203 ) ) ;
#213 = VECTOR ( 'NONE', #14, 1000.000000000000000 ) ;
#214 = CC_DESIGN_APPROVAL ( #138, ( #73 ) ) ;
#215 = VERTEX_POINT ( 'NONE', #8 ) ;
#216 = DIRECTION ( 'NONE',  ( 4.596983092540343816E-18, 1.000000000000000000, -0.000000000000000000 ) ) ;
#217 = EDGE_CURVE ( 'NONE', #75, #147, #349, .T. ) ;
#218 = DIRECTION ( 'NONE',  ( 4.596983092540343816E-18, 1.000000000000000000, -0.000000000000000000 ) ) ;
#219 = AXIS2_PLACEMENT_3D ( 'NONE', #50, #245, #267 ) ;
#220 = AXIS2_PLACEMENT_3D ( 'NONE', #322, #264, #262 ) ;
#221 = FACE_OUTER_BOUND ( 'NONE', #177, .T. ) ;
#222 = PERSON_AND_ORGANIZATION_ROLE ( 'creator' ) ;
#223 = CARTESIAN_POINT ( 'NONE',  ( -50.56769903762028662, 14.33276878388545228, 0.000000000000000000 ) ) ;
#224 = DIRECTION ( 'NONE',  ( -1.000000000000000000, 0.000000000000000000, 0.000000000000000000 ) ) ;
#225 = ADVANCED_BREP_SHAPE_REPRESENTATION ( '3D_R365_114.3x2_173371151', ( #127, #36 ), #391 ) ;
#226 = AXIS2_PLACEMENT_3D ( 'NONE', #31, #98, #151 ) ;
#227 = AXIS2_PLACEMENT_3D ( 'NONE', #235, #104, #352 ) ;
#228 = CYLINDRICAL_SURFACE ( 'NONE', #49, 55.14999999999999147 ) ;
#229 = ORIENTED_EDGE ( 'NONE', *, *, #362, .F. ) ;
#230 = DIRECTION ( 'NONE',  ( 4.596983092540343816E-18, 1.000000000000000000, -0.000000000000000000 ) ) ;
#231 = ORIENTED_EDGE ( 'NONE', *, *, #328, .T. ) ;
#232 = DIRECTION ( 'NONE',  ( -1.000000000000000000, 0.000000000000000000, 0.000000000000000000 ) ) ;
#233 = SPHERICAL_SURFACE ( 'NONE', #326, 89.43999999999999773 ) ;
#234 = EDGE_LOOP ( 'NONE', ( #22, #56, #406 ) ) ;
#235 = CARTESIAN_POINT ( 'NONE',  ( -42.00499999999999545, 1.840722906963167427, 0.000000000000000000 ) ) ;
#236 = DIRECTION ( 'NONE',  ( 1.000000000000000000, -4.596983092540343816E-18, 0.000000000000000000 ) ) ;
#237 = PRODUCT_DEFINITION_SHAPE ( 'NONE', 'NONE',  #17 ) ;
#238 = ORIENTED_EDGE ( 'NONE', *, *, #348, .F. ) ;
#239 = CC_DESIGN_PERSON_AND_ORGANIZATION_ASSIGNMENT ( #309, #344, ( #73 ) ) ;
#240 = APPROVAL_STATUS ( 'not_yet_approved' ) ;
#241 = CARTESIAN_POINT ( 'NONE',  ( 3.047250153147553150E-31, 1.840722906963233596, 0.000000000000000000 ) ) ;
#242 = CIRCLE ( 'NONE', #287, 49.43693653677915734 ) ;
#243 = PLANE ( 'NONE',  #44 ) ;
#244 = VERTEX_POINT ( 'NONE', #321 ) ;
#245 = DIRECTION ( 'NONE',  ( 4.596983092540343816E-18, 1.000000000000000000, -0.000000000000000000 ) ) ;
#246 = ORIENTED_EDGE ( 'NONE', *, *, #29, .T. ) ;
#247 = CARTESIAN_POINT ( 'NONE',  ( 1.128478968595033458E-14, 12.68310937458581833, 0.000000000000000000 ) ) ;
#248 = VERTEX_POINT ( 'NONE', #194 ) ;
#249 = AXIS2_PLACEMENT_3D ( 'NONE', #280, #385, #71 ) ;
#250 = CC_DESIGN_APPROVAL ( #125, ( #377 ) ) ;
#251 = APPROVAL_ROLE ( '' ) ;
#252 = ADVANCED_FACE ( 'NONE', ( #290 ), #294, .F. ) ;
#253 = SPHERICAL_SURFACE ( 'NONE', #204, 89.43999999999999773 ) ;
#254 = CARTESIAN_POINT ( 'NONE',  ( -55.14999999999997726, 2817.965330118411202, 0.000000000000000000 ) ) ;
#255 = APPROVAL_STATUS ( 'not_yet_approved' ) ;
#256 = ADVANCED_FACE ( 'NONE', ( #260 ), #41, .F. ) ;
#257 = DIRECTION ( 'NONE',  ( -1.000000000000000000, 3.794233324533698915E-18, 0.000000000000000000 ) ) ;
#258 = CC_DESIGN_PERSON_AND_ORGANIZATION_ASSIGNMENT ( #37, #128, ( #377 ) ) ;
#259 = SPHERICAL_SURFACE ( 'NONE', #249, 87.43999999999998352 ) ;
#260 = FACE_OUTER_BOUND ( 'NONE', #404, .T. ) ;
#261 = AXIS2_PLACEMENT_3D ( 'NONE', #108, #200, #355 ) ;
#262 = DIRECTION ( 'NONE',  ( -1.000000000000000000, 4.596983092540343046E-18, 0.000000000000000000 ) ) ;
#263 = EDGE_CURVE ( 'NONE', #115, #48, #136, .T. ) ;
#264 = DIRECTION ( 'NONE',  ( 4.596983092540343816E-18, 1.000000000000000000, -0.000000000000000000 ) ) ;
#265 = EDGE_CURVE ( 'NONE', #123, #375, #350, .T. ) ;
#266 = CARTESIAN_POINT ( 'NONE',  ( 1.128478968595033458E-14, 12.68310937458581833, 0.000000000000000000 ) ) ;
#267 = DIRECTION ( 'NONE',  ( -1.000000000000000000, 0.000000000000000000, 0.000000000000000000 ) ) ;
#268 = ORIENTED_EDGE ( 'NONE', *, *, #371, .F. ) ;
#269 = ORIENTED_EDGE ( 'NONE', *, *, #328, .F. ) ;
#270 = EDGE_LOOP ( 'NONE', ( #229, #300 ) ) ;
#271 = VECTOR ( 'NONE', #383, 1000.000000000000000 ) ;
#272 = LINE ( 'NONE', #55, #167 ) ;
#273 = ORIENTED_EDGE ( 'NONE', *, *, #320, .T. ) ;
#274 = ORIENTED_EDGE ( 'NONE', *, *, #192, .F. ) ;
#275 = ADVANCED_FACE ( 'NONE', ( #389 ), #228, .F. ) ;
#276 = COORDINATED_UNIVERSAL_TIME_OFFSET ( 1, 0, .AHEAD. ) ;
#277 = SPHERICAL_SURFACE ( 'NONE', #30, 87.43999999999998352 ) ;
#278 = CIRCLE ( 'NONE', #18, 55.14999999999999147 ) ;
#279 = CARTESIAN_POINT ( 'NONE',  ( 1.387778780781445676E-14, 2817.965330118411202, 0.000000000000000000 ) ) ;
#280 = CARTESIAN_POINT ( 'NONE',  ( 1.095324097157392610E-14, -59.43999999999999062, 0.000000000000000000 ) ) ;
#281 = APPROVAL_DATE_TIME ( #156, #125 ) ;
#282 = DIRECTION ( 'NONE',  ( 1.000000000000000000, 0.000000000000000000, 1.224646799147353207E-16 ) ) ;
#283 = FACE_OUTER_BOUND ( 'NONE', #58, .T. ) ;
#284 = DIRECTION ( 'NONE',  ( 0.000000000000000000, 0.000000000000000000, 1.000000000000000000 ) ) ;
#285 = EDGE_CURVE ( 'NONE', #115, #215, #171, .T. ) ;
#286 = DIRECTION ( 'NONE',  ( -1.000000000000000000, 0.000000000000000000, 0.000000000000000000 ) ) ;
#287 = AXIS2_PLACEMENT_3D ( 'NONE', #266, #169, #197 ) ;
#288 = CARTESIAN_POINT ( 'NONE',  ( 49.43693653677917155, 12.68310937458581833, 6.404102853119698313E-15 ) ) ;
#289 = VERTEX_POINT ( 'NONE', #390 ) ;
#290 = FACE_OUTER_BOUND ( 'NONE', #327, .T. ) ;
#291 = EDGE_CURVE ( 'NONE', #304, #339, #307, .T. ) ;
#292 = DIRECTION ( 'NONE',  ( -1.224646799147353207E-16, 5.629680630014033300E-34, 1.000000000000000000 ) ) ;
#293 = FACE_OUTER_BOUND ( 'NONE', #42, .T. ) ;
#294 = TOROIDAL_SURFACE ( 'NONE', #343, 42.00499999999999545, 13.14499999999999957 ) ;
#295 = CC_DESIGN_SECURITY_CLASSIFICATION ( #377, ( #73 ) ) ;
#296 = ORIENTED_EDGE ( 'NONE', *, *, #316, .T. ) ;
#297 = PERSON_AND_ORGANIZATION_ROLE ( 'creator' ) ;
#298 = ORIENTED_EDGE ( 'NONE', *, *, #102, .T. ) ;
#299 = CYLINDRICAL_SURFACE ( 'NONE', #219, 57.14999999999999147 ) ;
#300 = ORIENTED_EDGE ( 'NONE', *, *, #285, .F. ) ;
#301 = CIRCLE ( 'NONE', #226, 57.14999999999999858 ) ;
#302 = ORIENTED_EDGE ( 'NONE', *, *, #93, .F. ) ;
#303 = ADVANCED_FACE ( 'NONE', ( #106 ), #408, .T. ) ;
#304 = VERTEX_POINT ( 'NONE', #392 ) ;
#305 = UNCERTAINTY_MEASURE_WITH_UNIT (LENGTH_MEASURE( 1.000000000000000082E-05 ), #324, 'distance_accuracy_value', 'NONE');
#306 = CARTESIAN_POINT ( 'NONE',  ( 9.236488298952508525E-16, 0.000000000000000000, 0.000000000000000000 ) ) ;
#307 = CIRCLE ( 'NONE', #313, 13.14499999999999780 ) ;
#308 = CIRCLE ( 'NONE', #227, 15.14499999999999957 ) ;
#309 = PERSON_AND_ORGANIZATION ( #61, #109 ) ;
#310 = COORDINATED_UNIVERSAL_TIME_OFFSET ( 1, 0, .AHEAD. ) ;
#311 = DIRECTION ( 'NONE',  ( -1.000000000000000000, 4.596983092540343046E-18, 0.000000000000000000 ) ) ;
#312 = CYLINDRICAL_SURFACE ( 'NONE', #45, 57.14999999999999147 ) ;
#313 = AXIS2_PLACEMENT_3D ( 'NONE', #357, #292, #319 ) ;
#314 = APPLICATION_CONTEXT ( 'configuration controlled 3d designs of mechanical parts and assemblies' ) ;
#315 = DIRECTION ( 'NONE',  ( -1.000000000000000000, 0.000000000000000000, 0.000000000000000000 ) ) ;
#316 = EDGE_CURVE ( 'NONE', #289, #123, #308, .T. ) ;
#317 = CARTESIAN_POINT ( 'NONE',  ( 0.000000000000000000, 1.840722906963167205, 0.000000000000000000 ) ) ;
#318 = ORIENTED_EDGE ( 'NONE', *, *, #291, .T. ) ;
#319 = DIRECTION ( 'NONE',  ( 1.000000000000000000, 0.000000000000000000, 1.224646799147353207E-16 ) ) ;
#320 = EDGE_CURVE ( 'NONE', #339, #147, #400, .T. ) ;
#321 = CARTESIAN_POINT ( 'NONE',  ( -55.14999999999999147, 2.535236175535999088E-16, 0.000000000000000000 ) ) ;
#322 = CARTESIAN_POINT ( 'NONE',  ( 9.236488298952508525E-16, 0.000000000000000000, 0.000000000000000000 ) ) ;
#323 = ORIENTED_EDGE ( 'NONE', *, *, #29, .F. ) ;
#324 =( LENGTH_UNIT ( ) NAMED_UNIT ( * ) SI_UNIT ( .MILLI., .METRE. ) );
#325 = AXIS2_PLACEMENT_3D ( 'NONE', #381, #190, #185 ) ;
#326 = AXIS2_PLACEMENT_3D ( 'NONE', #164, #284, #202 ) ;
#327 = EDGE_LOOP ( 'NONE', ( #207, #318, #143, #195 ) ) ;
#328 = EDGE_CURVE ( 'NONE', #123, #248, #366, .T. ) ;
#329 = PERSON_AND_ORGANIZATION ( #61, #109 ) ;
#330 = DIRECTION ( 'NONE',  ( -1.000000000000000000, 3.931830181271095688E-18, 0.000000000000000000 ) ) ;
#331 = APPLICATION_CONTEXT ( 'configuration controlled 3d designs of mechanical parts and assemblies' ) ;
#332 = APPLICATION_PROTOCOL_DEFINITION ( 'international standard', 'config_control_design', 1994, #314 ) ;
#333 = CARTESIAN_POINT ( 'NONE',  ( 9.236488298952508525E-16, 0.000000000000000000, 0.000000000000000000 ) ) ;
#334 = PERSON_AND_ORGANIZATION ( #61, #109 ) ;
#335 = ADVANCED_FACE ( 'NONE', ( #386 ), #233, .T. ) ;
#336 = ORIENTED_EDGE ( 'NONE', *, *, #217, .F. ) ;
#337 = TOROIDAL_SURFACE ( 'NONE', #160, 42.00499999999999545, 13.14499999999999957 ) ;
#338 = APPROVAL_PERSON_ORGANIZATION ( #208, #395, #90 ) ;
#339 = VERTEX_POINT ( 'NONE', #288 ) ;
#340 = DIRECTION ( 'NONE',  ( -0.000000000000000000, 0.000000000000000000, -1.000000000000000000 ) ) ;
#341 = DATE_AND_TIME ( #188, #394 ) ;
#342 = DIRECTION ( 'NONE',  ( -1.224646799147353207E-16, 5.629680630014033300E-34, 1.000000000000000000 ) ) ;
#343 = AXIS2_PLACEMENT_3D ( 'NONE', #137, #40, #82 ) ;
#344 = PERSON_AND_ORGANIZATION_ROLE ( 'design_supplier' ) ;
#345 = DIRECTION ( 'NONE',  ( 4.596983092540343816E-18, 1.000000000000000000, -0.000000000000000000 ) ) ;
#346 = FACE_OUTER_BOUND ( 'NONE', #184, .T. ) ;
#347 = CARTESIAN_POINT ( 'NONE',  ( -55.14999999999999147, 1.840722906963233818, 0.000000000000000000 ) ) ;
#348 = EDGE_CURVE ( 'NONE', #75, #339, #388, .T. ) ;
#349 = CIRCLE ( 'NONE', #72, 87.43999999999998352 ) ;
#350 = CIRCLE ( 'NONE', #399, 89.43999999999999773 ) ;
#351 = LOCAL_TIME ( 8, 37, 7.000000000000000000, #88 ) ;
#352 = DIRECTION ( 'NONE',  ( -1.000000000000000000, 0.000000000000000000, 0.000000000000000000 ) ) ;
#353 = ORIENTED_EDGE ( 'NONE', *, *, #4, .T. ) ;
#354 = CC_DESIGN_DATE_AND_TIME_ASSIGNMENT ( #372, #210, ( #17 ) ) ;
#355 = DIRECTION ( 'NONE',  ( 1.000000000000000000, 0.000000000000000000, 1.224646799147353454E-16 ) ) ;
#356 = ORIENTED_EDGE ( 'NONE', *, *, #201, .F. ) ;
#357 = CARTESIAN_POINT ( 'NONE',  ( 42.00499999999999545, 1.840722906963166983, 5.144128879818455925E-15 ) ) ;
#358 = AXIS2_PLACEMENT_3D ( 'NONE', #132, #126, #257 ) ;
#359 = CARTESIAN_POINT ( 'NONE',  ( 1.095324097157392610E-14, -59.43999999999999062, 0.000000000000000000 ) ) ;
#360 = DIRECTION ( 'NONE',  ( -0.000000000000000000, 0.000000000000000000, -1.000000000000000000 ) ) ;
#361 = DIRECTION ( 'NONE',  ( 1.000000000000000000, 0.000000000000000000, 0.000000000000000000 ) ) ;
#362 = EDGE_CURVE ( 'NONE', #215, #115, #11, .T. ) ;
#363 = ORIENTED_EDGE ( 'NONE', *, *, #362, .T. ) ;
#364 = CALENDAR_DATE ( 2024, 16, 7 ) ;
#365 = AXIS2_PLACEMENT_3D ( 'NONE', #134, #342, #282 ) ;
#366 = CIRCLE ( 'NONE', #410, 50.56769903762028662 ) ;
#367 = DIRECTION ( 'NONE',  ( 4.596983092540343816E-18, 1.000000000000000000, -0.000000000000000000 ) ) ;
#368 = PRODUCT_RELATED_PRODUCT_CATEGORY ( 'detail', '', ( #54 ) ) ;
#369 = COORDINATED_UNIVERSAL_TIME_OFFSET ( 1, 0, .AHEAD. ) ;
#370 = ORIENTED_EDGE ( 'NONE', *, *, #320, .F. ) ;
#371 = EDGE_CURVE ( 'NONE', #28, #304, #272, .T. ) ;
#372 = DATE_AND_TIME ( #119, #351 ) ;
#373 = ORIENTED_EDGE ( 'NONE', *, *, #121, .T. ) ;
#374 = CARTESIAN_POINT ( 'NONE',  ( 5.887774653583771202E-15, 30.00000000000000000, 0.000000000000000000 ) ) ;
#375 = VERTEX_POINT ( 'NONE', #374 ) ;
#376 = LOCAL_TIME ( 8, 37, 7.000000000000000000, #369 ) ;
#377 = SECURITY_CLASSIFICATION ( '', '', #32 ) ;
#378 = PERSON_AND_ORGANIZATION ( #61, #109 ) ;
#379 = CARTESIAN_POINT ( 'NONE',  ( 1.095324097157392610E-14, -59.43999999999999062, 0.000000000000000000 ) ) ;
#380 = COORDINATED_UNIVERSAL_TIME_OFFSET ( 1, 0, .AHEAD. ) ;
#381 = CARTESIAN_POINT ( 'NONE',  ( 1.095324097157392610E-14, -59.43999999999999062, 0.000000000000000000 ) ) ;
#382 = AXIS2_PLACEMENT_3D ( 'NONE', #99, #340, #224 ) ;
#383 = DIRECTION ( 'NONE',  ( 4.596983092540343816E-18, 1.000000000000000000, -0.000000000000000000 ) ) ;
#384 = CC_DESIGN_PERSON_AND_ORGANIZATION_ASSIGNMENT ( #52, #113, ( #54 ) ) ;
#385 = DIRECTION ( 'NONE',  ( 0.000000000000000000, 0.000000000000000000, 1.000000000000000000 ) ) ;
#386 = FACE_OUTER_BOUND ( 'NONE', #234, .T. ) ;
#387 = AXIS2_PLACEMENT_3D ( 'NONE', #317, #77, #46 ) ;
#388 = CIRCLE ( 'NONE', #85, 49.43693653677915734 ) ;
#389 = FACE_OUTER_BOUND ( 'NONE', #398, .T. ) ;
#390 = CARTESIAN_POINT ( 'NONE',  ( -57.14999999999999858, 1.840722906963243810, 0.000000000000000000 ) ) ;
#391 =( GEOMETRIC_REPRESENTATION_CONTEXT ( 3 ) GLOBAL_UNCERTAINTY_ASSIGNED_CONTEXT ( ( #305 ) ) GLOBAL_UNIT_ASSIGNED_CONTEXT ( ( #324, #176, #149 ) ) REPRESENTATION_CONTEXT ( 'NONE', 'WORKASPACE' ) );
#392 = CARTESIAN_POINT ( 'NONE',  ( 55.14999999999999147, 1.840722906963233374, 6.753927097297651467E-15 ) ) ;
#393 = CIRCLE ( 'NONE', #187, 50.56769903762028662 ) ;
#394 = LOCAL_TIME ( 8, 37, 7.000000000000000000, #276 ) ;
#395 = APPROVAL ( #240, 'UNSPECIFIED' ) ;
#396 = DIRECTION ( 'NONE',  ( -1.000000000000000000, 0.000000000000000000, 0.000000000000000000 ) ) ;
#397 = ORIENTED_EDGE ( 'NONE', *, *, #371, .T. ) ;
#398 = EDGE_LOOP ( 'NONE', ( #323, #397, #89, #175 ) ) ;
#399 = AXIS2_PLACEMENT_3D ( 'NONE', #80, #142, #9 ) ;
#400 = CIRCLE ( 'NONE', #261, 87.43999999999998352 ) ;
#401 = CARTESIAN_POINT ( 'NONE',  ( 55.14999999999999147, -2.535236175535999088E-16, 6.753927097297651467E-15 ) ) ;
#402 = ADVANCED_FACE ( 'NONE', ( #293 ), #299, .T. ) ;
#403 = APPLICATION_PROTOCOL_DEFINITION ( 'international standard', 'config_control_design', 1994, #331 ) ;
#404 = EDGE_LOOP ( 'NONE', ( #268, #168, #183, #353 ) ) ;
#405 = APPROVAL_ROLE ( '' ) ;
#406 = ORIENTED_EDGE ( 'NONE', *, *, #265, .T. ) ;
#407 = DATE_TIME_ROLE ( 'classification_date' ) ;
#408 = TOROIDAL_SURFACE ( 'NONE', #387, 42.00499999999999545, 15.14499999999999957 ) ;
#409 = CARTESIAN_POINT ( 'NONE',  ( 0.000000000000000000, 1.840722906963167205, 0.000000000000000000 ) ) ;
#410 = AXIS2_PLACEMENT_3D ( 'NONE', #16, #76, #232 ) ;
#411 = ADVANCED_FACE ( 'NONE', ( #83, #26 ), #243, .T. ) ;
ENDSEC;
END-ISO-10303-21;
