ISO-10303-21;
HEADER;
FILE_DESCRIPTION (( 'STEP AP203' ),
    '1' );
FILE_NAME ('6018301_OSTP.step',
    '2024-03-20T08:41:18',
    ( '' ),
    ( '' ),
    'SwSTEP 2.0',
    'SolidWorks 2014',
    '' );
FILE_SCHEMA (( 'CONFIG_CONTROL_DESIGN' ));
ENDSEC;

DATA;
#1 = CARTESIAN_POINT ( 'NONE',  ( 184.0000000000000000, 8.625003655147953700E-015, 0.0000000000000000000 ) ) ;
#2 = FACE_OUTER_BOUND ( 'NONE', #270, .T. ) ;
#3 = ADVANCED_FACE ( 'NONE', ( #221 ), #242, .T. ) ;
#4 = DIRECTION ( 'NONE',  ( -1.982489495665708100E-016, -1.000000000000000000, 0.0000000000000000000 ) ) ;
#5 = DIRECTION ( 'NONE',  ( 1.000000000000000000, -1.982489495665708100E-016, 0.0000000000000000000 ) ) ;
#6 = VECTOR ( 'NONE', #10, 1000.000000000000000 ) ;
#7 = ADVANCED_FACE ( 'NONE', ( #94, #137 ), #278, .F. ) ;
#8 = AXIS2_PLACEMENT_3D ( 'NONE', #208, #322, #151 ) ;
#9 = ORIENTED_EDGE ( 'NONE', *, *, #115, .F. ) ;
#10 = DIRECTION ( 'NONE',  ( 1.982489495665708100E-016, 1.000000000000000000, -0.0000000000000000000 ) ) ;
#11 = APPROVAL_DATE_TIME ( #61, #387 ) ;
#12 = DIRECTION ( 'NONE',  ( -1.982489495665708100E-016, -1.000000000000000000, 0.0000000000000000000 ) ) ;
#13 = CARTESIAN_POINT ( 'NONE',  ( 7.929957982662919300E-016, 4.000000000000047100, 0.0000000000000000000 ) ) ;
#14 = APPLICATION_CONTEXT ( 'configuration controlled 3d designs of mechanical parts and assemblies' ) ;
#15 = ORIENTED_EDGE ( 'NONE', *, *, #146, .F. ) ;
#16 = VERTEX_POINT ( 'NONE', #190 ) ;
#17 = EDGE_CURVE ( 'NONE', #88, #16, #57, .T. ) ;
#18 = DIRECTION ( 'NONE',  ( -1.982489495665708100E-016, -1.000000000000000000, 0.0000000000000000000 ) ) ;
#19 =( NAMED_UNIT ( * ) SI_UNIT ( $, .STERADIAN. ) SOLID_ANGLE_UNIT ( ) );
#20 = DIRECTION ( 'NONE',  ( -1.000000000000000000, 1.982489495665708600E-016, 0.0000000000000000000 ) ) ;
#21 = AXIS2_PLACEMENT_3D ( 'NONE', #176, #46, #20 ) ;
#22 = ORIENTED_EDGE ( 'NONE', *, *, #86, .T. ) ;
#23 = CIRCLE ( 'NONE', #308, 161.9500000000000500 ) ;
#24 = CARTESIAN_POINT ( 'NONE',  ( 5.550970587863982600E-015, 28.00000000000000400, 0.0000000000000000000 ) ) ;
#25 = EDGE_CURVE ( 'NONE', #205, #88, #192, .T. ) ;
#26 = VECTOR ( 'NONE', #73, 1000.000000000000000 ) ;
#27 = EDGE_LOOP ( 'NONE', ( #328, #259, #64, #260 ) ) ;
#28 = ORGANIZATION ( 'UNSPECIFIED', 'UNSPECIFIED', '' ) ;
#29 = AXIS2_PLACEMENT_3D ( 'NONE', #338, #402, #222 ) ;
#30 = ORIENTED_EDGE ( 'NONE', *, *, #58, .F. ) ;
#31 = CARTESIAN_POINT ( 'NONE',  ( -165.9500000000000500, 8.000000000000078200, 2.032301363185033400E-014 ) ) ;
#32 = CIRCLE ( 'NONE', #21, 188.0000000000000000 ) ;
#33 = DIRECTION ( 'NONE',  ( -1.000000000000000000, 0.0000000000000000000, 0.0000000000000000000 ) ) ;
#34 = TOROIDAL_SURFACE ( 'NONE', #236, 165.9500000000000500, 4.000000000000000000 ) ;
#35 = EDGE_CURVE ( 'NONE', #332, #205, #23, .T. ) ;
#36 = DIRECTION ( 'NONE',  ( 1.000000000000000000, -1.982489495665708400E-016, 0.0000000000000000000 ) ) ;
#37 = ORIENTED_EDGE ( 'NONE', *, *, #146, .T. ) ;
#38 = EDGE_LOOP ( 'NONE', ( #9, #186 ) ) ;
#39 = LOCAL_TIME ( 9, 41, 18.00000000000000000, #266 ) ;
#40 = DIRECTION ( 'NONE',  ( 1.000000000000000000, 0.0000000000000000000, -1.224646799147349500E-016 ) ) ;
#41 = DIRECTION ( 'NONE',  ( -1.000000000000000000, 0.0000000000000000000, 0.0000000000000000000 ) ) ;
#42 = EDGE_CURVE ( 'NONE', #375, #314, #344, .T. ) ;
#43 = ORIENTED_EDGE ( 'NONE', *, *, #245, .T. ) ;
#44 = LOCAL_TIME ( 9, 41, 18.00000000000000000, #154 ) ;
#45 = DIRECTION ( 'NONE',  ( 1.000000000000000000, -1.982489495665708400E-016, 0.0000000000000000000 ) ) ;
#46 = DIRECTION ( 'NONE',  ( 1.982489495665708100E-016, 1.000000000000000000, -0.0000000000000000000 ) ) ;
#47 = APPROVAL_ROLE ( '' ) ;
#48 = ORIENTED_EDGE ( 'NONE', *, *, #169, .T. ) ;
#49 = VECTOR ( 'NONE', #99, 1000.000000000000000 ) ;
#50 = PRODUCT_DEFINITION ( 'UNKNOWN', '', #85, #138 ) ;
#51 = PERSON_AND_ORGANIZATION ( #404, #28 ) ;
#52 = AXIS2_PLACEMENT_3D ( 'NONE', #53, #334, #369 ) ;
#53 = CARTESIAN_POINT ( 'NONE',  ( 3.004450713244087900E-029, 1.526556658859590200E-013, 0.0000000000000000000 ) ) ;
#54 = DIRECTION ( 'NONE',  ( -1.982489495665708100E-016, -1.000000000000000000, 0.0000000000000000000 ) ) ;
#55 = FACE_OUTER_BOUND ( 'NONE', #310, .T. ) ;
#56 = CC_DESIGN_PERSON_AND_ORGANIZATION_ASSIGNMENT ( #51, #171, ( #85 ) ) ;
#57 = CIRCLE ( 'NONE', #382, 161.9500000000000500 ) ;
#58 = EDGE_CURVE ( 'NONE', #108, #205, #336, .T. ) ;
#59 = DIRECTION ( 'NONE',  ( -1.000000000000000000, 1.982489495665708400E-016, 0.0000000000000000000 ) ) ;
#60 = ORIENTED_EDGE ( 'NONE', *, *, #86, .F. ) ;
#61 = DATE_AND_TIME ( #286, #209 ) ;
#62 = DIRECTION ( 'NONE',  ( -1.982489495665708100E-016, -1.000000000000000000, 0.0000000000000000000 ) ) ;
#63 = CIRCLE ( 'NONE', #134, 161.9500000000000500 ) ;
#64 = ORIENTED_EDGE ( 'NONE', *, *, #253, .T. ) ;
#65 = ORIENTED_EDGE ( 'NONE', *, *, #340, .F. ) ;
#66 = CARTESIAN_POINT ( 'NONE',  ( 157.9500000000001000, 9.705611563824384800E-014, 1.934329619253245600E-014 ) ) ;
#67 = CARTESIAN_POINT ( 'NONE',  ( -157.9500000000001000, 1.596829588063236000E-013, 0.0000000000000000000 ) ) ;
#68 = APPROVAL ( #105, 'UNSPECIFIED' ) ;
#69 = PLANE ( 'NONE',  #347 ) ;
#70 = EDGE_CURVE ( 'NONE', #370, #264, #224, .T. ) ;
#71 = DIRECTION ( 'NONE',  ( 1.982489495665708100E-016, 1.000000000000000000, -0.0000000000000000000 ) ) ;
#72 = DIRECTION ( 'NONE',  ( 1.000000000000000000, -2.035180366999649600E-016, 0.0000000000000000000 ) ) ;
#73 = DIRECTION ( 'NONE',  ( 1.982489495665708100E-016, 1.000000000000000000, -0.0000000000000000000 ) ) ;
#74 = DATE_AND_TIME ( #182, #147 ) ;
#75 = APPROVAL_ROLE ( '' ) ;
#76 = CARTESIAN_POINT ( 'NONE',  ( 5.550970587863977100E-015, 27.99999999999997200, 0.0000000000000000000 ) ) ;
#77 = PERSON_AND_ORGANIZATION_ROLE ( 'creator' ) ;
#78 = DIRECTION ( 'NONE',  ( 1.982489495665708100E-016, 1.000000000000000000, -0.0000000000000000000 ) ) ;
#79 = EDGE_LOOP ( 'NONE', ( #276, #295, #173, #89 ) ) ;
#80 = VERTEX_POINT ( 'NONE', #102 ) ;
#81 = APPLICATION_PROTOCOL_DEFINITION ( 'international standard', 'config_control_design', 1994, #14 ) ;
#82 = ORIENTED_EDGE ( 'NONE', *, *, #163, .F. ) ;
#83 = CARTESIAN_POINT ( 'NONE',  ( 7.929957982662921200E-016, 4.000000000000047100, 0.0000000000000000000 ) ) ;
#84 = CYLINDRICAL_SURFACE ( 'NONE', #230, 161.9500000000000500 ) ;
#85 = PRODUCT_DEFINITION_FORMATION_WITH_SPECIFIED_SOURCE ( 'ANY', '', #339, .NOT_KNOWN. ) ;
#86 = EDGE_CURVE ( 'NONE', #80, #108, #103, .T. ) ;
#87 = DATE_AND_TIME ( #300, #346 ) ;
#88 = VERTEX_POINT ( 'NONE', #120 ) ;
#89 = ORIENTED_EDGE ( 'NONE', *, *, #91, .F. ) ;
#90 =( LENGTH_UNIT ( ) NAMED_UNIT ( * ) SI_UNIT ( .MILLI., .METRE. ) );
#91 = EDGE_CURVE ( 'NONE', #314, #16, #361, .T. ) ;
#92 = CARTESIAN_POINT ( 'NONE',  ( 5.550970587863977100E-015, 27.99999999999997200, 0.0000000000000000000 ) ) ;
#93 = ORIENTED_EDGE ( 'NONE', *, *, #364, .T. ) ;
#94 = FACE_OUTER_BOUND ( 'NONE', #38, .T. ) ;
#95 = CARTESIAN_POINT ( 'NONE',  ( -157.9500000000001300, 28.00000000000003600, 0.0000000000000000000 ) ) ;
#96 = ADVANCED_FACE ( 'NONE', ( #206 ), #84, .T. ) ;
#97 = FACE_OUTER_BOUND ( 'NONE', #381, .T. ) ;
#98 = CALENDAR_DATE ( 2024, 20, 3 ) ;
#99 = DIRECTION ( 'NONE',  ( 1.982489495665708100E-016, 1.000000000000000000, -0.0000000000000000000 ) ) ;
#100 = CC_DESIGN_DATE_AND_TIME_ASSIGNMENT ( #74, #142, ( #50 ) ) ;
#101 = DIRECTION ( 'NONE',  ( 1.982489495665708100E-016, 1.000000000000000000, -0.0000000000000000000 ) ) ;
#102 = CARTESIAN_POINT ( 'NONE',  ( 165.9500000000000500, 4.000000000000013300, 0.0000000000000000000 ) ) ;
#103 = CIRCLE ( 'NONE', #214, 165.9500000000000500 ) ;
#104 = DIRECTION ( 'NONE',  ( 0.0000000000000000000, -0.0000000000000000000, -1.000000000000000000 ) ) ;
#105 = APPROVAL_STATUS ( 'not_yet_approved' ) ;
#106 = CARTESIAN_POINT ( 'NONE',  ( 5.550970587863982600E-015, 28.00000000000000400, 0.0000000000000000000 ) ) ;
#107 = PERSON_AND_ORGANIZATION ( #404, #28 ) ;
#108 = VERTEX_POINT ( 'NONE', #172 ) ;
#109 =( NAMED_UNIT ( * ) PLANE_ANGLE_UNIT ( ) SI_UNIT ( $, .RADIAN. ) );
#110 = LINE ( 'NONE', #246, #321 ) ;
#111 = AXIS2_PLACEMENT_3D ( 'NONE', #24, #140, #213 ) ;
#112 = ORIENTED_EDGE ( 'NONE', *, *, #340, .T. ) ;
#113 = ORIENTED_EDGE ( 'NONE', *, *, #306, .F. ) ;
#114 = ORIENTED_EDGE ( 'NONE', *, *, #70, .F. ) ;
#115 = EDGE_CURVE ( 'NONE', #264, #383, #32, .T. ) ;
#116 = EDGE_LOOP ( 'NONE', ( #82, #118, #365, #268 ) ) ;
#117 = COORDINATED_UNIVERSAL_TIME_OFFSET ( 1, 0, .AHEAD. ) ;
#118 = ORIENTED_EDGE ( 'NONE', *, *, #35, .T. ) ;
#119 = EDGE_CURVE ( 'NONE', #303, #88, #371, .T. ) ;
#120 = CARTESIAN_POINT ( 'NONE',  ( -161.9500000000000500, 24.00000000000005300, 0.0000000000000000000 ) ) ;
#121 = CIRCLE ( 'NONE', #156, 4.000000000000003600 ) ;
#122 = DIRECTION ( 'NONE',  ( 0.0000000000000000000, 0.0000000000000000000, 1.000000000000000000 ) ) ;
#123 = EDGE_LOOP ( 'NONE', ( #333, #136, #249, #65 ) ) ;
#124 = EDGE_LOOP ( 'NONE', ( #211, #149, #144, #348 ) ) ;
#125 = CARTESIAN_POINT ( 'NONE',  ( 7.929957982662919300E-016, 4.000000000000047100, 0.0000000000000000000 ) ) ;
#126 = COORDINATED_UNIVERSAL_TIME_OFFSET ( 1, 0, .AHEAD. ) ;
#127 = CC_DESIGN_PERSON_AND_ORGANIZATION_ASSIGNMENT ( #298, #359, ( #50 ) ) ;
#128 = DIRECTION ( 'NONE',  ( -1.000000000000000000, 1.976892850116018200E-016, 0.0000000000000000000 ) ) ;
#129 = AXIS2_PLACEMENT_3D ( 'NONE', #219, #372, #59 ) ;
#130 = DIRECTION ( 'NONE',  ( -1.982489495665708100E-016, -1.000000000000000000, 0.0000000000000000000 ) ) ;
#131 = ORIENTED_EDGE ( 'NONE', *, *, #42, .F. ) ;
#132 = ADVANCED_FACE ( 'NONE', ( #277 ), #238, .T. ) ;
#133 = DIRECTION ( 'NONE',  ( 1.982489495665708100E-016, 1.000000000000000000, -0.0000000000000000000 ) ) ;
#134 = AXIS2_PLACEMENT_3D ( 'NONE', #226, #200, #287 ) ;
#135 = DIRECTION ( 'NONE',  ( 1.982489495665708100E-016, 1.000000000000000000, -0.0000000000000000000 ) ) ;
#136 = ORIENTED_EDGE ( 'NONE', *, *, #58, .T. ) ;
#137 = FACE_BOUND ( 'NONE', #304, .T. ) ;
#138 = DESIGN_CONTEXT ( 'detailed design', #14, 'design' ) ;
#139 = CARTESIAN_POINT ( 'NONE',  ( 4.757974789597703200E-015, 24.00000000000002100, 0.0000000000000000000 ) ) ;
#140 = DIRECTION ( 'NONE',  ( 1.982489495665708100E-016, 1.000000000000000000, -0.0000000000000000000 ) ) ;
#141 = EDGE_CURVE ( 'NONE', #314, #303, #283, .T. ) ;
#142 = DATE_TIME_ROLE ( 'creation_date' ) ;
#143 = CYLINDRICAL_SURFACE ( 'NONE', #261, 157.9500000000001000 ) ;
#144 = ORIENTED_EDGE ( 'NONE', *, *, #141, .T. ) ;
#145 = DIRECTION ( 'NONE',  ( 1.982489495665708100E-016, 1.000000000000000000, -0.0000000000000000000 ) ) ;
#146 = EDGE_CURVE ( 'NONE', #150, #370, #212, .T. ) ;
#147 = LOCAL_TIME ( 9, 41, 18.00000000000000000, #117 ) ;
#148 = FACE_OUTER_BOUND ( 'NONE', #123, .T. ) ;
#149 = ORIENTED_EDGE ( 'NONE', *, *, #42, .T. ) ;
#150 = VERTEX_POINT ( 'NONE', #324 ) ;
#151 = DIRECTION ( 'NONE',  ( 1.000000000000000000, -1.982489495665708100E-016, 0.0000000000000000000 ) ) ;
#152 = CC_DESIGN_PERSON_AND_ORGANIZATION_ASSIGNMENT ( #378, #77, ( #85 ) ) ;
#153 = ORIENTED_EDGE ( 'NONE', *, *, #169, .F. ) ;
#154 = COORDINATED_UNIVERSAL_TIME_OFFSET ( 1, 0, .AHEAD. ) ;
#155 = DIRECTION ( 'NONE',  ( 1.982489495665708100E-016, 1.000000000000000000, -0.0000000000000000000 ) ) ;
#156 = AXIS2_PLACEMENT_3D ( 'NONE', #281, #234, #41 ) ;
#157 = ADVANCED_FACE ( 'NONE', ( #55 ), #271, .T. ) ;
#158 = CLOSED_SHELL ( 'NONE', ( #161, #255, #3, #235, #284, #96, #279, #7, #311, #157, #231, #132 ) ) ;
#159 = CARTESIAN_POINT ( 'NONE',  ( 157.9500000000001000, 27.99999999999994300, 1.934329619253245600E-014 ) ) ;
#160 = CIRCLE ( 'NONE', #181, 165.9500000000000500 ) ;
#161 = ADVANCED_FACE ( 'NONE', ( #367 ), #216, .T. ) ;
#162 = DIRECTION ( 'NONE',  ( 1.000000000000000000, 0.0000000000000000000, -1.224646799147349500E-016 ) ) ;
#163 = EDGE_CURVE ( 'NONE', #332, #16, #110, .T. ) ;
#164 = CARTESIAN_POINT ( 'NONE',  ( -157.9500000000001000, 28.00000000000000400, 0.0000000000000000000 ) ) ;
#165 = DIRECTION ( 'NONE',  ( -1.982489495665708100E-016, -1.000000000000000000, 0.0000000000000000000 ) ) ;
#166 = CARTESIAN_POINT ( 'NONE',  ( 2.465190328815661900E-029, 1.283695372222837200E-013, 0.0000000000000000000 ) ) ;
#167 = CARTESIAN_POINT ( 'NONE',  ( 4.757974789597703200E-015, 24.00000000000002100, 0.0000000000000000000 ) ) ;
#168 = DIRECTION ( 'NONE',  ( 1.000000000000000000, -1.986125100545907100E-016, 0.0000000000000000000 ) ) ;
#169 = EDGE_CURVE ( 'NONE', #370, #150, #341, .T. ) ;
#170 = DIRECTION ( 'NONE',  ( -1.000000000000000000, 1.982489495665708100E-016, 0.0000000000000000000 ) ) ;
#171 = PERSON_AND_ORGANIZATION_ROLE ( 'design_supplier' ) ;
#172 = CARTESIAN_POINT ( 'NONE',  ( -165.9500000000000500, 4.000000000000079000, 2.032301363185033400E-014 ) ) ;
#173 = ORIENTED_EDGE ( 'NONE', *, *, #253, .F. ) ;
#174 = DIRECTION ( 'NONE',  ( 1.000000000000000000, -1.986125100545907100E-016, 0.0000000000000000000 ) ) ;
#175 = PERSON_AND_ORGANIZATION_ROLE ( 'classification_officer' ) ;
#176 = CARTESIAN_POINT ( 'NONE',  ( 3.004450713244087900E-029, 1.526556658859590200E-013, 0.0000000000000000000 ) ) ;
#177 = AXIS2_PLACEMENT_3D ( 'NONE', #315, #388, #162 ) ;
#178 = CARTESIAN_POINT ( 'NONE',  ( 1.585991596532574800E-015, 8.000000000000044400, 0.0000000000000000000 ) ) ;
#179 = DATE_AND_TIME ( #98, #39 ) ;
#180 = CIRCLE ( 'NONE', #52, 188.0000000000000000 ) ;
#181 = AXIS2_PLACEMENT_3D ( 'NONE', #125, #165, #168 ) ;
#182 = CALENDAR_DATE ( 2024, 20, 3 ) ;
#183 = CARTESIAN_POINT ( 'NONE',  ( -161.9500000000000500, 8.000000000000078200, 0.0000000000000000000 ) ) ;
#184 = AXIS2_PLACEMENT_3D ( 'NONE', #352, #357, #390 ) ;
#185 = ORIENTED_EDGE ( 'NONE', *, *, #217, .T. ) ;
#186 = ORIENTED_EDGE ( 'NONE', *, *, #202, .F. ) ;
#187 = CYLINDRICAL_SURFACE ( 'NONE', #337, 161.9500000000000500 ) ;
#188 = PRODUCT_DEFINITION_SHAPE ( 'NONE', 'NONE',  #50 ) ;
#189 = DATE_AND_TIME ( #272, #44 ) ;
#190 = CARTESIAN_POINT ( 'NONE',  ( 161.9500000000000500, 23.99999999999998900, 1.983315491219139000E-014 ) ) ;
#191 = EDGE_CURVE ( 'NONE', #303, #314, #197, .T. ) ;
#192 = LINE ( 'NONE', #380, #49 ) ;
#193 = PERSON_AND_ORGANIZATION ( #404, #28 ) ;
#194 = DIRECTION ( 'NONE',  ( 1.224646799147353200E-016, -2.427849415210259900E-032, 1.000000000000000000 ) ) ;
#195 = DIRECTION ( 'NONE',  ( 1.000000000000000000, -1.928065610841773200E-016, 0.0000000000000000000 ) ) ;
#196 = ORIENTED_EDGE ( 'NONE', *, *, #115, .T. ) ;
#197 = CIRCLE ( 'NONE', #111, 157.9500000000001300 ) ;
#198 = DIRECTION ( 'NONE',  ( 1.982489495665708100E-016, 1.000000000000000000, -0.0000000000000000000 ) ) ;
#199 = AXIS2_PLACEMENT_3D ( 'NONE', #386, #101, #128 ) ;
#200 = DIRECTION ( 'NONE',  ( 1.982489495665708100E-016, 1.000000000000000000, -0.0000000000000000000 ) ) ;
#201 = APPROVAL_PERSON_ORGANIZATION ( #107, #387, #290 ) ;
#202 = EDGE_CURVE ( 'NONE', #383, #264, #180, .T. ) ;
#203 = CARTESIAN_POINT ( 'NONE',  ( 188.0000000000000000, 1.153848633674437100E-013, 0.0000000000000000000 ) ) ;
#204 = DIRECTION ( 'NONE',  ( 1.000000000000000000, -1.982489495665708100E-016, 0.0000000000000000000 ) ) ;
#205 = VERTEX_POINT ( 'NONE', #183 ) ;
#206 = FACE_OUTER_BOUND ( 'NONE', #116, .T. ) ;
#207 = DIRECTION ( 'NONE',  ( -1.982489495665708100E-016, -1.000000000000000000, 0.0000000000000000000 ) ) ;
#208 = CARTESIAN_POINT ( 'NONE',  ( 8.474091755303837800E-030, 4.510281037539698400E-014, 0.0000000000000000000 ) ) ;
#209 = LOCAL_TIME ( 9, 41, 18.00000000000000000, #318 ) ;
#210 = CC_DESIGN_APPROVAL ( #68, ( #50 ) ) ;
#211 = ORIENTED_EDGE ( 'NONE', *, *, #217, .F. ) ;
#212 = CIRCLE ( 'NONE', #374, 184.0000000000000000 ) ;
#213 = DIRECTION ( 'NONE',  ( -1.000000000000000000, 1.976892850116018000E-016, 0.0000000000000000000 ) ) ;
#214 = AXIS2_PLACEMENT_3D ( 'NONE', #13, #207, #174 ) ;
#215 = SHAPE_DEFINITION_REPRESENTATION ( #188, #296 ) ;
#216 = TOROIDAL_SURFACE ( 'NONE', #29, 157.9500000000000500, 4.000000000000000000 ) ;
#217 = EDGE_CURVE ( 'NONE', #375, #320, #265, .T. ) ;
#218 = PERSON_AND_ORGANIZATION ( #404, #28 ) ;
#219 = CARTESIAN_POINT ( 'NONE',  ( 2.465190328815661900E-029, 1.283695372222837200E-013, 0.0000000000000000000 ) ) ;
#220 = CIRCLE ( 'NONE', #177, 4.000000000000003600 ) ;
#221 = FACE_OUTER_BOUND ( 'NONE', #288, .T. ) ;
#222 = DIRECTION ( 'NONE',  ( 1.000000000000000000, -1.982489495665708400E-016, 0.0000000000000000000 ) ) ;
#223 = DIRECTION ( 'NONE',  ( 1.000000000000000000, -1.979847445408312600E-016, 0.0000000000000000000 ) ) ;
#224 = CIRCLE ( 'NONE', #331, 4.000000000000003600 ) ;
#225 = DIRECTION ( 'NONE',  ( 0.0000000000000000000, -0.0000000000000000000, -1.000000000000000000 ) ) ;
#226 = CARTESIAN_POINT ( 'NONE',  ( 1.585991596532574800E-015, 8.000000000000044400, 0.0000000000000000000 ) ) ;
#227 = ORIENTED_EDGE ( 'NONE', *, *, #70, .T. ) ;
#228 = ORIENTED_EDGE ( 'NONE', *, *, #202, .T. ) ;
#229 = CARTESIAN_POINT ( 'NONE',  ( 4.757974789597703200E-015, 24.00000000000002100, 0.0000000000000000000 ) ) ;
#230 = AXIS2_PLACEMENT_3D ( 'NONE', #76, #133, #263 ) ;
#231 = ADVANCED_FACE ( 'NONE', ( #2 ), #243, .F. ) ;
#232 = CARTESIAN_POINT ( 'NONE',  ( 157.9500000000001300, 27.99999999999997200, 1.934329619253245900E-014 ) ) ;
#233 = EDGE_LOOP ( 'NONE', ( #22, #93 ) ) ;
#234 = DIRECTION ( 'NONE',  ( 0.0000000000000000000, -0.0000000000000000000, -1.000000000000000000 ) ) ;
#235 = ADVANCED_FACE ( 'NONE', ( #267 ), #143, .F. ) ;
#236 = AXIS2_PLACEMENT_3D ( 'NONE', #385, #251, #36 ) ;
#237 = LINE ( 'NONE', #164, #6 ) ;
#238 = TOROIDAL_SURFACE ( 'NONE', #345, 157.9500000000000500, 4.000000000000000000 ) ;
#239 = CC_DESIGN_PERSON_AND_ORGANIZATION_ASSIGNMENT ( #351, #350, ( #339 ) ) ;
#240 = DIRECTION ( 'NONE',  ( -1.000000000000000000, 1.976892850116018200E-016, 0.0000000000000000000 ) ) ;
#241 = CC_DESIGN_APPROVAL ( #387, ( #307 ) ) ;
#242 = TOROIDAL_SURFACE ( 'NONE', #291, 184.0000000000000000, 4.000000000000000000 ) ;
#243 = TOROIDAL_SURFACE ( 'NONE', #250, 165.9500000000000500, 4.000000000000000000 ) ;
#244 = CIRCLE ( 'NONE', #305, 161.9500000000000500 ) ;
#245 = EDGE_CURVE ( 'NONE', #320, #303, #237, .T. ) ;
#246 = CARTESIAN_POINT ( 'NONE',  ( 161.9500000000000500, 27.99999999999994300, 1.983315491219139000E-014 ) ) ;
#247 = ORIENTED_EDGE ( 'NONE', *, *, #91, .T. ) ;
#248 = DIRECTION ( 'NONE',  ( -1.000000000000000000, 1.928065610841773200E-016, 0.0000000000000000000 ) ) ;
#249 = ORIENTED_EDGE ( 'NONE', *, *, #35, .F. ) ;
#250 = AXIS2_PLACEMENT_3D ( 'NONE', #178, #54, #330 ) ;
#251 = DIRECTION ( 'NONE',  ( -1.982489495665708100E-016, -1.000000000000000000, 0.0000000000000000000 ) ) ;
#252 = CIRCLE ( 'NONE', #280, 157.9500000000001000 ) ;
#253 = EDGE_CURVE ( 'NONE', #16, #88, #244, .T. ) ;
#254 = DIRECTION ( 'NONE',  ( 1.982489495665708100E-016, 1.000000000000000000, -0.0000000000000000000 ) ) ;
#255 = ADVANCED_FACE ( 'NONE', ( #148 ), #34, .F. ) ;
#256 = CARTESIAN_POINT ( 'NONE',  ( -188.0000000000000000, 1.899264684044743400E-013, 2.302335982397023900E-014 ) ) ;
#257 = DIRECTION ( 'NONE',  ( 1.000000000000000000, 0.0000000000000000000, 0.0000000000000000000 ) ) ;
#258 = CARTESIAN_POINT ( 'NONE',  ( 7.929957982662921200E-016, 4.000000000000047100, 0.0000000000000000000 ) ) ;
#259 = ORIENTED_EDGE ( 'NONE', *, *, #163, .T. ) ;
#260 = ORIENTED_EDGE ( 'NONE', *, *, #25, .F. ) ;
#261 = AXIS2_PLACEMENT_3D ( 'NONE', #400, #145, #240 ) ;
#262 = APPROVAL_STATUS ( 'not_yet_approved' ) ;
#263 = DIRECTION ( 'NONE',  ( -1.000000000000000000, 1.928065610841773200E-016, 0.0000000000000000000 ) ) ;
#264 = VERTEX_POINT ( 'NONE', #203 ) ;
#265 = CIRCLE ( 'NONE', #129, 157.9500000000001000 ) ;
#266 = COORDINATED_UNIVERSAL_TIME_OFFSET ( 1, 0, .AHEAD. ) ;
#267 = FACE_OUTER_BOUND ( 'NONE', #124, .T. ) ;
#268 = ORIENTED_EDGE ( 'NONE', *, *, #17, .T. ) ;
#269 = APPROVAL_PERSON_ORGANIZATION ( #349, #68, #47 ) ;
#270 = EDGE_LOOP ( 'NONE', ( #30, #60, #112, #360 ) ) ;
#271 = TOROIDAL_SURFACE ( 'NONE', #8, 184.0000000000000000, 4.000000000000000000 ) ;
#272 = CALENDAR_DATE ( 2024, 20, 3 ) ;
#273 = CC_DESIGN_APPROVAL ( #396, ( #85 ) ) ;
#274 = EDGE_CURVE ( 'NONE', #205, #332, #63, .T. ) ;
#275 = CARTESIAN_POINT ( 'NONE',  ( 8.474091755303837800E-030, 4.510281037539698400E-014, 0.0000000000000000000 ) ) ;
#276 = ORIENTED_EDGE ( 'NONE', *, *, #191, .F. ) ;
#277 = FACE_OUTER_BOUND ( 'NONE', #398, .T. ) ;
#278 = PLANE ( 'NONE',  #356 ) ;
#279 = ADVANCED_FACE ( 'NONE', ( #393, #302 ), #69, .F. ) ;
#280 = AXIS2_PLACEMENT_3D ( 'NONE', #166, #71, #313 ) ;
#281 = CARTESIAN_POINT ( 'NONE',  ( 165.9500000000000500, 8.000000000000012400, 0.0000000000000000000 ) ) ;
#282 = EDGE_LOOP ( 'NONE', ( #48, #37 ) ) ;
#283 = CIRCLE ( 'NONE', #327, 157.9500000000001300 ) ;
#284 = ADVANCED_FACE ( 'NONE', ( #358 ), #187, .T. ) ;
#285 = CARTESIAN_POINT ( 'NONE',  ( 161.9500000000000500, 4.000000000000015100, 0.0000000000000000000 ) ) ;
#286 = CALENDAR_DATE ( 2024, 20, 3 ) ;
#287 = DIRECTION ( 'NONE',  ( 1.000000000000000000, -2.035180366999649600E-016, 0.0000000000000000000 ) ) ;
#288 = EDGE_LOOP ( 'NONE', ( #15, #399, #228, #114 ) ) ;
#289 = ORIENTED_EDGE ( 'NONE', *, *, #191, .T. ) ;
#290 = APPROVAL_ROLE ( '' ) ;
#291 = AXIS2_PLACEMENT_3D ( 'NONE', #275, #62, #204 ) ;
#292 = CARTESIAN_POINT ( 'NONE',  ( 157.9500000000000500, 23.99999999999998900, 0.0000000000000000000 ) ) ;
#293 = DIRECTION ( 'NONE',  ( 1.000000000000000000, -1.979847445408312600E-016, 0.0000000000000000000 ) ) ;
#294 = ORIENTED_EDGE ( 'NONE', *, *, #335, .F. ) ;
#295 = ORIENTED_EDGE ( 'NONE', *, *, #119, .T. ) ;
#296 = ADVANCED_BREP_SHAPE_REPRESENTATION ( '6018301_OSTP', ( #323, #363 ), #301 ) ;
#297 = APPLICATION_CONTEXT ( 'configuration controlled 3d designs of mechanical parts and assemblies' ) ;
#298 = PERSON_AND_ORGANIZATION ( #404, #28 ) ;
#299 = CC_DESIGN_DATE_AND_TIME_ASSIGNMENT ( #179, #362, ( #307 ) ) ;
#300 = CALENDAR_DATE ( 2024, 20, 3 ) ;
#301 =( GEOMETRIC_REPRESENTATION_CONTEXT ( 3 ) GLOBAL_UNCERTAINTY_ASSIGNED_CONTEXT ( ( #366 ) ) GLOBAL_UNIT_ASSIGNED_CONTEXT ( ( #90, #109, #19 ) ) REPRESENTATION_CONTEXT ( 'NONE', 'WORKASPACE' ) );
#302 = FACE_BOUND ( 'NONE', #233, .T. ) ;
#303 = VERTEX_POINT ( 'NONE', #95 ) ;
#304 = EDGE_LOOP ( 'NONE', ( #343, #185 ) ) ;
#305 = AXIS2_PLACEMENT_3D ( 'NONE', #229, #130, #195 ) ;
#306 = EDGE_CURVE ( 'NONE', #320, #375, #252, .T. ) ;
#307 = SECURITY_CLASSIFICATION ( '', '', #326 ) ;
#308 = AXIS2_PLACEMENT_3D ( 'NONE', #316, #254, #72 ) ;
#309 = CARTESIAN_POINT ( 'NONE',  ( 188.0000000000000000, 1.026254247213280400E-013, 0.0000000000000000000 ) ) ;
#310 = EDGE_LOOP ( 'NONE', ( #294, #153, #227, #196 ) ) ;
#311 = ADVANCED_FACE ( 'NONE', ( #97 ), #329, .F. ) ;
#312 = CARTESIAN_POINT ( 'NONE',  ( 161.9500000000000500, 8.000000000000012400, 1.983315491219139000E-014 ) ) ;
#313 = DIRECTION ( 'NONE',  ( -1.000000000000000000, 1.982489495665708400E-016, 0.0000000000000000000 ) ) ;
#314 = VERTEX_POINT ( 'NONE', #232 ) ;
#315 = CARTESIAN_POINT ( 'NONE',  ( -184.0000000000000000, 8.158061709564601500E-014, 2.253350110431129900E-014 ) ) ;
#316 = CARTESIAN_POINT ( 'NONE',  ( 1.585991596532574800E-015, 8.000000000000044400, 0.0000000000000000000 ) ) ;
#317 = CARTESIAN_POINT ( 'NONE',  ( 184.0000000000000000, 4.000000000000010700, 0.0000000000000000000 ) ) ;
#318 = COORDINATED_UNIVERSAL_TIME_OFFSET ( 1, 0, .AHEAD. ) ;
#319 = MECHANICAL_CONTEXT ( 'NONE', #297, 'mechanical' ) ;
#320 = VERTEX_POINT ( 'NONE', #67 ) ;
#321 = VECTOR ( 'NONE', #392, 1000.000000000000000 ) ;
#322 = DIRECTION ( 'NONE',  ( -1.982489495665708100E-016, -1.000000000000000000, 0.0000000000000000000 ) ) ;
#323 = MANIFOLD_SOLID_BREP ( 'Cosmetic_Fillet', #158 ) ;
#324 = CARTESIAN_POINT ( 'NONE',  ( -184.0000000000000000, 4.000000000000083500, 2.277843046414076900E-014 ) ) ;
#325 = APPROVAL_STATUS ( 'not_yet_approved' ) ;
#326 = SECURITY_CLASSIFICATION_LEVEL ( 'unclassified' ) ;
#327 = AXIS2_PLACEMENT_3D ( 'NONE', #106, #135, #354 ) ;
#328 = ORIENTED_EDGE ( 'NONE', *, *, #274, .T. ) ;
#329 = CYLINDRICAL_SURFACE ( 'NONE', #199, 157.9500000000001000 ) ;
#330 = DIRECTION ( 'NONE',  ( 1.000000000000000000, -1.982489495665708400E-016, 0.0000000000000000000 ) ) ;
#331 = AXIS2_PLACEMENT_3D ( 'NONE', #1, #225, #33 ) ;
#332 = VERTEX_POINT ( 'NONE', #312 ) ;
#333 = ORIENTED_EDGE ( 'NONE', *, *, #364, .F. ) ;
#334 = DIRECTION ( 'NONE',  ( 1.982489495665708100E-016, 1.000000000000000000, -0.0000000000000000000 ) ) ;
#335 = EDGE_CURVE ( 'NONE', #150, #383, #220, .T. ) ;
#336 = CIRCLE ( 'NONE', #401, 4.000000000000003600 ) ;
#337 = AXIS2_PLACEMENT_3D ( 'NONE', #92, #198, #248 ) ;
#338 = CARTESIAN_POINT ( 'NONE',  ( 4.757974789597703200E-015, 24.00000000000002100, 0.0000000000000000000 ) ) ;
#339 = PRODUCT ( '6018301_OSTP', '6018301_OSTP', '', ( #319 ) ) ;
#340 = EDGE_CURVE ( 'NONE', #80, #332, #121, .T. ) ;
#341 = CIRCLE ( 'NONE', #397, 184.0000000000000000 ) ;
#342 = APPROVAL_DATE_TIME ( #87, #396 ) ;
#343 = ORIENTED_EDGE ( 'NONE', *, *, #306, .T. ) ;
#344 = LINE ( 'NONE', #159, #26 ) ;
#345 = AXIS2_PLACEMENT_3D ( 'NONE', #139, #18, #45 ) ;
#346 = LOCAL_TIME ( 9, 41, 18.00000000000000000, #126 ) ;
#347 = AXIS2_PLACEMENT_3D ( 'NONE', #285, #4, #5 ) ;
#348 = ORIENTED_EDGE ( 'NONE', *, *, #245, .F. ) ;
#349 = PERSON_AND_ORGANIZATION ( #404, #28 ) ;
#350 = PERSON_AND_ORGANIZATION_ROLE ( 'design_owner' ) ;
#351 = PERSON_AND_ORGANIZATION ( #404, #28 ) ;
#352 = CARTESIAN_POINT ( 'NONE',  ( -157.9500000000000500, 24.00000000000005300, 1.934329619253244900E-014 ) ) ;
#353 = APPROVAL_PERSON_ORGANIZATION ( #218, #396, #75 ) ;
#354 = DIRECTION ( 'NONE',  ( -1.000000000000000000, 1.976892850116018000E-016, 0.0000000000000000000 ) ) ;
#355 = APPLICATION_PROTOCOL_DEFINITION ( 'international standard', 'config_control_design', 1994, #297 ) ;
#356 = AXIS2_PLACEMENT_3D ( 'NONE', #309, #155, #170 ) ;
#357 = DIRECTION ( 'NONE',  ( 1.224646799147353200E-016, -2.427849415210259900E-032, 1.000000000000000000 ) ) ;
#358 = FACE_OUTER_BOUND ( 'NONE', #27, .T. ) ;
#359 = PERSON_AND_ORGANIZATION_ROLE ( 'creator' ) ;
#360 = ORIENTED_EDGE ( 'NONE', *, *, #274, .F. ) ;
#361 = CIRCLE ( 'NONE', #379, 4.000000000000003600 ) ;
#362 = DATE_TIME_ROLE ( 'classification_date' ) ;
#363 = AXIS2_PLACEMENT_3D ( 'NONE', #384, #122, #257 ) ;
#364 = EDGE_CURVE ( 'NONE', #108, #80, #160, .T. ) ;
#365 = ORIENTED_EDGE ( 'NONE', *, *, #25, .T. ) ;
#366 = UNCERTAINTY_MEASURE_WITH_UNIT (LENGTH_MEASURE( 1.000000000000000100E-005 ), #90, 'distance_accuracy_value', 'NONE');
#367 = FACE_OUTER_BOUND ( 'NONE', #79, .T. ) ;
#368 = DIRECTION ( 'NONE',  ( 1.982489495665708100E-016, 1.000000000000000000, -0.0000000000000000000 ) ) ;
#369 = DIRECTION ( 'NONE',  ( -1.000000000000000000, 1.982489495665708600E-016, 0.0000000000000000000 ) ) ;
#370 = VERTEX_POINT ( 'NONE', #317 ) ;
#371 = CIRCLE ( 'NONE', #184, 4.000000000000003600 ) ;
#372 = DIRECTION ( 'NONE',  ( 1.982489495665708100E-016, 1.000000000000000000, -0.0000000000000000000 ) ) ;
#373 = CC_DESIGN_PERSON_AND_ORGANIZATION_ASSIGNMENT ( #193, #175, ( #307 ) ) ;
#374 = AXIS2_PLACEMENT_3D ( 'NONE', #258, #78, #293 ) ;
#375 = VERTEX_POINT ( 'NONE', #66 ) ;
#376 = ORIENTED_EDGE ( 'NONE', *, *, #141, .F. ) ;
#377 = CC_DESIGN_SECURITY_CLASSIFICATION ( #307, ( #85 ) ) ;
#378 = PERSON_AND_ORGANIZATION ( #404, #28 ) ;
#379 = AXIS2_PLACEMENT_3D ( 'NONE', #292, #104, #394 ) ;
#380 = CARTESIAN_POINT ( 'NONE',  ( -161.9500000000000500, 28.00000000000000400, 0.0000000000000000000 ) ) ;
#381 = EDGE_LOOP ( 'NONE', ( #131, #113, #43, #289 ) ) ;
#382 = AXIS2_PLACEMENT_3D ( 'NONE', #167, #12, #405 ) ;
#383 = VERTEX_POINT ( 'NONE', #256 ) ;
#384 = CARTESIAN_POINT ( 'NONE',  ( 0.0000000000000000000, 0.0000000000000000000, 0.0000000000000000000 ) ) ;
#385 = CARTESIAN_POINT ( 'NONE',  ( 1.585991596532574800E-015, 8.000000000000044400, 0.0000000000000000000 ) ) ;
#386 = CARTESIAN_POINT ( 'NONE',  ( 5.550970587863977100E-015, 27.99999999999997200, 0.0000000000000000000 ) ) ;
#387 = APPROVAL ( #262, 'UNSPECIFIED' ) ;
#388 = DIRECTION ( 'NONE',  ( 1.224646799147353200E-016, -2.427849415210259900E-032, 1.000000000000000000 ) ) ;
#389 = ORIENTED_EDGE ( 'NONE', *, *, #17, .F. ) ;
#390 = DIRECTION ( 'NONE',  ( 1.000000000000000000, 0.0000000000000000000, -1.224646799147349500E-016 ) ) ;
#391 = APPROVAL_DATE_TIME ( #189, #68 ) ;
#392 = DIRECTION ( 'NONE',  ( 1.982489495665708100E-016, 1.000000000000000000, -0.0000000000000000000 ) ) ;
#393 = FACE_OUTER_BOUND ( 'NONE', #282, .T. ) ;
#394 = DIRECTION ( 'NONE',  ( -1.000000000000000000, 0.0000000000000000000, 0.0000000000000000000 ) ) ;
#395 = ORIENTED_EDGE ( 'NONE', *, *, #119, .F. ) ;
#396 = APPROVAL ( #325, 'UNSPECIFIED' ) ;
#397 = AXIS2_PLACEMENT_3D ( 'NONE', #83, #368, #223 ) ;
#398 = EDGE_LOOP ( 'NONE', ( #395, #376, #247, #389 ) ) ;
#399 = ORIENTED_EDGE ( 'NONE', *, *, #335, .T. ) ;
#400 = CARTESIAN_POINT ( 'NONE',  ( 5.550970587863977100E-015, 27.99999999999997200, 0.0000000000000000000 ) ) ;
#401 = AXIS2_PLACEMENT_3D ( 'NONE', #31, #194, #40 ) ;
#402 = DIRECTION ( 'NONE',  ( -1.982489495665708100E-016, -1.000000000000000000, 0.0000000000000000000 ) ) ;
#403 = PRODUCT_RELATED_PRODUCT_CATEGORY ( 'detail', '', ( #339 ) ) ;
#404 = PERSON ( 'UNSPECIFIED', 'UNSPECIFIED', 'UNSPECIFIED', ('UNSPECIFIED'), ('UNSPECIFIED'), ('UNSPECIFIED') ) ;
#405 = DIRECTION ( 'NONE',  ( 1.000000000000000000, -1.928065610841773200E-016, 0.0000000000000000000 ) ) ;
ENDSEC;
END-ISO-10303-21;
