ISO-10303-21;
HEADER;
/* Generated by software containing ST-Developer
 * from STEP Tools, Inc. (www.steptools.com) 
 */

FILE_DESCRIPTION(
/* description */ (''),
/* implementation_level */ '2;1');

FILE_NAME(
/* name */ 
'C:\\Users\\cad\\Desktop\\Zeichnungen neu von Ralph\\3D_Kupplung_R666-
SG\\3D_R666-SG-15-DN15_17113718.stp',
/* time_stamp */ '2021-06-22T11:16:56+02:00',
/* author */ ('cad'),
/* organization */ (''),
/* preprocessor_version */ 'ST-DEVELOPER v18.1',
/* originating_system */ 'Autodesk Inventor 2022',
/* authorisation */ '');

FILE_SCHEMA (('AUTOMOTIVE_DESIGN { 1 0 10303 214 3 1 1 }'));
ENDSEC;

DATA;
#10=MECHANICAL_DESIGN_GEOMETRIC_PRESENTATION_REPRESENTATION('',(#13),#483);
#11=SHAPE_REPRESENTATION_RELATIONSHIP('SRR','None',#490,#12);
#12=ADVANCED_BREP_SHAPE_REPRESENTATION('',(#14),#482);
#13=STYLED_ITEM('',(#499),#14);
#14=MANIFOLD_SOLID_BREP('Volumenk\X\F6rper1',#254);
#15=CONICAL_SURFACE('',#292,7.85,0.785398163397448);
#16=CONICAL_SURFACE('',#293,7.35,0.78539816339745);
#17=CONICAL_SURFACE('',#297,6.15,0.785398163397447);
#18=CONICAL_SURFACE('',#303,6.15,0.78539816339745);
#19=CONICAL_SURFACE('',#307,9.65,0.785398163397446);
#20=CONICAL_SURFACE('',#313,9.65,0.78539816339745);
#21=FACE_BOUND('',#71,.T.);
#22=FACE_BOUND('',#75,.T.);
#23=FACE_BOUND('',#80,.T.);
#24=PLANE('',#290);
#25=PLANE('',#295);
#26=PLANE('',#305);
#27=LINE('',#417,#37);
#28=LINE('',#431,#38);
#29=LINE('',#439,#39);
#30=LINE('',#442,#40);
#31=LINE('',#449,#41);
#32=LINE('',#458,#42);
#33=LINE('',#461,#43);
#34=LINE('',#468,#44);
#35=LINE('',#474,#45);
#36=LINE('',#479,#46);
#37=VECTOR('',#328,7.5);
#38=VECTOR('',#345,8.);
#39=VECTOR('',#356,7.85);
#40=VECTOR('',#359,7.35);
#41=VECTOR('',#368,6.15);
#42=VECTOR('',#379,6.);
#43=VECTOR('',#382,6.15);
#44=VECTOR('',#391,9.65);
#45=VECTOR('',#398,10.45);
#46=VECTOR('',#405,9.65);
#47=CYLINDRICAL_SURFACE('',#279,7.5);
#48=CYLINDRICAL_SURFACE('',#287,8.);
#49=CYLINDRICAL_SURFACE('',#300,6.);
#50=CYLINDRICAL_SURFACE('',#310,10.45);
#51=FACE_OUTER_BOUND('',#66,.T.);
#52=FACE_OUTER_BOUND('',#67,.T.);
#53=FACE_OUTER_BOUND('',#68,.T.);
#54=FACE_OUTER_BOUND('',#69,.T.);
#55=FACE_OUTER_BOUND('',#70,.T.);
#56=FACE_OUTER_BOUND('',#72,.T.);
#57=FACE_OUTER_BOUND('',#73,.T.);
#58=FACE_OUTER_BOUND('',#74,.T.);
#59=FACE_OUTER_BOUND('',#76,.T.);
#60=FACE_OUTER_BOUND('',#77,.T.);
#61=FACE_OUTER_BOUND('',#78,.T.);
#62=FACE_OUTER_BOUND('',#79,.T.);
#63=FACE_OUTER_BOUND('',#81,.T.);
#64=FACE_OUTER_BOUND('',#82,.T.);
#65=FACE_OUTER_BOUND('',#83,.T.);
#66=EDGE_LOOP('',(#167,#168,#169,#170,#171));
#67=EDGE_LOOP('',(#172,#173,#174,#175,#176));
#68=EDGE_LOOP('',(#177,#178,#179,#180,#181));
#69=EDGE_LOOP('',(#182,#183,#184,#185,#186,#187));
#70=EDGE_LOOP('',(#188));
#71=EDGE_LOOP('',(#189));
#72=EDGE_LOOP('',(#190,#191,#192,#193,#194,#195));
#73=EDGE_LOOP('',(#196,#197,#198,#199,#200));
#74=EDGE_LOOP('',(#201));
#75=EDGE_LOOP('',(#202));
#76=EDGE_LOOP('',(#203,#204,#205,#206,#207));
#77=EDGE_LOOP('',(#208,#209,#210,#211,#212,#213));
#78=EDGE_LOOP('',(#214,#215,#216,#217,#218));
#79=EDGE_LOOP('',(#219));
#80=EDGE_LOOP('',(#220));
#81=EDGE_LOOP('',(#221,#222,#223,#224,#225));
#82=EDGE_LOOP('',(#226,#227,#228,#229,#230,#231));
#83=EDGE_LOOP('',(#232,#233,#234,#235,#236));
#84=CIRCLE('',#275,7.5);
#85=CIRCLE('',#276,0.5);
#86=CIRCLE('',#277,7.7);
#87=CIRCLE('',#278,7.7);
#88=CIRCLE('',#280,7.5);
#89=CIRCLE('',#281,7.5);
#90=CIRCLE('',#283,8.);
#91=CIRCLE('',#284,0.5);
#92=CIRCLE('',#285,8.5);
#93=CIRCLE('',#286,8.);
#94=CIRCLE('',#288,8.);
#95=CIRCLE('',#289,8.);
#96=CIRCLE('',#291,8.84999999999999);
#97=CIRCLE('',#294,7.2);
#98=CIRCLE('',#296,6.3);
#99=CIRCLE('',#298,6.);
#100=CIRCLE('',#299,6.);
#101=CIRCLE('',#301,6.);
#102=CIRCLE('',#302,6.);
#103=CIRCLE('',#304,6.3);
#104=CIRCLE('',#306,8.85);
#105=CIRCLE('',#308,10.45);
#106=CIRCLE('',#309,10.45);
#107=CIRCLE('',#311,10.45);
#108=CIRCLE('',#312,10.45);
#109=VERTEX_POINT('',#408);
#110=VERTEX_POINT('',#410);
#111=VERTEX_POINT('',#412);
#112=VERTEX_POINT('',#416);
#113=VERTEX_POINT('',#418);
#114=VERTEX_POINT('',#422);
#115=VERTEX_POINT('',#423);
#116=VERTEX_POINT('',#425);
#117=VERTEX_POINT('',#430);
#118=VERTEX_POINT('',#432);
#119=VERTEX_POINT('',#436);
#120=VERTEX_POINT('',#441);
#121=VERTEX_POINT('',#445);
#122=VERTEX_POINT('',#448);
#123=VERTEX_POINT('',#450);
#124=VERTEX_POINT('',#454);
#125=VERTEX_POINT('',#455);
#126=VERTEX_POINT('',#460);
#127=VERTEX_POINT('',#464);
#128=VERTEX_POINT('',#467);
#129=VERTEX_POINT('',#469);
#130=VERTEX_POINT('',#473);
#131=VERTEX_POINT('',#475);
#132=EDGE_CURVE('',#109,#109,#84,.T.);
#133=EDGE_CURVE('',#109,#110,#85,.T.);
#134=EDGE_CURVE('',#111,#110,#86,.T.);
#135=EDGE_CURVE('',#110,#111,#87,.T.);
#136=EDGE_CURVE('',#109,#112,#27,.T.);
#137=EDGE_CURVE('',#113,#112,#88,.T.);
#138=EDGE_CURVE('',#112,#113,#89,.T.);
#139=EDGE_CURVE('',#114,#115,#90,.T.);
#140=EDGE_CURVE('',#115,#116,#91,.T.);
#141=EDGE_CURVE('',#116,#116,#92,.T.);
#142=EDGE_CURVE('',#115,#114,#93,.T.);
#143=EDGE_CURVE('',#114,#117,#28,.T.);
#144=EDGE_CURVE('',#118,#117,#94,.T.);
#145=EDGE_CURVE('',#117,#118,#95,.T.);
#146=EDGE_CURVE('',#119,#119,#96,.T.);
#147=EDGE_CURVE('',#118,#111,#29,.T.);
#148=EDGE_CURVE('',#113,#120,#30,.T.);
#149=EDGE_CURVE('',#120,#120,#97,.T.);
#150=EDGE_CURVE('',#121,#121,#98,.T.);
#151=EDGE_CURVE('',#121,#122,#31,.T.);
#152=EDGE_CURVE('',#122,#123,#99,.T.);
#153=EDGE_CURVE('',#123,#122,#100,.T.);
#154=EDGE_CURVE('',#124,#125,#101,.T.);
#155=EDGE_CURVE('',#125,#124,#102,.T.);
#156=EDGE_CURVE('',#125,#123,#32,.T.);
#157=EDGE_CURVE('',#124,#126,#33,.T.);
#158=EDGE_CURVE('',#126,#126,#103,.T.);
#159=EDGE_CURVE('',#127,#127,#104,.T.);
#160=EDGE_CURVE('',#127,#128,#34,.T.);
#161=EDGE_CURVE('',#128,#129,#105,.T.);
#162=EDGE_CURVE('',#129,#128,#106,.T.);
#163=EDGE_CURVE('',#129,#130,#35,.T.);
#164=EDGE_CURVE('',#131,#130,#107,.T.);
#165=EDGE_CURVE('',#130,#131,#108,.T.);
#166=EDGE_CURVE('',#131,#119,#36,.T.);
#167=ORIENTED_EDGE('',*,*,#132,.T.);
#168=ORIENTED_EDGE('',*,*,#133,.T.);
#169=ORIENTED_EDGE('',*,*,#134,.F.);
#170=ORIENTED_EDGE('',*,*,#135,.F.);
#171=ORIENTED_EDGE('',*,*,#133,.F.);
#172=ORIENTED_EDGE('',*,*,#132,.F.);
#173=ORIENTED_EDGE('',*,*,#136,.T.);
#174=ORIENTED_EDGE('',*,*,#137,.F.);
#175=ORIENTED_EDGE('',*,*,#138,.F.);
#176=ORIENTED_EDGE('',*,*,#136,.F.);
#177=ORIENTED_EDGE('',*,*,#139,.T.);
#178=ORIENTED_EDGE('',*,*,#140,.T.);
#179=ORIENTED_EDGE('',*,*,#141,.T.);
#180=ORIENTED_EDGE('',*,*,#140,.F.);
#181=ORIENTED_EDGE('',*,*,#142,.T.);
#182=ORIENTED_EDGE('',*,*,#139,.F.);
#183=ORIENTED_EDGE('',*,*,#143,.T.);
#184=ORIENTED_EDGE('',*,*,#144,.F.);
#185=ORIENTED_EDGE('',*,*,#145,.F.);
#186=ORIENTED_EDGE('',*,*,#143,.F.);
#187=ORIENTED_EDGE('',*,*,#142,.F.);
#188=ORIENTED_EDGE('',*,*,#146,.F.);
#189=ORIENTED_EDGE('',*,*,#141,.F.);
#190=ORIENTED_EDGE('',*,*,#144,.T.);
#191=ORIENTED_EDGE('',*,*,#145,.T.);
#192=ORIENTED_EDGE('',*,*,#147,.T.);
#193=ORIENTED_EDGE('',*,*,#134,.T.);
#194=ORIENTED_EDGE('',*,*,#135,.T.);
#195=ORIENTED_EDGE('',*,*,#147,.F.);
#196=ORIENTED_EDGE('',*,*,#137,.T.);
#197=ORIENTED_EDGE('',*,*,#138,.T.);
#198=ORIENTED_EDGE('',*,*,#148,.T.);
#199=ORIENTED_EDGE('',*,*,#149,.T.);
#200=ORIENTED_EDGE('',*,*,#148,.F.);
#201=ORIENTED_EDGE('',*,*,#149,.F.);
#202=ORIENTED_EDGE('',*,*,#150,.F.);
#203=ORIENTED_EDGE('',*,*,#150,.T.);
#204=ORIENTED_EDGE('',*,*,#151,.T.);
#205=ORIENTED_EDGE('',*,*,#152,.T.);
#206=ORIENTED_EDGE('',*,*,#153,.T.);
#207=ORIENTED_EDGE('',*,*,#151,.F.);
#208=ORIENTED_EDGE('',*,*,#154,.F.);
#209=ORIENTED_EDGE('',*,*,#155,.F.);
#210=ORIENTED_EDGE('',*,*,#156,.T.);
#211=ORIENTED_EDGE('',*,*,#152,.F.);
#212=ORIENTED_EDGE('',*,*,#153,.F.);
#213=ORIENTED_EDGE('',*,*,#156,.F.);
#214=ORIENTED_EDGE('',*,*,#154,.T.);
#215=ORIENTED_EDGE('',*,*,#155,.T.);
#216=ORIENTED_EDGE('',*,*,#157,.T.);
#217=ORIENTED_EDGE('',*,*,#158,.T.);
#218=ORIENTED_EDGE('',*,*,#157,.F.);
#219=ORIENTED_EDGE('',*,*,#159,.F.);
#220=ORIENTED_EDGE('',*,*,#158,.F.);
#221=ORIENTED_EDGE('',*,*,#159,.T.);
#222=ORIENTED_EDGE('',*,*,#160,.T.);
#223=ORIENTED_EDGE('',*,*,#161,.T.);
#224=ORIENTED_EDGE('',*,*,#162,.T.);
#225=ORIENTED_EDGE('',*,*,#160,.F.);
#226=ORIENTED_EDGE('',*,*,#161,.F.);
#227=ORIENTED_EDGE('',*,*,#162,.F.);
#228=ORIENTED_EDGE('',*,*,#163,.T.);
#229=ORIENTED_EDGE('',*,*,#164,.F.);
#230=ORIENTED_EDGE('',*,*,#165,.F.);
#231=ORIENTED_EDGE('',*,*,#163,.F.);
#232=ORIENTED_EDGE('',*,*,#164,.T.);
#233=ORIENTED_EDGE('',*,*,#165,.T.);
#234=ORIENTED_EDGE('',*,*,#166,.T.);
#235=ORIENTED_EDGE('',*,*,#146,.T.);
#236=ORIENTED_EDGE('',*,*,#166,.F.);
#237=TOROIDAL_SURFACE('',#274,8.,0.5);
#238=TOROIDAL_SURFACE('',#282,8.5,0.5);
#239=ADVANCED_FACE('',(#51),#237,.F.);
#240=ADVANCED_FACE('',(#52),#47,.T.);
#241=ADVANCED_FACE('',(#53),#238,.F.);
#242=ADVANCED_FACE('',(#54),#48,.T.);
#243=ADVANCED_FACE('',(#55,#21),#24,.T.);
#244=ADVANCED_FACE('',(#56),#15,.T.);
#245=ADVANCED_FACE('',(#57),#16,.T.);
#246=ADVANCED_FACE('',(#58,#22),#25,.T.);
#247=ADVANCED_FACE('',(#59),#17,.F.);
#248=ADVANCED_FACE('',(#60),#49,.F.);
#249=ADVANCED_FACE('',(#61),#18,.F.);
#250=ADVANCED_FACE('',(#62,#23),#26,.T.);
#251=ADVANCED_FACE('',(#63),#19,.T.);
#252=ADVANCED_FACE('',(#64),#50,.T.);
#253=ADVANCED_FACE('',(#65),#20,.T.);
#254=CLOSED_SHELL('',(#239,#240,#241,#242,#243,#244,#245,#246,#247,#248,
#249,#250,#251,#252,#253));
#255=DERIVED_UNIT_ELEMENT(#257,1.);
#256=DERIVED_UNIT_ELEMENT(#485,-3.);
#257=(
MASS_UNIT()
NAMED_UNIT(*)
SI_UNIT($,.GRAM.)
);
#258=DERIVED_UNIT((#255,#256));
#259=MEASURE_REPRESENTATION_ITEM('density measure',
POSITIVE_RATIO_MEASURE(1.),#258);
#260=PROPERTY_DEFINITION_REPRESENTATION(#265,#262);
#261=PROPERTY_DEFINITION_REPRESENTATION(#266,#263);
#262=REPRESENTATION('material name',(#264),#482);
#263=REPRESENTATION('density',(#259),#482);
#264=DESCRIPTIVE_REPRESENTATION_ITEM('Generisch','Generisch');
#265=PROPERTY_DEFINITION('material property','material name',#492);
#266=PROPERTY_DEFINITION('material property','density of part',#492);
#267=DATE_TIME_ROLE('creation_date');
#268=APPLIED_DATE_AND_TIME_ASSIGNMENT(#269,#267,(#492));
#269=DATE_AND_TIME(#270,#271);
#270=CALENDAR_DATE(2021,22,6);
#271=LOCAL_TIME(0,0,0.,#272);
#272=COORDINATED_UNIVERSAL_TIME_OFFSET(0,0,.BEHIND.);
#273=AXIS2_PLACEMENT_3D('placement',#406,#314,#315);
#274=AXIS2_PLACEMENT_3D('',#407,#316,#317);
#275=AXIS2_PLACEMENT_3D('',#409,#318,#319);
#276=AXIS2_PLACEMENT_3D('',#411,#320,#321);
#277=AXIS2_PLACEMENT_3D('',#413,#322,#323);
#278=AXIS2_PLACEMENT_3D('',#414,#324,#325);
#279=AXIS2_PLACEMENT_3D('',#415,#326,#327);
#280=AXIS2_PLACEMENT_3D('',#419,#329,#330);
#281=AXIS2_PLACEMENT_3D('',#420,#331,#332);
#282=AXIS2_PLACEMENT_3D('',#421,#333,#334);
#283=AXIS2_PLACEMENT_3D('',#424,#335,#336);
#284=AXIS2_PLACEMENT_3D('',#426,#337,#338);
#285=AXIS2_PLACEMENT_3D('',#427,#339,#340);
#286=AXIS2_PLACEMENT_3D('',#428,#341,#342);
#287=AXIS2_PLACEMENT_3D('',#429,#343,#344);
#288=AXIS2_PLACEMENT_3D('',#433,#346,#347);
#289=AXIS2_PLACEMENT_3D('',#434,#348,#349);
#290=AXIS2_PLACEMENT_3D('',#435,#350,#351);
#291=AXIS2_PLACEMENT_3D('',#437,#352,#353);
#292=AXIS2_PLACEMENT_3D('',#438,#354,#355);
#293=AXIS2_PLACEMENT_3D('',#440,#357,#358);
#294=AXIS2_PLACEMENT_3D('',#443,#360,#361);
#295=AXIS2_PLACEMENT_3D('',#444,#362,#363);
#296=AXIS2_PLACEMENT_3D('',#446,#364,#365);
#297=AXIS2_PLACEMENT_3D('',#447,#366,#367);
#298=AXIS2_PLACEMENT_3D('',#451,#369,#370);
#299=AXIS2_PLACEMENT_3D('',#452,#371,#372);
#300=AXIS2_PLACEMENT_3D('',#453,#373,#374);
#301=AXIS2_PLACEMENT_3D('',#456,#375,#376);
#302=AXIS2_PLACEMENT_3D('',#457,#377,#378);
#303=AXIS2_PLACEMENT_3D('',#459,#380,#381);
#304=AXIS2_PLACEMENT_3D('',#462,#383,#384);
#305=AXIS2_PLACEMENT_3D('',#463,#385,#386);
#306=AXIS2_PLACEMENT_3D('',#465,#387,#388);
#307=AXIS2_PLACEMENT_3D('',#466,#389,#390);
#308=AXIS2_PLACEMENT_3D('',#470,#392,#393);
#309=AXIS2_PLACEMENT_3D('',#471,#394,#395);
#310=AXIS2_PLACEMENT_3D('',#472,#396,#397);
#311=AXIS2_PLACEMENT_3D('',#476,#399,#400);
#312=AXIS2_PLACEMENT_3D('',#477,#401,#402);
#313=AXIS2_PLACEMENT_3D('',#478,#403,#404);
#314=DIRECTION('axis',(0.,0.,1.));
#315=DIRECTION('refdir',(1.,0.,0.));
#316=DIRECTION('center_axis',(1.,0.,0.));
#317=DIRECTION('ref_axis',(0.,1.,-1.74393424900432E-16));
#318=DIRECTION('center_axis',(1.,0.,0.));
#319=DIRECTION('ref_axis',(0.,1.,-1.74393424900432E-16));
#320=DIRECTION('center_axis',(0.,-5.19287449856964E-17,-1.));
#321=DIRECTION('ref_axis',(0.,-1.,5.19287449856964E-17));
#322=DIRECTION('center_axis',(1.,0.,0.));
#323=DIRECTION('ref_axis',(0.,-1.,0.));
#324=DIRECTION('center_axis',(1.,0.,0.));
#325=DIRECTION('ref_axis',(0.,-1.,0.));
#326=DIRECTION('center_axis',(1.,0.,0.));
#327=DIRECTION('ref_axis',(0.,1.,0.));
#328=DIRECTION('',(-1.,0.,0.));
#329=DIRECTION('center_axis',(-1.,0.,0.));
#330=DIRECTION('ref_axis',(0.,-1.,0.));
#331=DIRECTION('center_axis',(-1.,0.,0.));
#332=DIRECTION('ref_axis',(0.,-1.,0.));
#333=DIRECTION('center_axis',(1.,0.,0.));
#334=DIRECTION('ref_axis',(0.,0.,-1.));
#335=DIRECTION('center_axis',(1.,0.,0.));
#336=DIRECTION('ref_axis',(0.,-1.,1.83697019872103E-16));
#337=DIRECTION('center_axis',(0.,-1.,-1.22464679914735E-16));
#338=DIRECTION('ref_axis',(0.,-1.22464679914735E-16,1.));
#339=DIRECTION('center_axis',(-1.,0.,0.));
#340=DIRECTION('ref_axis',(0.,-1.,1.83697019872103E-16));
#341=DIRECTION('center_axis',(1.,0.,0.));
#342=DIRECTION('ref_axis',(0.,-1.,1.83697019872103E-16));
#343=DIRECTION('center_axis',(1.,0.,0.));
#344=DIRECTION('ref_axis',(0.,1.,0.));
#345=DIRECTION('',(-1.,0.,0.));
#346=DIRECTION('center_axis',(-1.,0.,0.));
#347=DIRECTION('ref_axis',(0.,-1.,0.));
#348=DIRECTION('center_axis',(-1.,0.,0.));
#349=DIRECTION('ref_axis',(0.,-1.,0.));
#350=DIRECTION('center_axis',(-1.,0.,0.));
#351=DIRECTION('ref_axis',(0.,0.,1.));
#352=DIRECTION('center_axis',(1.,0.,0.));
#353=DIRECTION('ref_axis',(0.,-1.,0.));
#354=DIRECTION('center_axis',(1.,0.,0.));
#355=DIRECTION('ref_axis',(0.,-1.,0.));
#356=DIRECTION('',(-0.707106781186547,-0.707106781186547,-8.65956056235493E-17));
#357=DIRECTION('center_axis',(1.,0.,0.));
#358=DIRECTION('ref_axis',(0.,-1.,0.));
#359=DIRECTION('',(-0.707106781186546,-0.707106781186549,-8.65956056235495E-17));
#360=DIRECTION('center_axis',(1.,0.,0.));
#361=DIRECTION('ref_axis',(0.,-1.,0.));
#362=DIRECTION('center_axis',(-1.,0.,0.));
#363=DIRECTION('ref_axis',(0.,0.,1.));
#364=DIRECTION('center_axis',(-1.,0.,0.));
#365=DIRECTION('ref_axis',(0.,-1.,0.));
#366=DIRECTION('center_axis',(-1.,0.,0.));
#367=DIRECTION('ref_axis',(0.,-1.,0.));
#368=DIRECTION('',(0.707106781186549,-0.707106781186546,8.65956056235492E-17));
#369=DIRECTION('center_axis',(1.,0.,0.));
#370=DIRECTION('ref_axis',(0.,-1.,0.));
#371=DIRECTION('center_axis',(1.,0.,0.));
#372=DIRECTION('ref_axis',(0.,-1.,0.));
#373=DIRECTION('center_axis',(1.,0.,0.));
#374=DIRECTION('ref_axis',(0.,1.,0.));
#375=DIRECTION('center_axis',(-1.,0.,0.));
#376=DIRECTION('ref_axis',(0.,-1.,0.));
#377=DIRECTION('center_axis',(-1.,0.,0.));
#378=DIRECTION('ref_axis',(0.,-1.,0.));
#379=DIRECTION('',(-1.,0.,0.));
#380=DIRECTION('center_axis',(1.,0.,0.));
#381=DIRECTION('ref_axis',(0.,-1.,0.));
#382=DIRECTION('',(0.707106781186546,0.707106781186549,-8.65956056235495E-17));
#383=DIRECTION('center_axis',(1.,0.,0.));
#384=DIRECTION('ref_axis',(0.,-1.,0.));
#385=DIRECTION('center_axis',(1.,0.,0.));
#386=DIRECTION('ref_axis',(0.,0.,-1.));
#387=DIRECTION('center_axis',(-1.,0.,0.));
#388=DIRECTION('ref_axis',(0.,-1.,0.));
#389=DIRECTION('center_axis',(-1.,0.,0.));
#390=DIRECTION('ref_axis',(0.,-1.,0.));
#391=DIRECTION('',(-0.707106781186549,0.707106781186546,8.65956056235492E-17));
#392=DIRECTION('center_axis',(1.,0.,0.));
#393=DIRECTION('ref_axis',(0.,-1.,0.));
#394=DIRECTION('center_axis',(1.,0.,0.));
#395=DIRECTION('ref_axis',(0.,-1.,0.));
#396=DIRECTION('center_axis',(1.,0.,0.));
#397=DIRECTION('ref_axis',(0.,1.,0.));
#398=DIRECTION('',(-1.,0.,0.));
#399=DIRECTION('center_axis',(-1.,0.,0.));
#400=DIRECTION('ref_axis',(0.,-1.,0.));
#401=DIRECTION('center_axis',(-1.,0.,0.));
#402=DIRECTION('ref_axis',(0.,-1.,0.));
#403=DIRECTION('center_axis',(1.,0.,0.));
#404=DIRECTION('ref_axis',(0.,-1.,0.));
#405=DIRECTION('',(-0.707106781186547,-0.707106781186548,-8.65956056235494E-17));
#406=CARTESIAN_POINT('',(0.,0.,0.));
#407=CARTESIAN_POINT('Origin',(-13.4,0.,0.));
#408=CARTESIAN_POINT('',(-13.4,-7.5,3.89465587392723E-16));
#409=CARTESIAN_POINT('Origin',(-13.4,0.,0.));
#410=CARTESIAN_POINT('',(-13.,-7.7,3.99851336389863E-16));
#411=CARTESIAN_POINT('Origin',(-13.4,-8.,4.15429959885572E-16));
#412=CARTESIAN_POINT('',(-13.,7.7,9.42978035343462E-16));
#413=CARTESIAN_POINT('Origin',(-13.,0.,0.));
#414=CARTESIAN_POINT('Origin',(-13.,0.,0.));
#415=CARTESIAN_POINT('Origin',(-15.5,0.,0.));
#416=CARTESIAN_POINT('',(-17.7,-7.5,-9.18485099360515E-16));
#417=CARTESIAN_POINT('',(-15.5,-7.5,-9.18485099360515E-16));
#418=CARTESIAN_POINT('',(-17.7,7.5,-9.18485099360515E-16));
#419=CARTESIAN_POINT('Origin',(-17.7,0.,0.));
#420=CARTESIAN_POINT('Origin',(-17.7,0.,0.));
#421=CARTESIAN_POINT('Origin',(-9.00000000000001,0.,0.));
#422=CARTESIAN_POINT('',(-9.00000000000001,-8.,-9.79717439317883E-16));
#423=CARTESIAN_POINT('',(-9.00000000000001,-9.79717439317883E-16,8.));
#424=CARTESIAN_POINT('Origin',(-9.00000000000001,0.,0.));
#425=CARTESIAN_POINT('',(-8.50000000000001,-1.04094977927525E-15,8.5));
#426=CARTESIAN_POINT('Origin',(-9.00000000000001,-1.04094977927525E-15,
8.5));
#427=CARTESIAN_POINT('Origin',(-8.50000000000001,0.,0.));
#428=CARTESIAN_POINT('Origin',(-9.00000000000001,0.,0.));
#429=CARTESIAN_POINT('Origin',(-10.75,0.,0.));
#430=CARTESIAN_POINT('',(-12.7,-8.,-9.79717439317883E-16));
#431=CARTESIAN_POINT('',(-10.75,-8.,-9.79717439317883E-16));
#432=CARTESIAN_POINT('',(-12.7,8.,-9.79717439317883E-16));
#433=CARTESIAN_POINT('Origin',(-12.7,0.,0.));
#434=CARTESIAN_POINT('Origin',(-12.7,0.,0.));
#435=CARTESIAN_POINT('Origin',(-8.50000000000001,10.45,0.));
#436=CARTESIAN_POINT('',(-8.50000000000001,8.84999999999999,1.08381241724541E-15));
#437=CARTESIAN_POINT('Origin',(-8.50000000000001,0.,0.));
#438=CARTESIAN_POINT('Origin',(-12.85,0.,0.));
#439=CARTESIAN_POINT('',(-12.85,7.85,9.61347737330672E-16));
#440=CARTESIAN_POINT('Origin',(-17.85,0.,0.));
#441=CARTESIAN_POINT('',(-18.,7.2,8.81745695386094E-16));
#442=CARTESIAN_POINT('',(-17.85,7.35,9.00115397373304E-16));
#443=CARTESIAN_POINT('Origin',(-18.,0.,0.));
#444=CARTESIAN_POINT('Origin',(-18.,7.5,0.));
#445=CARTESIAN_POINT('',(-18.,6.3,-7.71527483462832E-16));
#446=CARTESIAN_POINT('Origin',(-18.,0.,0.));
#447=CARTESIAN_POINT('Origin',(-17.85,0.,0.));
#448=CARTESIAN_POINT('',(-17.7,6.,7.34788079488412E-16));
#449=CARTESIAN_POINT('',(-17.85,6.15,-7.53157781475622E-16));
#450=CARTESIAN_POINT('',(-17.7,-6.,-7.34788079488412E-16));
#451=CARTESIAN_POINT('Origin',(-17.7,0.,0.));
#452=CARTESIAN_POINT('Origin',(-17.7,0.,0.));
#453=CARTESIAN_POINT('Origin',(-9.00000000000001,0.,0.));
#454=CARTESIAN_POINT('',(-0.300000000000005,6.,-7.34788079488412E-16));
#455=CARTESIAN_POINT('',(-0.300000000000005,-6.,-7.34788079488412E-16));
#456=CARTESIAN_POINT('Origin',(-0.300000000000005,0.,0.));
#457=CARTESIAN_POINT('Origin',(-0.300000000000005,0.,0.));
#458=CARTESIAN_POINT('',(-9.00000000000001,-6.,-7.34788079488412E-16));
#459=CARTESIAN_POINT('Origin',(-0.150000000000005,0.,0.));
#460=CARTESIAN_POINT('',(-4.44089209850063E-15,6.3,7.71527483462833E-16));
#461=CARTESIAN_POINT('',(-0.150000000000005,6.15,-7.53157781475622E-16));
#462=CARTESIAN_POINT('Origin',(-4.44089209850063E-15,0.,0.));
#463=CARTESIAN_POINT('Origin',(-4.44089209850063E-15,6.,0.));
#464=CARTESIAN_POINT('',(-4.44089209850063E-15,8.85,-1.08381241724541E-15));
#465=CARTESIAN_POINT('Origin',(-4.44089209850063E-15,0.,0.));
#466=CARTESIAN_POINT('Origin',(-0.800000000000006,0.,0.));
#467=CARTESIAN_POINT('',(-1.60000000000001,10.45,1.27975590510898E-15));
#468=CARTESIAN_POINT('',(-0.800000000000006,9.65,1.1817841611772E-15));
#469=CARTESIAN_POINT('',(-1.60000000000001,-10.45,-1.27975590510898E-15));
#470=CARTESIAN_POINT('Origin',(-1.60000000000001,0.,0.));
#471=CARTESIAN_POINT('Origin',(-1.60000000000001,0.,0.));
#472=CARTESIAN_POINT('Origin',(-4.25000000000001,0.,0.));
#473=CARTESIAN_POINT('',(-6.90000000000001,-10.45,-1.27975590510898E-15));
#474=CARTESIAN_POINT('',(-4.25000000000001,-10.45,-1.27975590510898E-15));
#475=CARTESIAN_POINT('',(-6.90000000000001,10.45,-1.27975590510898E-15));
#476=CARTESIAN_POINT('Origin',(-6.90000000000001,0.,0.));
#477=CARTESIAN_POINT('Origin',(-6.90000000000001,0.,0.));
#478=CARTESIAN_POINT('Origin',(-7.70000000000001,0.,0.));
#479=CARTESIAN_POINT('',(-7.70000000000001,9.65,1.1817841611772E-15));
#480=UNCERTAINTY_MEASURE_WITH_UNIT(LENGTH_MEASURE(0.01),#484,
'DISTANCE_ACCURACY_VALUE',
'Maximum model space distance between geometric entities at asserted c
onnectivities');
#481=UNCERTAINTY_MEASURE_WITH_UNIT(LENGTH_MEASURE(0.01),#484,
'DISTANCE_ACCURACY_VALUE',
'Maximum model space distance between geometric entities at asserted c
onnectivities');
#482=(
GEOMETRIC_REPRESENTATION_CONTEXT(3)
GLOBAL_UNCERTAINTY_ASSIGNED_CONTEXT((#480))
GLOBAL_UNIT_ASSIGNED_CONTEXT((#484,#486,#487))
REPRESENTATION_CONTEXT('','3D')
);
#483=(
GEOMETRIC_REPRESENTATION_CONTEXT(3)
GLOBAL_UNCERTAINTY_ASSIGNED_CONTEXT((#481))
GLOBAL_UNIT_ASSIGNED_CONTEXT((#484,#486,#487))
REPRESENTATION_CONTEXT('','3D')
);
#484=(
LENGTH_UNIT()
NAMED_UNIT(*)
SI_UNIT(.MILLI.,.METRE.)
);
#485=(
LENGTH_UNIT()
NAMED_UNIT(*)
SI_UNIT(.CENTI.,.METRE.)
);
#486=(
NAMED_UNIT(*)
PLANE_ANGLE_UNIT()
SI_UNIT($,.RADIAN.)
);
#487=(
NAMED_UNIT(*)
SI_UNIT($,.STERADIAN.)
SOLID_ANGLE_UNIT()
);
#488=SHAPE_DEFINITION_REPRESENTATION(#489,#490);
#489=PRODUCT_DEFINITION_SHAPE('',$,#492);
#490=SHAPE_REPRESENTATION('',(#273),#482);
#491=PRODUCT_DEFINITION_CONTEXT('part definition',#496,'design');
#492=PRODUCT_DEFINITION('3D_R666-SG-15-DN15_17113718',
'3D_R666-SG-15-DN15_17113718',#493,#491);
#493=PRODUCT_DEFINITION_FORMATION('',$,#498);
#494=PRODUCT_RELATED_PRODUCT_CATEGORY('3D_R666-SG-15-DN15_17113718',
'3D_R666-SG-15-DN15_17113718',(#498));
#495=APPLICATION_PROTOCOL_DEFINITION('international standard',
'automotive_design',2009,#496);
#496=APPLICATION_CONTEXT(
'Core Data for Automotive Mechanical Design Process');
#497=PRODUCT_CONTEXT('part definition',#496,'mechanical');
#498=PRODUCT('3D_R666-SG-15-DN15_17113718',
'3D_R666-SG-15-DN15_17113718',$,(#497));
#499=PRESENTATION_STYLE_ASSIGNMENT((#500));
#500=SURFACE_STYLE_USAGE(.BOTH.,#503);
#501=SURFACE_STYLE_RENDERING_WITH_PROPERTIES($,#507,(#502));
#502=SURFACE_STYLE_TRANSPARENT(0.);
#503=SURFACE_SIDE_STYLE('',(#504,#501));
#504=SURFACE_STYLE_FILL_AREA(#505);
#505=FILL_AREA_STYLE('',(#506));
#506=FILL_AREA_STYLE_COLOUR('',#507);
#507=COLOUR_RGB('',0.749019607843137,0.749019607843137,0.749019607843137);
ENDSEC;
END-ISO-10303-21;
