ISO-10303-21;
HEADER;
FILE_DESCRIPTION (( 'STEP AP203' ),
    '1' );
FILE_NAME ('3D_GR1442_30 x 4_188741150.STEP',
    '2024-10-22T15:30:43',
    ( '' ),
    ( '' ),
    'SwSTEP 2.0',
    'SolidWorks 2023',
    '' );
FILE_SCHEMA (( 'CONFIG_CONTROL_DESIGN' ));
ENDSEC;

DATA;
#1 = AXIS2_PLACEMENT_3D ( 'NONE', #196, #219, #156 ) ;
#2 = DIRECTION ( 'NONE',  ( 0.000000000000000000, -0.000000000000000000, 1.000000000000000000 ) ) ;
#3 = EDGE_LOOP ( 'NONE', ( #66, #19, #62, #47 ) ) ;
#4 = ORIENTED_EDGE ( 'NONE', *, *, #221, .F. ) ;
#5 = PERSON_AND_ORGANIZATION ( #260, #43 ) ;
#6 = CARTESIAN_POINT ( 'NONE',  ( 0.000000000000000000, 3.750000000000000000, 14.75000000000000000 ) ) ;
#7 = ADVANCED_FACE ( 'NONE', ( #131 ), #186, .T. ) ;
#8 = DIRECTION ( 'NONE',  ( 1.000000000000000000, 0.000000000000000000, 0.000000000000000000 ) ) ;
#9 = DIRECTION ( 'NONE',  ( 1.000000000000000000, -0.000000000000000000, 1.224646799147353207E-16 ) ) ;
#10 = COORDINATED_UNIVERSAL_TIME_OFFSET ( 1, 0, .AHEAD. ) ;
#11 = DIRECTION ( 'NONE',  ( 0.000000000000000000, 0.000000000000000000, 1.000000000000000000 ) ) ;
#12 = PLANE ( 'NONE',  #140 ) ;
#13 = ADVANCED_FACE ( 'NONE', ( #21 ), #78, .T. ) ;
#14 = CIRCLE ( 'NONE', #164, 15.00000000000000000 ) ;
#15 = DIRECTION ( 'NONE',  ( 0.000000000000000000, 0.000000000000000000, 1.000000000000000000 ) ) ;
#16 = CARTESIAN_POINT ( 'NONE',  ( 1.836970198721029589E-15, 0.2500000000000002220, 15.00000000000000000 ) ) ;
#17 = APPROVAL ( #268, 'UNSPECIFIED' ) ;
#18 = TOROIDAL_SURFACE ( 'NONE', #99, 14.75000000000000000, 0.2500000000000000000 ) ;
#19 = ORIENTED_EDGE ( 'NONE', *, *, #160, .T. ) ;
#20 = APPROVAL ( #176, 'UNSPECIFIED' ) ;
#21 = FACE_OUTER_BOUND ( 'NONE', #59, .T. ) ;
#22 = APPROVAL_PERSON_ORGANIZATION ( #154, #20, #75 ) ;
#23 = COORDINATED_UNIVERSAL_TIME_OFFSET ( 1, 0, .AHEAD. ) ;
#24 = ORIENTED_EDGE ( 'NONE', *, *, #185, .F. ) ;
#25 = DATE_AND_TIME ( #179, #274 ) ;
#26 = CARTESIAN_POINT ( 'NONE',  ( 0.000000000000000000, 4.000000000000000000, -15.00000000000000000 ) ) ;
#27 = PERSON_AND_ORGANIZATION ( #260, #43 ) ;
#28 = CARTESIAN_POINT ( 'NONE',  ( 0.000000000000000000, 3.750000000000000000, 0.000000000000000000 ) ) ;
#29 =( GEOMETRIC_REPRESENTATION_CONTEXT ( 3 ) GLOBAL_UNCERTAINTY_ASSIGNED_CONTEXT ( ( #123 ) ) GLOBAL_UNIT_ASSIGNED_CONTEXT ( ( #135, #46, #44 ) ) REPRESENTATION_CONTEXT ( 'NONE', 'WORKASPACE' ) );
#30 = VERTEX_POINT ( 'NONE', #49 ) ;
#31 = LINE ( 'NONE', #113, #256 ) ;
#32 = CARTESIAN_POINT ( 'NONE',  ( 1.806354028742345802E-15, 0.2500000000000002220, -14.75000000000000000 ) ) ;
#33 = CC_DESIGN_APPROVAL ( #88, ( #187 ) ) ;
#34 = DIRECTION ( 'NONE',  ( 0.000000000000000000, -0.000000000000000000, 1.000000000000000000 ) ) ;
#35 = DIRECTION ( 'NONE',  ( 0.000000000000000000, 0.000000000000000000, -1.000000000000000000 ) ) ;
#36 = VERTEX_POINT ( 'NONE', #231 ) ;
#37 = CIRCLE ( 'NONE', #145, 15.00000000000000000 ) ;
#38 = CC_DESIGN_PERSON_AND_ORGANIZATION_ASSIGNMENT ( #86, #200, ( #187 ) ) ;
#39 = APPROVAL_PERSON_ORGANIZATION ( #195, #88, #71 ) ;
#40 = EDGE_CURVE ( 'NONE', #103, #30, #60, .T. ) ;
#41 = CARTESIAN_POINT ( 'NONE',  ( 0.000000000000000000, 4.000000000000000000, 0.000000000000000000 ) ) ;
#42 = PLANE ( 'NONE',  #183 ) ;
#43 = ORGANIZATION ( 'UNSPECIFIED', 'UNSPECIFIED', '' ) ;
#44 =( NAMED_UNIT ( * ) SI_UNIT ( $, .STERADIAN. ) SOLID_ANGLE_UNIT ( ) );
#45 = DIRECTION ( 'NONE',  ( 0.000000000000000000, 1.000000000000000000, 0.000000000000000000 ) ) ;
#46 =( NAMED_UNIT ( * ) PLANE_ANGLE_UNIT ( ) SI_UNIT ( $, .RADIAN. ) );
#47 = ORIENTED_EDGE ( 'NONE', *, *, #84, .F. ) ;
#48 = DIRECTION ( 'NONE',  ( 0.000000000000000000, 0.000000000000000000, 1.000000000000000000 ) ) ;
#49 = CARTESIAN_POINT ( 'NONE',  ( 0.000000000000000000, 0.000000000000000000, 14.75000000000000000 ) ) ;
#50 = CALENDAR_DATE ( 2024, 22, 10 ) ;
#51 = CC_DESIGN_APPROVAL ( #20, ( #190 ) ) ;
#52 = DIRECTION ( 'NONE',  ( -0.000000000000000000, -1.000000000000000000, -0.000000000000000000 ) ) ;
#53 = CARTESIAN_POINT ( 'NONE',  ( 0.000000000000000000, 0.2500000000000002220, -15.00000000000000000 ) ) ;
#54 = ADVANCED_BREP_SHAPE_REPRESENTATION ( '3D_GR1442_30 x 4_188741150', ( #165, #70 ), #29 ) ;
#55 = DIRECTION ( 'NONE',  ( 1.000000000000000000, -0.000000000000000000, 1.224646799147353207E-16 ) ) ;
#56 = ORIENTED_EDGE ( 'NONE', *, *, #232, .F. ) ;
#57 = AXIS2_PLACEMENT_3D ( 'NONE', #32, #55, #114 ) ;
#58 = ADVANCED_FACE ( 'NONE', ( #64 ), #42, .T. ) ;
#59 = EDGE_LOOP ( 'NONE', ( #175, #253, #239, #257 ) ) ;
#60 = CIRCLE ( 'NONE', #209, 14.75000000000000000 ) ;
#61 = LOCAL_TIME ( 17, 30, 43.00000000000000000, #65 ) ;
#62 = ORIENTED_EDGE ( 'NONE', *, *, #247, .T. ) ;
#63 = CIRCLE ( 'NONE', #252, 0.2500000000000002220 ) ;
#64 = FACE_OUTER_BOUND ( 'NONE', #250, .T. ) ;
#65 = COORDINATED_UNIVERSAL_TIME_OFFSET ( 1, 0, .AHEAD. ) ;
#66 = ORIENTED_EDGE ( 'NONE', *, *, #229, .T. ) ;
#67 = EDGE_CURVE ( 'NONE', #36, #167, #63, .T. ) ;
#68 = APPLICATION_PROTOCOL_DEFINITION ( 'international standard', 'config_control_design', 1994, #240 ) ;
#69 = DIRECTION ( 'NONE',  ( -0.000000000000000000, -1.000000000000000000, -0.000000000000000000 ) ) ;
#70 = AXIS2_PLACEMENT_3D ( 'NONE', #263, #48, #8 ) ;
#71 = APPROVAL_ROLE ( '' ) ;
#72 = DIRECTION ( 'NONE',  ( -1.000000000000000000, 0.000000000000000000, 0.000000000000000000 ) ) ;
#73 = APPROVAL_ROLE ( '' ) ;
#74 = EDGE_LOOP ( 'NONE', ( #93, #118, #237, #214 ) ) ;
#75 = APPROVAL_ROLE ( '' ) ;
#76 = DIRECTION ( 'NONE',  ( -0.000000000000000000, -1.000000000000000000, -0.000000000000000000 ) ) ;
#77 = ADVANCED_FACE ( 'NONE', ( #128 ), #100, .T. ) ;
#78 = TOROIDAL_SURFACE ( 'NONE', #211, 14.75000000000000000, 0.2500000000000000000 ) ;
#79 = CARTESIAN_POINT ( 'NONE',  ( 0.000000000000000000, 4.000000000000000000, 0.000000000000000000 ) ) ;
#80 = DIRECTION ( 'NONE',  ( 0.000000000000000000, 0.000000000000000000, 1.000000000000000000 ) ) ;
#81 = DIRECTION ( 'NONE',  ( -0.000000000000000000, -1.000000000000000000, -0.000000000000000000 ) ) ;
#82 = AXIS2_PLACEMENT_3D ( 'NONE', #79, #184, #80 ) ;
#83 = CC_DESIGN_APPROVAL ( #17, ( #278 ) ) ;
#84 = EDGE_CURVE ( 'NONE', #36, #242, #170, .T. ) ;
#85 = AXIS2_PLACEMENT_3D ( 'NONE', #119, #222, #142 ) ;
#86 = PERSON_AND_ORGANIZATION ( #260, #43 ) ;
#87 = DIRECTION ( 'NONE',  ( 0.000000000000000000, 0.000000000000000000, 1.000000000000000000 ) ) ;
#88 = APPROVAL ( #110, 'UNSPECIFIED' ) ;
#89 = CALENDAR_DATE ( 2024, 22, 10 ) ;
#90 = DIRECTION ( 'NONE',  ( -1.000000000000000000, 0.000000000000000000, 0.000000000000000000 ) ) ;
#91 = AXIS2_PLACEMENT_3D ( 'NONE', #106, #218, #87 ) ;
#92 = CALENDAR_DATE ( 2024, 22, 10 ) ;
#93 = ORIENTED_EDGE ( 'NONE', *, *, #40, .F. ) ;
#94 = DIRECTION ( 'NONE',  ( -0.000000000000000000, -1.000000000000000000, -0.000000000000000000 ) ) ;
#95 = CARTESIAN_POINT ( 'NONE',  ( 1.836970198721029589E-15, 3.750000000000000000, 15.00000000000000000 ) ) ;
#96 = VECTOR ( 'NONE', #107, 1000.000000000000000 ) ;
#97 = DIRECTION ( 'NONE',  ( 0.000000000000000000, 0.000000000000000000, 1.000000000000000000 ) ) ;
#98 = APPROVAL_DATE_TIME ( #227, #17 ) ;
#99 = AXIS2_PLACEMENT_3D ( 'NONE', #246, #139, #15 ) ;
#100 = TOROIDAL_SURFACE ( 'NONE', #1, 14.75000000000000000, 0.2500000000000000000 ) ;
#101 = EDGE_CURVE ( 'NONE', #166, #189, #220, .T. ) ;
#102 = EDGE_CURVE ( 'NONE', #30, #230, #208, .T. ) ;
#103 = VERTEX_POINT ( 'NONE', #158 ) ;
#104 = LOCAL_TIME ( 17, 30, 43.00000000000000000, #23 ) ;
#105 = PERSON_AND_ORGANIZATION_ROLE ( 'creator' ) ;
#106 = CARTESIAN_POINT ( 'NONE',  ( 0.000000000000000000, 3.750000000000000000, 0.000000000000000000 ) ) ;
#107 = DIRECTION ( 'NONE',  ( -0.000000000000000000, -1.000000000000000000, -0.000000000000000000 ) ) ;
#108 = DATE_TIME_ROLE ( 'classification_date' ) ;
#109 = EDGE_LOOP ( 'NONE', ( #169, #56, #264, #24 ) ) ;
#110 = APPROVAL_STATUS ( 'not_yet_approved' ) ;
#111 = CARTESIAN_POINT ( 'NONE',  ( 0.000000000000000000, 0.2500000000000002220, 0.000000000000000000 ) ) ;
#112 = MECHANICAL_CONTEXT ( 'NONE', #249, 'mechanical' ) ;
#113 = CARTESIAN_POINT ( 'NONE',  ( 1.836970198721029589E-15, 4.000000000000000000, 15.00000000000000000 ) ) ;
#114 = DIRECTION ( 'NONE',  ( 1.224646799147349509E-16, 0.000000000000000000, -1.000000000000000000 ) ) ;
#115 = ADVANCED_FACE ( 'NONE', ( #203 ), #18, .T. ) ;
#116 = CIRCLE ( 'NONE', #205, 14.75000000000000000 ) ;
#117 = FACE_OUTER_BOUND ( 'NONE', #132, .T. ) ;
#118 = ORIENTED_EDGE ( 'NONE', *, *, #269, .T. ) ;
#119 = CARTESIAN_POINT ( 'NONE',  ( 0.000000000000000000, 4.000000000000000000, 0.000000000000000000 ) ) ;
#120 = ORIENTED_EDGE ( 'NONE', *, *, #221, .T. ) ;
#121 = ADVANCED_FACE ( 'NONE', ( #277 ), #12, .F. ) ;
#122 = AXIS2_PLACEMENT_3D ( 'NONE', #204, #94, #201 ) ;
#123 = UNCERTAINTY_MEASURE_WITH_UNIT (LENGTH_MEASURE( 1.000000000000000082E-05 ), #135, 'distance_accuracy_value', 'NONE');
#124 = CIRCLE ( 'NONE', #122, 15.00000000000000000 ) ;
#125 = DESIGN_CONTEXT ( 'detailed design', #240, 'design' ) ;
#126 = DIRECTION ( 'NONE',  ( 0.000000000000000000, 0.000000000000000000, 1.000000000000000000 ) ) ;
#127 = PERSON_AND_ORGANIZATION_ROLE ( 'design_supplier' ) ;
#128 = FACE_OUTER_BOUND ( 'NONE', #74, .T. ) ;
#129 = AXIS2_PLACEMENT_3D ( 'NONE', #111, #181, #97 ) ;
#130 = PERSON_AND_ORGANIZATION ( #260, #43 ) ;
#131 = FACE_OUTER_BOUND ( 'NONE', #143, .T. ) ;
#132 = EDGE_LOOP ( 'NONE', ( #173, #133, #267, #144 ) ) ;
#133 = ORIENTED_EDGE ( 'NONE', *, *, #261, .T. ) ;
#134 = CIRCLE ( 'NONE', #245, 14.75000000000000000 ) ;
#135 =( LENGTH_UNIT ( ) NAMED_UNIT ( * ) SI_UNIT ( .MILLI., .METRE. ) );
#136 = CYLINDRICAL_SURFACE ( 'NONE', #85, 15.00000000000000000 ) ;
#137 = ADVANCED_FACE ( 'NONE', ( #206 ), #272, .T. ) ;
#138 = CARTESIAN_POINT ( 'NONE',  ( 0.000000000000000000, 0.2500000000000002220, 0.000000000000000000 ) ) ;
#139 = DIRECTION ( 'NONE',  ( 0.000000000000000000, 1.000000000000000000, 0.000000000000000000 ) ) ;
#140 = AXIS2_PLACEMENT_3D ( 'NONE', #159, #224, #34 ) ;
#141 = SHAPE_DEFINITION_REPRESENTATION ( #146, #54 ) ;
#142 = DIRECTION ( 'NONE',  ( 0.000000000000000000, 0.000000000000000000, -1.000000000000000000 ) ) ;
#143 = EDGE_LOOP ( 'NONE', ( #210, #259, #4, #148 ) ) ;
#144 = ORIENTED_EDGE ( 'NONE', *, *, #185, .T. ) ;
#145 = AXIS2_PLACEMENT_3D ( 'NONE', #223, #162, #248 ) ;
#146 = PRODUCT_DEFINITION_SHAPE ( 'NONE', 'NONE',  #187 ) ;
#147 = CLOSED_SHELL ( 'NONE', ( #7, #77, #137, #155, #58, #121, #115, #13 ) ) ;
#148 = ORIENTED_EDGE ( 'NONE', *, *, #101, .F. ) ;
#149 = ORIENTED_EDGE ( 'NONE', *, *, #225, .T. ) ;
#150 = CC_DESIGN_DATE_AND_TIME_ASSIGNMENT ( #25, #108, ( #278 ) ) ;
#151 = ORIENTED_EDGE ( 'NONE', *, *, #232, .T. ) ;
#152 = DATE_TIME_ROLE ( 'creation_date' ) ;
#153 = CIRCLE ( 'NONE', #129, 15.00000000000000000 ) ;
#154 = PERSON_AND_ORGANIZATION ( #260, #43 ) ;
#155 = ADVANCED_FACE ( 'NONE', ( #117 ), #136, .T. ) ;
#156 = DIRECTION ( 'NONE',  ( 0.000000000000000000, 0.000000000000000000, 1.000000000000000000 ) ) ;
#157 = COORDINATED_UNIVERSAL_TIME_OFFSET ( 1, 0, .AHEAD. ) ;
#158 = CARTESIAN_POINT ( 'NONE',  ( 1.821662113731687695E-15, 0.000000000000000000, -14.75000000000000000 ) ) ;
#159 = CARTESIAN_POINT ( 'NONE',  ( 0.000000000000000000, 0.000000000000000000, 0.000000000000000000 ) ) ;
#160 = EDGE_CURVE ( 'NONE', #166, #230, #31, .T. ) ;
#161 = DIRECTION ( 'NONE',  ( 0.000000000000000000, 0.000000000000000000, 1.000000000000000000 ) ) ;
#162 = DIRECTION ( 'NONE',  ( -0.000000000000000000, -1.000000000000000000, -0.000000000000000000 ) ) ;
#163 = CARTESIAN_POINT ( 'NONE',  ( 1.821662113731687695E-15, 4.000000000000000000, -14.75000000000000000 ) ) ;
#164 = AXIS2_PLACEMENT_3D ( 'NONE', #138, #226, #11 ) ;
#165 = MANIFOLD_SOLID_BREP ( 'Verrundung1', #147 ) ;
#166 = VERTEX_POINT ( 'NONE', #95 ) ;
#167 = VERTEX_POINT ( 'NONE', #163 ) ;
#168 = PRODUCT ( '3D_GR1442_30 x 4_188741150', '3D_GR1442_30 x 4_188741150', '', ( #112 ) ) ;
#169 = ORIENTED_EDGE ( 'NONE', *, *, #269, .F. ) ;
#170 = LINE ( 'NONE', #26, #96 ) ;
#171 = PRODUCT_RELATED_PRODUCT_CATEGORY ( 'detail', '', ( #168 ) ) ;
#172 = DATE_AND_TIME ( #92, #188 ) ;
#173 = ORIENTED_EDGE ( 'NONE', *, *, #160, .F. ) ;
#174 = PERSON_AND_ORGANIZATION_ROLE ( 'design_owner' ) ;
#175 = ORIENTED_EDGE ( 'NONE', *, *, #67, .F. ) ;
#176 = APPROVAL_STATUS ( 'not_yet_approved' ) ;
#177 = CARTESIAN_POINT ( 'NONE',  ( 0.000000000000000000, 0.2500000000000002220, 14.75000000000000000 ) ) ;
#178 = CIRCLE ( 'NONE', #82, 14.75000000000000000 ) ;
#179 = CALENDAR_DATE ( 2024, 22, 10 ) ;
#180 = DIRECTION ( 'NONE',  ( 0.000000000000000000, 0.000000000000000000, 1.000000000000000000 ) ) ;
#181 = DIRECTION ( 'NONE',  ( 0.000000000000000000, 1.000000000000000000, 0.000000000000000000 ) ) ;
#182 = CARTESIAN_POINT ( 'NONE',  ( 0.000000000000000000, 4.000000000000000000, 0.000000000000000000 ) ) ;
#183 = AXIS2_PLACEMENT_3D ( 'NONE', #41, #45, #2 ) ;
#184 = DIRECTION ( 'NONE',  ( 0.000000000000000000, 1.000000000000000000, 0.000000000000000000 ) ) ;
#185 = EDGE_CURVE ( 'NONE', #242, #230, #153, .T. ) ;
#186 = TOROIDAL_SURFACE ( 'NONE', #91, 14.75000000000000000, 0.2500000000000000000 ) ;
#187 = PRODUCT_DEFINITION ( 'UNKNOWN', '', #190, #125 ) ;
#188 = LOCAL_TIME ( 17, 30, 43.00000000000000000, #10 ) ;
#189 = VERTEX_POINT ( 'NONE', #207 ) ;
#190 = PRODUCT_DEFINITION_FORMATION_WITH_SPECIFIED_SOURCE ( 'ANY', '', #168, .NOT_KNOWN. ) ;
#191 = ORIENTED_EDGE ( 'NONE', *, *, #40, .T. ) ;
#192 = CC_DESIGN_SECURITY_CLASSIFICATION ( #278, ( #190 ) ) ;
#193 = DIRECTION ( 'NONE',  ( 0.000000000000000000, 1.000000000000000000, 0.000000000000000000 ) ) ;
#194 = CC_DESIGN_PERSON_AND_ORGANIZATION_ASSIGNMENT ( #5, #174, ( #168 ) ) ;
#195 = PERSON_AND_ORGANIZATION ( #260, #43 ) ;
#196 = CARTESIAN_POINT ( 'NONE',  ( 0.000000000000000000, 0.2500000000000002220, 0.000000000000000000 ) ) ;
#197 = PERSON_AND_ORGANIZATION ( #260, #43 ) ;
#198 = CARTESIAN_POINT ( 'NONE',  ( 0.000000000000000000, 0.000000000000000000, 0.000000000000000000 ) ) ;
#199 = APPROVAL_PERSON_ORGANIZATION ( #197, #17, #73 ) ;
#200 = PERSON_AND_ORGANIZATION_ROLE ( 'creator' ) ;
#201 = DIRECTION ( 'NONE',  ( 0.000000000000000000, 0.000000000000000000, 1.000000000000000000 ) ) ;
#202 = DATE_AND_TIME ( #89, #104 ) ;
#203 = FACE_OUTER_BOUND ( 'NONE', #109, .T. ) ;
#204 = CARTESIAN_POINT ( 'NONE',  ( 0.000000000000000000, 3.750000000000000000, 0.000000000000000000 ) ) ;
#205 = AXIS2_PLACEMENT_3D ( 'NONE', #182, #251, #273 ) ;
#206 = FACE_OUTER_BOUND ( 'NONE', #3, .T. ) ;
#207 = CARTESIAN_POINT ( 'NONE',  ( 0.000000000000000000, 4.000000000000000000, 14.75000000000000000 ) ) ;
#208 = CIRCLE ( 'NONE', #266, 0.2500000000000002220 ) ;
#209 = AXIS2_PLACEMENT_3D ( 'NONE', #198, #69, #126 ) ;
#210 = ORIENTED_EDGE ( 'NONE', *, *, #229, .F. ) ;
#211 = AXIS2_PLACEMENT_3D ( 'NONE', #28, #193, #234 ) ;
#212 = LOCAL_TIME ( 17, 30, 43.00000000000000000, #157 ) ;
#213 = CC_DESIGN_PERSON_AND_ORGANIZATION_ASSIGNMENT ( #130, #215, ( #278 ) ) ;
#214 = ORIENTED_EDGE ( 'NONE', *, *, #102, .F. ) ;
#215 = PERSON_AND_ORGANIZATION_ROLE ( 'classification_officer' ) ;
#216 = CARTESIAN_POINT ( 'NONE',  ( 1.806354028742345802E-15, 3.750000000000000000, -14.75000000000000000 ) ) ;
#217 = COORDINATED_UNIVERSAL_TIME_OFFSET ( 1, 0, .AHEAD. ) ;
#218 = DIRECTION ( 'NONE',  ( 0.000000000000000000, 1.000000000000000000, 0.000000000000000000 ) ) ;
#219 = DIRECTION ( 'NONE',  ( 0.000000000000000000, 1.000000000000000000, 0.000000000000000000 ) ) ;
#220 = CIRCLE ( 'NONE', #236, 0.2500000000000002220 ) ;
#221 = EDGE_CURVE ( 'NONE', #189, #167, #116, .T. ) ;
#222 = DIRECTION ( 'NONE',  ( -0.000000000000000000, -1.000000000000000000, -0.000000000000000000 ) ) ;
#223 = CARTESIAN_POINT ( 'NONE',  ( 0.000000000000000000, 3.750000000000000000, 0.000000000000000000 ) ) ;
#224 = DIRECTION ( 'NONE',  ( 0.000000000000000000, 1.000000000000000000, 0.000000000000000000 ) ) ;
#225 = EDGE_CURVE ( 'NONE', #167, #189, #178, .T. ) ;
#226 = DIRECTION ( 'NONE',  ( 0.000000000000000000, 1.000000000000000000, 0.000000000000000000 ) ) ;
#227 = DATE_AND_TIME ( #241, #212 ) ;
#228 = CIRCLE ( 'NONE', #57, 0.2500000000000002220 ) ;
#229 = EDGE_CURVE ( 'NONE', #36, #166, #124, .T. ) ;
#230 = VERTEX_POINT ( 'NONE', #16 ) ;
#231 = CARTESIAN_POINT ( 'NONE',  ( 0.000000000000000000, 3.750000000000000000, -15.00000000000000000 ) ) ;
#232 = EDGE_CURVE ( 'NONE', #30, #103, #134, .T. ) ;
#233 = APPROVAL_DATE_TIME ( #265, #20 ) ;
#234 = DIRECTION ( 'NONE',  ( 0.000000000000000000, 0.000000000000000000, 1.000000000000000000 ) ) ;
#235 = SECURITY_CLASSIFICATION_LEVEL ( 'unclassified' ) ;
#236 = AXIS2_PLACEMENT_3D ( 'NONE', #6, #90, #180 ) ;
#237 = ORIENTED_EDGE ( 'NONE', *, *, #247, .F. ) ;
#238 = PERSON_AND_ORGANIZATION ( #260, #43 ) ;
#239 = ORIENTED_EDGE ( 'NONE', *, *, #101, .T. ) ;
#240 = APPLICATION_CONTEXT ( 'configuration controlled 3d designs of mechanical parts and assemblies' ) ;
#241 = CALENDAR_DATE ( 2024, 22, 10 ) ;
#242 = VERTEX_POINT ( 'NONE', #53 ) ;
#243 = APPLICATION_PROTOCOL_DEFINITION ( 'international standard', 'config_control_design', 1994, #249 ) ;
#244 = CARTESIAN_POINT ( 'NONE',  ( 0.000000000000000000, 4.000000000000000000, 0.000000000000000000 ) ) ;
#245 = AXIS2_PLACEMENT_3D ( 'NONE', #276, #76, #161 ) ;
#246 = CARTESIAN_POINT ( 'NONE',  ( 0.000000000000000000, 0.2500000000000002220, 0.000000000000000000 ) ) ;
#247 = EDGE_CURVE ( 'NONE', #230, #242, #14, .T. ) ;
#248 = DIRECTION ( 'NONE',  ( 0.000000000000000000, 0.000000000000000000, 1.000000000000000000 ) ) ;
#249 = APPLICATION_CONTEXT ( 'configuration controlled 3d designs of mechanical parts and assemblies' ) ;
#250 = EDGE_LOOP ( 'NONE', ( #120, #149 ) ) ;
#251 = DIRECTION ( 'NONE',  ( 0.000000000000000000, 1.000000000000000000, 0.000000000000000000 ) ) ;
#252 = AXIS2_PLACEMENT_3D ( 'NONE', #216, #9, #262 ) ;
#253 = ORIENTED_EDGE ( 'NONE', *, *, #261, .F. ) ;
#254 = EDGE_LOOP ( 'NONE', ( #151, #191 ) ) ;
#255 = CC_DESIGN_DATE_AND_TIME_ASSIGNMENT ( #172, #152, ( #187 ) ) ;
#256 = VECTOR ( 'NONE', #81, 1000.000000000000000 ) ;
#257 = ORIENTED_EDGE ( 'NONE', *, *, #225, .F. ) ;
#258 = AXIS2_PLACEMENT_3D ( 'NONE', #244, #52, #35 ) ;
#259 = ORIENTED_EDGE ( 'NONE', *, *, #67, .T. ) ;
#260 = PERSON ( 'UNSPECIFIED', 'UNSPECIFIED', 'UNSPECIFIED', ('UNSPECIFIED'), ('UNSPECIFIED'), ('UNSPECIFIED') ) ;
#261 = EDGE_CURVE ( 'NONE', #166, #36, #37, .T. ) ;
#262 = DIRECTION ( 'NONE',  ( 1.224646799147349509E-16, 0.000000000000000000, -1.000000000000000000 ) ) ;
#263 = CARTESIAN_POINT ( 'NONE',  ( 0.000000000000000000, 0.000000000000000000, 0.000000000000000000 ) ) ;
#264 = ORIENTED_EDGE ( 'NONE', *, *, #102, .T. ) ;
#265 = DATE_AND_TIME ( #50, #61 ) ;
#266 = AXIS2_PLACEMENT_3D ( 'NONE', #177, #72, #270 ) ;
#267 = ORIENTED_EDGE ( 'NONE', *, *, #84, .T. ) ;
#268 = APPROVAL_STATUS ( 'not_yet_approved' ) ;
#269 = EDGE_CURVE ( 'NONE', #103, #242, #228, .T. ) ;
#270 = DIRECTION ( 'NONE',  ( 0.000000000000000000, 0.000000000000000000, 1.000000000000000000 ) ) ;
#271 = APPROVAL_DATE_TIME ( #202, #88 ) ;
#272 = CYLINDRICAL_SURFACE ( 'NONE', #258, 15.00000000000000000 ) ;
#273 = DIRECTION ( 'NONE',  ( 0.000000000000000000, 0.000000000000000000, 1.000000000000000000 ) ) ;
#274 = LOCAL_TIME ( 17, 30, 43.00000000000000000, #217 ) ;
#275 = CC_DESIGN_PERSON_AND_ORGANIZATION_ASSIGNMENT ( #238, #105, ( #190 ) ) ;
#276 = CARTESIAN_POINT ( 'NONE',  ( 0.000000000000000000, 0.000000000000000000, 0.000000000000000000 ) ) ;
#277 = FACE_OUTER_BOUND ( 'NONE', #254, .T. ) ;
#278 = SECURITY_CLASSIFICATION ( '', '', #235 ) ;
#279 = CC_DESIGN_PERSON_AND_ORGANIZATION_ASSIGNMENT ( #27, #127, ( #190 ) ) ;
ENDSEC;
END-ISO-10303-21;
