ISO-10303-21;
HEADER;
/* Generated by software containing ST-Developer
 * from STEP Tools, Inc. (www.steptools.com) 
 */

FILE_DESCRIPTION(
/* description */ ('MANICOTTO PASSANTE De22'),
/* implementation_level */ '2;1');

FILE_NAME(
/* name */ 
'R:\\Disegni3D_Area_Manager\\Inoxpres.step\\183_001INOXPRES\\183022001
_Inoxprex.stp',
/* time_stamp */ '2022-10-11T11:12:20+02:00',
/* author */ ('Vault'),
/* organization */ ('Raccorderie metalliche s.p.a. '),
/* preprocessor_version */ 'ST-DEVELOPER v18.1',
/* originating_system */ 'Autodesk Inventor 2020',
/* authorisation */ 'Raccorderie metalliche s.p.a. ');

FILE_SCHEMA (('AUTOMOTIVE_DESIGN { 1 0 10303 214 3 1 1 }'));
ENDSEC;

DATA;
#10=MECHANICAL_DESIGN_GEOMETRIC_PRESENTATION_REPRESENTATION('',(#13),#617);
#11=SHAPE_REPRESENTATION_RELATIONSHIP('SRR','None',#624,#12);
#12=ADVANCED_BREP_SHAPE_REPRESENTATION('',(#14),#616);
#13=STYLED_ITEM('',(#633),#14);
#14=MANIFOLD_SOLID_BREP('Solido1',#315);
#15=CONICAL_SURFACE('',#377,11.825,0.523598775598299);
#16=CONICAL_SURFACE('',#383,11.825,0.523598775598299);
#17=LINE('',#534,#25);
#18=LINE('',#550,#26);
#19=LINE('',#571,#27);
#20=LINE('',#588,#28);
#21=LINE('',#591,#29);
#22=LINE('',#601,#30);
#23=LINE('',#611,#31);
#24=LINE('',#613,#32);
#25=VECTOR('',#415,11.45);
#26=VECTOR('',#434,11.45);
#27=VECTOR('',#457,11.45);
#28=VECTOR('',#478,11.45);
#29=VECTOR('',#483,11.825);
#30=VECTOR('',#496,11.825);
#31=VECTOR('',#509,11.15);
#32=VECTOR('',#512,12.65);
#33=CYLINDRICAL_SURFACE('',#343,11.45);
#34=CYLINDRICAL_SURFACE('',#352,11.45);
#35=CYLINDRICAL_SURFACE('',#364,11.45);
#36=CYLINDRICAL_SURFACE('',#373,11.45);
#37=CYLINDRICAL_SURFACE('',#389,11.15);
#38=CYLINDRICAL_SURFACE('',#390,12.65);
#39=FACE_OUTER_BOUND('',#53,.T.);
#40=FACE_OUTER_BOUND('',#54,.T.);
#41=FACE_OUTER_BOUND('',#55,.T.);
#42=FACE_OUTER_BOUND('',#56,.T.);
#43=FACE_OUTER_BOUND('',#57,.T.);
#44=FACE_OUTER_BOUND('',#58,.T.);
#45=FACE_OUTER_BOUND('',#59,.T.);
#46=FACE_OUTER_BOUND('',#60,.T.);
#47=FACE_OUTER_BOUND('',#61,.T.);
#48=FACE_OUTER_BOUND('',#62,.T.);
#49=FACE_OUTER_BOUND('',#63,.T.);
#50=FACE_OUTER_BOUND('',#64,.T.);
#51=FACE_OUTER_BOUND('',#65,.T.);
#52=FACE_OUTER_BOUND('',#66,.T.);
#53=EDGE_LOOP('',(#195,#196,#197,#198,#199,#200,#201,#202));
#54=EDGE_LOOP('',(#203,#204,#205,#206,#207,#208));
#55=EDGE_LOOP('',(#209,#210,#211,#212,#213,#214));
#56=EDGE_LOOP('',(#215,#216,#217,#218,#219,#220,#221));
#57=EDGE_LOOP('',(#222,#223,#224,#225,#226,#227,#228,#229));
#58=EDGE_LOOP('',(#230,#231,#232,#233,#234,#235));
#59=EDGE_LOOP('',(#236,#237,#238,#239,#240,#241));
#60=EDGE_LOOP('',(#242,#243,#244,#245,#246,#247,#248));
#61=EDGE_LOOP('',(#249,#250,#251,#252,#253,#254,#255,#256));
#62=EDGE_LOOP('',(#257,#258,#259,#260,#261,#262,#263));
#63=EDGE_LOOP('',(#264,#265,#266,#267,#268,#269,#270,#271));
#64=EDGE_LOOP('',(#272,#273,#274,#275,#276,#277,#278));
#65=EDGE_LOOP('',(#279,#280,#281,#282,#283,#284,#285,#286));
#66=EDGE_LOOP('',(#287,#288,#289,#290,#291,#292,#293,#294));
#67=CIRCLE('',#336,12.2);
#68=CIRCLE('',#337,12.2);
#69=CIRCLE('',#338,3.77233562747764);
#70=CIRCLE('',#339,12.65);
#71=CIRCLE('',#340,12.65);
#72=CIRCLE('',#341,12.65);
#73=CIRCLE('',#342,12.2);
#74=CIRCLE('',#344,11.45);
#75=CIRCLE('',#345,11.45);
#76=CIRCLE('',#346,11.45);
#77=CIRCLE('',#347,11.45);
#78=CIRCLE('',#349,3.);
#79=CIRCLE('',#350,11.45);
#80=CIRCLE('',#351,11.45);
#81=CIRCLE('',#353,11.45);
#82=CIRCLE('',#354,11.45);
#83=CIRCLE('',#355,11.45);
#84=CIRCLE('',#357,12.2);
#85=CIRCLE('',#358,12.2);
#86=CIRCLE('',#359,3.77233562747764);
#87=CIRCLE('',#360,12.65);
#88=CIRCLE('',#361,12.65);
#89=CIRCLE('',#362,12.65);
#90=CIRCLE('',#363,12.2);
#91=CIRCLE('',#365,11.45);
#92=CIRCLE('',#366,11.45);
#93=CIRCLE('',#367,11.45);
#94=CIRCLE('',#368,11.45);
#95=CIRCLE('',#370,3.);
#96=CIRCLE('',#371,11.45);
#97=CIRCLE('',#372,11.45);
#98=CIRCLE('',#374,11.45);
#99=CIRCLE('',#375,11.45);
#100=CIRCLE('',#376,11.45);
#101=CIRCLE('',#379,11.15);
#102=CIRCLE('',#380,2.);
#103=CIRCLE('',#381,11.15);
#104=CIRCLE('',#382,11.15);
#105=CIRCLE('',#385,11.15);
#106=CIRCLE('',#386,11.15);
#107=CIRCLE('',#387,11.15);
#108=CIRCLE('',#388,2.);
#109=VERTEX_POINT('',#515);
#110=VERTEX_POINT('',#516);
#111=VERTEX_POINT('',#518);
#112=VERTEX_POINT('',#520);
#113=VERTEX_POINT('',#522);
#114=VERTEX_POINT('',#524);
#115=VERTEX_POINT('',#529);
#116=VERTEX_POINT('',#530);
#117=VERTEX_POINT('',#533);
#118=VERTEX_POINT('',#535);
#119=VERTEX_POINT('',#539);
#120=VERTEX_POINT('',#541);
#121=VERTEX_POINT('',#545);
#122=VERTEX_POINT('',#546);
#123=VERTEX_POINT('',#548);
#124=VERTEX_POINT('',#553);
#125=VERTEX_POINT('',#554);
#126=VERTEX_POINT('',#556);
#127=VERTEX_POINT('',#558);
#128=VERTEX_POINT('',#560);
#129=VERTEX_POINT('',#562);
#130=VERTEX_POINT('',#567);
#131=VERTEX_POINT('',#568);
#132=VERTEX_POINT('',#570);
#133=VERTEX_POINT('',#572);
#134=VERTEX_POINT('',#577);
#135=VERTEX_POINT('',#579);
#136=VERTEX_POINT('',#583);
#137=VERTEX_POINT('',#584);
#138=VERTEX_POINT('',#586);
#139=VERTEX_POINT('',#593);
#140=VERTEX_POINT('',#594);
#141=VERTEX_POINT('',#597);
#142=VERTEX_POINT('',#603);
#143=VERTEX_POINT('',#604);
#144=VERTEX_POINT('',#606);
#145=EDGE_CURVE('',#109,#110,#67,.T.);
#146=EDGE_CURVE('',#111,#109,#68,.T.);
#147=EDGE_CURVE('',#111,#112,#69,.T.);
#148=EDGE_CURVE('',#112,#113,#70,.T.);
#149=EDGE_CURVE('',#113,#114,#71,.T.);
#150=EDGE_CURVE('',#114,#112,#72,.T.);
#151=EDGE_CURVE('',#110,#111,#73,.T.);
#152=EDGE_CURVE('',#115,#116,#74,.T.);
#153=EDGE_CURVE('',#116,#115,#75,.T.);
#154=EDGE_CURVE('',#116,#117,#17,.T.);
#155=EDGE_CURVE('',#118,#117,#76,.T.);
#156=EDGE_CURVE('',#117,#118,#77,.T.);
#157=EDGE_CURVE('',#116,#119,#78,.T.);
#158=EDGE_CURVE('',#120,#119,#79,.T.);
#159=EDGE_CURVE('',#119,#120,#80,.T.);
#160=EDGE_CURVE('',#121,#122,#81,.T.);
#161=EDGE_CURVE('',#122,#123,#82,.T.);
#162=EDGE_CURVE('',#123,#119,#18,.T.);
#163=EDGE_CURVE('',#123,#121,#83,.T.);
#164=EDGE_CURVE('',#124,#125,#84,.T.);
#165=EDGE_CURVE('',#125,#126,#85,.T.);
#166=EDGE_CURVE('',#126,#127,#86,.T.);
#167=EDGE_CURVE('',#128,#127,#87,.T.);
#168=EDGE_CURVE('',#129,#128,#88,.T.);
#169=EDGE_CURVE('',#127,#129,#89,.T.);
#170=EDGE_CURVE('',#126,#124,#90,.T.);
#171=EDGE_CURVE('',#130,#131,#91,.T.);
#172=EDGE_CURVE('',#131,#132,#19,.T.);
#173=EDGE_CURVE('',#133,#132,#92,.T.);
#174=EDGE_CURVE('',#132,#133,#93,.T.);
#175=EDGE_CURVE('',#131,#130,#94,.T.);
#176=EDGE_CURVE('',#131,#134,#95,.T.);
#177=EDGE_CURVE('',#134,#135,#96,.T.);
#178=EDGE_CURVE('',#135,#134,#97,.T.);
#179=EDGE_CURVE('',#136,#137,#98,.T.);
#180=EDGE_CURVE('',#138,#136,#99,.T.);
#181=EDGE_CURVE('',#138,#134,#20,.T.);
#182=EDGE_CURVE('',#137,#138,#100,.T.);
#183=EDGE_CURVE('',#125,#137,#21,.T.);
#184=EDGE_CURVE('',#139,#140,#101,.T.);
#185=EDGE_CURVE('',#140,#133,#102,.T.);
#186=EDGE_CURVE('',#140,#141,#103,.T.);
#187=EDGE_CURVE('',#141,#139,#104,.T.);
#188=EDGE_CURVE('',#110,#122,#22,.T.);
#189=EDGE_CURVE('',#142,#143,#105,.T.);
#190=EDGE_CURVE('',#144,#142,#106,.T.);
#191=EDGE_CURVE('',#143,#144,#107,.T.);
#192=EDGE_CURVE('',#143,#118,#108,.T.);
#193=EDGE_CURVE('',#144,#141,#23,.T.);
#194=EDGE_CURVE('',#114,#128,#24,.T.);
#195=ORIENTED_EDGE('',*,*,#145,.F.);
#196=ORIENTED_EDGE('',*,*,#146,.F.);
#197=ORIENTED_EDGE('',*,*,#147,.T.);
#198=ORIENTED_EDGE('',*,*,#148,.T.);
#199=ORIENTED_EDGE('',*,*,#149,.T.);
#200=ORIENTED_EDGE('',*,*,#150,.T.);
#201=ORIENTED_EDGE('',*,*,#147,.F.);
#202=ORIENTED_EDGE('',*,*,#151,.F.);
#203=ORIENTED_EDGE('',*,*,#152,.F.);
#204=ORIENTED_EDGE('',*,*,#153,.F.);
#205=ORIENTED_EDGE('',*,*,#154,.T.);
#206=ORIENTED_EDGE('',*,*,#155,.F.);
#207=ORIENTED_EDGE('',*,*,#156,.F.);
#208=ORIENTED_EDGE('',*,*,#154,.F.);
#209=ORIENTED_EDGE('',*,*,#152,.T.);
#210=ORIENTED_EDGE('',*,*,#157,.T.);
#211=ORIENTED_EDGE('',*,*,#158,.F.);
#212=ORIENTED_EDGE('',*,*,#159,.F.);
#213=ORIENTED_EDGE('',*,*,#157,.F.);
#214=ORIENTED_EDGE('',*,*,#153,.T.);
#215=ORIENTED_EDGE('',*,*,#160,.T.);
#216=ORIENTED_EDGE('',*,*,#161,.T.);
#217=ORIENTED_EDGE('',*,*,#162,.T.);
#218=ORIENTED_EDGE('',*,*,#159,.T.);
#219=ORIENTED_EDGE('',*,*,#158,.T.);
#220=ORIENTED_EDGE('',*,*,#162,.F.);
#221=ORIENTED_EDGE('',*,*,#163,.T.);
#222=ORIENTED_EDGE('',*,*,#164,.T.);
#223=ORIENTED_EDGE('',*,*,#165,.T.);
#224=ORIENTED_EDGE('',*,*,#166,.T.);
#225=ORIENTED_EDGE('',*,*,#167,.F.);
#226=ORIENTED_EDGE('',*,*,#168,.F.);
#227=ORIENTED_EDGE('',*,*,#169,.F.);
#228=ORIENTED_EDGE('',*,*,#166,.F.);
#229=ORIENTED_EDGE('',*,*,#170,.T.);
#230=ORIENTED_EDGE('',*,*,#171,.T.);
#231=ORIENTED_EDGE('',*,*,#172,.T.);
#232=ORIENTED_EDGE('',*,*,#173,.F.);
#233=ORIENTED_EDGE('',*,*,#174,.F.);
#234=ORIENTED_EDGE('',*,*,#172,.F.);
#235=ORIENTED_EDGE('',*,*,#175,.T.);
#236=ORIENTED_EDGE('',*,*,#171,.F.);
#237=ORIENTED_EDGE('',*,*,#175,.F.);
#238=ORIENTED_EDGE('',*,*,#176,.T.);
#239=ORIENTED_EDGE('',*,*,#177,.T.);
#240=ORIENTED_EDGE('',*,*,#178,.T.);
#241=ORIENTED_EDGE('',*,*,#176,.F.);
#242=ORIENTED_EDGE('',*,*,#179,.F.);
#243=ORIENTED_EDGE('',*,*,#180,.F.);
#244=ORIENTED_EDGE('',*,*,#181,.T.);
#245=ORIENTED_EDGE('',*,*,#178,.F.);
#246=ORIENTED_EDGE('',*,*,#177,.F.);
#247=ORIENTED_EDGE('',*,*,#181,.F.);
#248=ORIENTED_EDGE('',*,*,#182,.F.);
#249=ORIENTED_EDGE('',*,*,#164,.F.);
#250=ORIENTED_EDGE('',*,*,#170,.F.);
#251=ORIENTED_EDGE('',*,*,#165,.F.);
#252=ORIENTED_EDGE('',*,*,#183,.T.);
#253=ORIENTED_EDGE('',*,*,#182,.T.);
#254=ORIENTED_EDGE('',*,*,#180,.T.);
#255=ORIENTED_EDGE('',*,*,#179,.T.);
#256=ORIENTED_EDGE('',*,*,#183,.F.);
#257=ORIENTED_EDGE('',*,*,#184,.T.);
#258=ORIENTED_EDGE('',*,*,#185,.T.);
#259=ORIENTED_EDGE('',*,*,#173,.T.);
#260=ORIENTED_EDGE('',*,*,#174,.T.);
#261=ORIENTED_EDGE('',*,*,#185,.F.);
#262=ORIENTED_EDGE('',*,*,#186,.T.);
#263=ORIENTED_EDGE('',*,*,#187,.T.);
#264=ORIENTED_EDGE('',*,*,#145,.T.);
#265=ORIENTED_EDGE('',*,*,#188,.T.);
#266=ORIENTED_EDGE('',*,*,#160,.F.);
#267=ORIENTED_EDGE('',*,*,#163,.F.);
#268=ORIENTED_EDGE('',*,*,#161,.F.);
#269=ORIENTED_EDGE('',*,*,#188,.F.);
#270=ORIENTED_EDGE('',*,*,#151,.T.);
#271=ORIENTED_EDGE('',*,*,#146,.T.);
#272=ORIENTED_EDGE('',*,*,#189,.F.);
#273=ORIENTED_EDGE('',*,*,#190,.F.);
#274=ORIENTED_EDGE('',*,*,#191,.F.);
#275=ORIENTED_EDGE('',*,*,#192,.T.);
#276=ORIENTED_EDGE('',*,*,#155,.T.);
#277=ORIENTED_EDGE('',*,*,#156,.T.);
#278=ORIENTED_EDGE('',*,*,#192,.F.);
#279=ORIENTED_EDGE('',*,*,#189,.T.);
#280=ORIENTED_EDGE('',*,*,#191,.T.);
#281=ORIENTED_EDGE('',*,*,#193,.T.);
#282=ORIENTED_EDGE('',*,*,#186,.F.);
#283=ORIENTED_EDGE('',*,*,#184,.F.);
#284=ORIENTED_EDGE('',*,*,#187,.F.);
#285=ORIENTED_EDGE('',*,*,#193,.F.);
#286=ORIENTED_EDGE('',*,*,#190,.T.);
#287=ORIENTED_EDGE('',*,*,#149,.F.);
#288=ORIENTED_EDGE('',*,*,#148,.F.);
#289=ORIENTED_EDGE('',*,*,#150,.F.);
#290=ORIENTED_EDGE('',*,*,#194,.T.);
#291=ORIENTED_EDGE('',*,*,#167,.T.);
#292=ORIENTED_EDGE('',*,*,#169,.T.);
#293=ORIENTED_EDGE('',*,*,#168,.T.);
#294=ORIENTED_EDGE('',*,*,#194,.F.);
#295=TOROIDAL_SURFACE('',#335,11.6308593970412,3.77233562747764);
#296=TOROIDAL_SURFACE('',#348,14.,3.);
#297=TOROIDAL_SURFACE('',#356,11.6308593970412,3.77233562747764);
#298=TOROIDAL_SURFACE('',#369,14.,3.);
#299=TOROIDAL_SURFACE('',#378,13.15,2.);
#300=TOROIDAL_SURFACE('',#384,13.15,2.);
#301=ADVANCED_FACE('',(#39),#295,.T.);
#302=ADVANCED_FACE('',(#40),#33,.F.);
#303=ADVANCED_FACE('',(#41),#296,.T.);
#304=ADVANCED_FACE('',(#42),#34,.F.);
#305=ADVANCED_FACE('',(#43),#297,.T.);
#306=ADVANCED_FACE('',(#44),#35,.F.);
#307=ADVANCED_FACE('',(#45),#298,.T.);
#308=ADVANCED_FACE('',(#46),#36,.F.);
#309=ADVANCED_FACE('',(#47),#15,.F.);
#310=ADVANCED_FACE('',(#48),#299,.T.);
#311=ADVANCED_FACE('',(#49),#16,.F.);
#312=ADVANCED_FACE('',(#50),#300,.T.);
#313=ADVANCED_FACE('',(#51),#37,.F.);
#314=ADVANCED_FACE('',(#52),#38,.T.);
#315=CLOSED_SHELL('',(#301,#302,#303,#304,#305,#306,#307,#308,#309,#310,
#311,#312,#313,#314));
#316=DERIVED_UNIT_ELEMENT(#318,1.);
#317=DERIVED_UNIT_ELEMENT(#619,3.);
#318=(
MASS_UNIT()
NAMED_UNIT(*)
SI_UNIT($,.GRAM.)
);
#319=DERIVED_UNIT((#316,#317));
#320=MEASURE_REPRESENTATION_ITEM('density measure',
POSITIVE_RATIO_MEASURE(1.),#319);
#321=PROPERTY_DEFINITION_REPRESENTATION(#326,#323);
#322=PROPERTY_DEFINITION_REPRESENTATION(#327,#324);
#323=REPRESENTATION('material name',(#325),#616);
#324=REPRESENTATION('density',(#320),#616);
#325=DESCRIPTIVE_REPRESENTATION_ITEM('Generico','Generico');
#326=PROPERTY_DEFINITION('material property','material name',#626);
#327=PROPERTY_DEFINITION('material property','density of part',#626);
#328=DATE_TIME_ROLE('creation_date');
#329=APPLIED_DATE_AND_TIME_ASSIGNMENT(#330,#328,(#626));
#330=DATE_AND_TIME(#331,#332);
#331=CALENDAR_DATE(2016,27,1);
#332=LOCAL_TIME(8,50,4.,#333);
#333=COORDINATED_UNIVERSAL_TIME_OFFSET(0,0,.BEHIND.);
#334=AXIS2_PLACEMENT_3D('placement',#513,#391,#392);
#335=AXIS2_PLACEMENT_3D('',#514,#393,#394);
#336=AXIS2_PLACEMENT_3D('',#517,#395,#396);
#337=AXIS2_PLACEMENT_3D('',#519,#397,#398);
#338=AXIS2_PLACEMENT_3D('',#521,#399,#400);
#339=AXIS2_PLACEMENT_3D('',#523,#401,#402);
#340=AXIS2_PLACEMENT_3D('',#525,#403,#404);
#341=AXIS2_PLACEMENT_3D('',#526,#405,#406);
#342=AXIS2_PLACEMENT_3D('',#527,#407,#408);
#343=AXIS2_PLACEMENT_3D('',#528,#409,#410);
#344=AXIS2_PLACEMENT_3D('',#531,#411,#412);
#345=AXIS2_PLACEMENT_3D('',#532,#413,#414);
#346=AXIS2_PLACEMENT_3D('',#536,#416,#417);
#347=AXIS2_PLACEMENT_3D('',#537,#418,#419);
#348=AXIS2_PLACEMENT_3D('',#538,#420,#421);
#349=AXIS2_PLACEMENT_3D('',#540,#422,#423);
#350=AXIS2_PLACEMENT_3D('',#542,#424,#425);
#351=AXIS2_PLACEMENT_3D('',#543,#426,#427);
#352=AXIS2_PLACEMENT_3D('',#544,#428,#429);
#353=AXIS2_PLACEMENT_3D('',#547,#430,#431);
#354=AXIS2_PLACEMENT_3D('',#549,#432,#433);
#355=AXIS2_PLACEMENT_3D('',#551,#435,#436);
#356=AXIS2_PLACEMENT_3D('',#552,#437,#438);
#357=AXIS2_PLACEMENT_3D('',#555,#439,#440);
#358=AXIS2_PLACEMENT_3D('',#557,#441,#442);
#359=AXIS2_PLACEMENT_3D('',#559,#443,#444);
#360=AXIS2_PLACEMENT_3D('',#561,#445,#446);
#361=AXIS2_PLACEMENT_3D('',#563,#447,#448);
#362=AXIS2_PLACEMENT_3D('',#564,#449,#450);
#363=AXIS2_PLACEMENT_3D('',#565,#451,#452);
#364=AXIS2_PLACEMENT_3D('',#566,#453,#454);
#365=AXIS2_PLACEMENT_3D('',#569,#455,#456);
#366=AXIS2_PLACEMENT_3D('',#573,#458,#459);
#367=AXIS2_PLACEMENT_3D('',#574,#460,#461);
#368=AXIS2_PLACEMENT_3D('',#575,#462,#463);
#369=AXIS2_PLACEMENT_3D('',#576,#464,#465);
#370=AXIS2_PLACEMENT_3D('',#578,#466,#467);
#371=AXIS2_PLACEMENT_3D('',#580,#468,#469);
#372=AXIS2_PLACEMENT_3D('',#581,#470,#471);
#373=AXIS2_PLACEMENT_3D('',#582,#472,#473);
#374=AXIS2_PLACEMENT_3D('',#585,#474,#475);
#375=AXIS2_PLACEMENT_3D('',#587,#476,#477);
#376=AXIS2_PLACEMENT_3D('',#589,#479,#480);
#377=AXIS2_PLACEMENT_3D('',#590,#481,#482);
#378=AXIS2_PLACEMENT_3D('',#592,#484,#485);
#379=AXIS2_PLACEMENT_3D('',#595,#486,#487);
#380=AXIS2_PLACEMENT_3D('',#596,#488,#489);
#381=AXIS2_PLACEMENT_3D('',#598,#490,#491);
#382=AXIS2_PLACEMENT_3D('',#599,#492,#493);
#383=AXIS2_PLACEMENT_3D('',#600,#494,#495);
#384=AXIS2_PLACEMENT_3D('',#602,#497,#498);
#385=AXIS2_PLACEMENT_3D('',#605,#499,#500);
#386=AXIS2_PLACEMENT_3D('',#607,#501,#502);
#387=AXIS2_PLACEMENT_3D('',#608,#503,#504);
#388=AXIS2_PLACEMENT_3D('',#609,#505,#506);
#389=AXIS2_PLACEMENT_3D('',#610,#507,#508);
#390=AXIS2_PLACEMENT_3D('',#612,#510,#511);
#391=DIRECTION('axis',(0.,0.,1.));
#392=DIRECTION('refdir',(1.,0.,0.));
#393=DIRECTION('center_axis',(1.,0.,0.));
#394=DIRECTION('ref_axis',(0.,0.,1.));
#395=DIRECTION('center_axis',(1.,0.,0.));
#396=DIRECTION('ref_axis',(4.01622219444538E-17,1.,0.));
#397=DIRECTION('center_axis',(1.,0.,0.));
#398=DIRECTION('ref_axis',(4.01622219444538E-17,1.,0.));
#399=DIRECTION('center_axis',(0.,1.,-1.22464679914735E-16));
#400=DIRECTION('ref_axis',(0.,-1.22464679914735E-16,-1.));
#401=DIRECTION('center_axis',(1.,0.,0.));
#402=DIRECTION('ref_axis',(4.01622219444538E-17,1.,0.));
#403=DIRECTION('center_axis',(1.,0.,0.));
#404=DIRECTION('ref_axis',(4.01622219444538E-17,1.,0.));
#405=DIRECTION('center_axis',(1.,0.,0.));
#406=DIRECTION('ref_axis',(4.01622219444538E-17,1.,0.));
#407=DIRECTION('center_axis',(1.,0.,0.));
#408=DIRECTION('ref_axis',(4.01622219444538E-17,1.,0.));
#409=DIRECTION('center_axis',(-1.,0.,0.));
#410=DIRECTION('ref_axis',(0.,0.,1.));
#411=DIRECTION('center_axis',(-1.,0.,0.));
#412=DIRECTION('ref_axis',(0.,0.,1.));
#413=DIRECTION('center_axis',(-1.,0.,0.));
#414=DIRECTION('ref_axis',(0.,0.,1.));
#415=DIRECTION('',(-1.,0.,0.));
#416=DIRECTION('center_axis',(1.,0.,0.));
#417=DIRECTION('ref_axis',(0.,0.,1.));
#418=DIRECTION('center_axis',(1.,0.,0.));
#419=DIRECTION('ref_axis',(0.,0.,1.));
#420=DIRECTION('center_axis',(1.,0.,0.));
#421=DIRECTION('ref_axis',(0.,0.,1.));
#422=DIRECTION('center_axis',(0.,1.,-1.22464679914735E-16));
#423=DIRECTION('ref_axis',(0.,-1.22464679914735E-16,-1.));
#424=DIRECTION('center_axis',(-1.,0.,0.));
#425=DIRECTION('ref_axis',(0.,0.,1.));
#426=DIRECTION('center_axis',(-1.,0.,0.));
#427=DIRECTION('ref_axis',(0.,0.,1.));
#428=DIRECTION('center_axis',(-1.,0.,0.));
#429=DIRECTION('ref_axis',(0.,0.,1.));
#430=DIRECTION('center_axis',(1.,0.,0.));
#431=DIRECTION('ref_axis',(4.01622219444538E-17,1.,0.));
#432=DIRECTION('center_axis',(1.,0.,0.));
#433=DIRECTION('ref_axis',(4.01622219444538E-17,1.,0.));
#434=DIRECTION('',(-1.,0.,0.));
#435=DIRECTION('center_axis',(1.,0.,0.));
#436=DIRECTION('ref_axis',(4.01622219444538E-17,1.,0.));
#437=DIRECTION('center_axis',(-1.,0.,0.));
#438=DIRECTION('ref_axis',(0.,0.,1.));
#439=DIRECTION('center_axis',(1.,0.,0.));
#440=DIRECTION('ref_axis',(-4.01622219444538E-17,1.,0.));
#441=DIRECTION('center_axis',(1.,0.,0.));
#442=DIRECTION('ref_axis',(-4.01622219444538E-17,1.,0.));
#443=DIRECTION('center_axis',(0.,-1.,1.22464679914735E-16));
#444=DIRECTION('ref_axis',(0.,-1.22464679914735E-16,-1.));
#445=DIRECTION('center_axis',(1.,0.,0.));
#446=DIRECTION('ref_axis',(-4.01622219444538E-17,1.,0.));
#447=DIRECTION('center_axis',(1.,0.,0.));
#448=DIRECTION('ref_axis',(-4.01622219444538E-17,1.,0.));
#449=DIRECTION('center_axis',(1.,0.,0.));
#450=DIRECTION('ref_axis',(-4.01622219444538E-17,1.,0.));
#451=DIRECTION('center_axis',(1.,0.,0.));
#452=DIRECTION('ref_axis',(-4.01622219444538E-17,1.,0.));
#453=DIRECTION('center_axis',(-1.,0.,0.));
#454=DIRECTION('ref_axis',(0.,0.,1.));
#455=DIRECTION('center_axis',(-1.,0.,0.));
#456=DIRECTION('ref_axis',(0.,0.,1.));
#457=DIRECTION('',(1.,0.,0.));
#458=DIRECTION('center_axis',(-1.,0.,0.));
#459=DIRECTION('ref_axis',(0.,0.,1.));
#460=DIRECTION('center_axis',(-1.,0.,0.));
#461=DIRECTION('ref_axis',(0.,0.,1.));
#462=DIRECTION('center_axis',(-1.,0.,0.));
#463=DIRECTION('ref_axis',(0.,0.,1.));
#464=DIRECTION('center_axis',(-1.,0.,0.));
#465=DIRECTION('ref_axis',(0.,0.,1.));
#466=DIRECTION('center_axis',(0.,-1.,1.22464679914735E-16));
#467=DIRECTION('ref_axis',(0.,-1.22464679914735E-16,-1.));
#468=DIRECTION('center_axis',(-1.,0.,0.));
#469=DIRECTION('ref_axis',(0.,0.,1.));
#470=DIRECTION('center_axis',(-1.,0.,0.));
#471=DIRECTION('ref_axis',(0.,0.,1.));
#472=DIRECTION('center_axis',(-1.,0.,0.));
#473=DIRECTION('ref_axis',(0.,0.,1.));
#474=DIRECTION('center_axis',(1.,0.,0.));
#475=DIRECTION('ref_axis',(-4.01622219444538E-17,1.,0.));
#476=DIRECTION('center_axis',(1.,0.,0.));
#477=DIRECTION('ref_axis',(-4.01622219444538E-17,1.,0.));
#478=DIRECTION('',(1.,0.,0.));
#479=DIRECTION('center_axis',(1.,0.,0.));
#480=DIRECTION('ref_axis',(-4.01622219444538E-17,1.,0.));
#481=DIRECTION('center_axis',(-1.,0.,0.));
#482=DIRECTION('ref_axis',(-4.01622219444538E-17,1.,0.));
#483=DIRECTION('',(0.866025403784439,0.5,6.12323399573676E-17));
#484=DIRECTION('center_axis',(-1.,0.,0.));
#485=DIRECTION('ref_axis',(0.,0.,-1.));
#486=DIRECTION('center_axis',(1.,0.,0.));
#487=DIRECTION('ref_axis',(-4.01622219444538E-17,1.,0.));
#488=DIRECTION('center_axis',(0.,1.,1.22464679914735E-16));
#489=DIRECTION('ref_axis',(0.,-1.22464679914735E-16,1.));
#490=DIRECTION('center_axis',(1.,0.,0.));
#491=DIRECTION('ref_axis',(-4.01622219444538E-17,1.,0.));
#492=DIRECTION('center_axis',(1.,0.,0.));
#493=DIRECTION('ref_axis',(-4.01622219444538E-17,1.,0.));
#494=DIRECTION('center_axis',(1.,0.,0.));
#495=DIRECTION('ref_axis',(4.01622219444538E-17,1.,0.));
#496=DIRECTION('',(-0.866025403784439,0.5,6.12323399573676E-17));
#497=DIRECTION('center_axis',(1.,0.,0.));
#498=DIRECTION('ref_axis',(0.,0.,-1.));
#499=DIRECTION('center_axis',(1.,0.,0.));
#500=DIRECTION('ref_axis',(4.01622219444538E-17,1.,0.));
#501=DIRECTION('center_axis',(1.,0.,0.));
#502=DIRECTION('ref_axis',(4.01622219444538E-17,1.,0.));
#503=DIRECTION('center_axis',(1.,0.,0.));
#504=DIRECTION('ref_axis',(4.01622219444538E-17,1.,0.));
#505=DIRECTION('center_axis',(0.,-1.,-1.22464679914735E-16));
#506=DIRECTION('ref_axis',(0.,-1.22464679914735E-16,1.));
#507=DIRECTION('center_axis',(1.,0.,0.));
#508=DIRECTION('ref_axis',(4.01622219444538E-17,1.,0.));
#509=DIRECTION('',(-1.,0.,0.));
#510=DIRECTION('center_axis',(1.,0.,0.));
#511=DIRECTION('ref_axis',(4.01622219444538E-17,1.,0.));
#512=DIRECTION('',(-1.,0.,0.));
#513=CARTESIAN_POINT('',(0.,0.,0.));
#514=CARTESIAN_POINT('Origin',(-3.72915473806078,0.,0.));
#515=CARTESIAN_POINT('',(-2.22044604925031E-15,12.2,0.));
#516=CARTESIAN_POINT('',(1.52655665885959E-15,-12.2,-1.49406909495977E-15));
#517=CARTESIAN_POINT('Origin',(-2.22044604925031E-15,0.,0.));
#518=CARTESIAN_POINT('',(-2.22044604925031E-15,-1.49406909495977E-15,-12.2));
#519=CARTESIAN_POINT('Origin',(-2.22044604925031E-15,0.,0.));
#520=CARTESIAN_POINT('',(-7.36121593216783,-1.5491782009214E-15,-12.65));
#521=CARTESIAN_POINT('Origin',(-3.72915473806078,-1.42436947319194E-15,
-11.6308593970412));
#522=CARTESIAN_POINT('',(-7.36121593216783,12.65,0.));
#523=CARTESIAN_POINT('Origin',(-7.36121593216783,0.,0.));
#524=CARTESIAN_POINT('',(-7.36121593216783,-12.65,-1.5491782009214E-15));
#525=CARTESIAN_POINT('Origin',(-7.36121593216783,0.,0.));
#526=CARTESIAN_POINT('Origin',(-7.36121593216783,0.,0.));
#527=CARTESIAN_POINT('Origin',(-2.22044604925031E-15,0.,0.));
#528=CARTESIAN_POINT('Origin',(-5.80857667893559,0.,0.));
#529=CARTESIAN_POINT('',(-5.30950280098864,0.,11.45));
#530=CARTESIAN_POINT('',(-5.30950280098864,-1.40222058502372E-15,-11.45));
#531=CARTESIAN_POINT('Origin',(-5.30950280098864,0.,0.));
#532=CARTESIAN_POINT('Origin',(-5.30950280098864,0.,0.));
#533=CARTESIAN_POINT('',(-6.30765055688253,-1.40222058502372E-15,-11.45));
#534=CARTESIAN_POINT('',(-5.80857667893559,-1.40222058502372E-15,-11.45));
#535=CARTESIAN_POINT('',(-6.30765055688253,0.,11.45));
#536=CARTESIAN_POINT('Origin',(-6.30765055688253,0.,0.));
#537=CARTESIAN_POINT('Origin',(-6.30765055688253,0.,0.));
#538=CARTESIAN_POINT('Origin',(-3.72915473806071,0.,0.));
#539=CARTESIAN_POINT('',(-2.14880667513278,-1.40222058502372E-15,-11.45));
#540=CARTESIAN_POINT('Origin',(-3.72915473806071,-1.71450551880629E-15,
-14.));
#541=CARTESIAN_POINT('',(-2.14880667513278,0.,11.45));
#542=CARTESIAN_POINT('Origin',(-2.14880667513278,0.,0.));
#543=CARTESIAN_POINT('Origin',(-2.14880667513278,0.,0.));
#544=CARTESIAN_POINT('Origin',(-1.72392239040471,0.,0.));
#545=CARTESIAN_POINT('',(-1.29903810567666,11.45,0.));
#546=CARTESIAN_POINT('',(-1.29903810567666,-11.45,-1.40222058502372E-15));
#547=CARTESIAN_POINT('Origin',(-1.29903810567666,0.,0.));
#548=CARTESIAN_POINT('',(-1.29903810567666,-1.40222058502372E-15,-11.45));
#549=CARTESIAN_POINT('Origin',(-1.29903810567666,0.,0.));
#550=CARTESIAN_POINT('',(-1.72392239040471,-1.40222058502372E-15,-11.45));
#551=CARTESIAN_POINT('Origin',(-1.29903810567666,0.,0.));
#552=CARTESIAN_POINT('Origin',(-75.2708452619392,0.,0.));
#553=CARTESIAN_POINT('',(-79.,12.2,0.));
#554=CARTESIAN_POINT('',(-79.,-12.2,-1.49406909495977E-15));
#555=CARTESIAN_POINT('Origin',(-79.,0.,0.));
#556=CARTESIAN_POINT('',(-79.,-1.49406909495977E-15,-12.2));
#557=CARTESIAN_POINT('Origin',(-79.,0.,0.));
#558=CARTESIAN_POINT('',(-71.6387840678322,-1.5491782009214E-15,-12.65));
#559=CARTESIAN_POINT('Origin',(-75.2708452619392,-1.42436947319194E-15,
-11.6308593970412));
#560=CARTESIAN_POINT('',(-71.6387840678322,-12.65,-1.5491782009214E-15));
#561=CARTESIAN_POINT('Origin',(-71.6387840678322,0.,0.));
#562=CARTESIAN_POINT('',(-71.6387840678322,12.65,0.));
#563=CARTESIAN_POINT('Origin',(-71.6387840678322,0.,0.));
#564=CARTESIAN_POINT('Origin',(-71.6387840678322,0.,0.));
#565=CARTESIAN_POINT('Origin',(-79.,0.,0.));
#566=CARTESIAN_POINT('Origin',(-73.1914233210644,0.,0.));
#567=CARTESIAN_POINT('',(-73.6904971990114,0.,11.45));
#568=CARTESIAN_POINT('',(-73.6904971990114,-1.40222058502372E-15,-11.45));
#569=CARTESIAN_POINT('Origin',(-73.6904971990114,0.,0.));
#570=CARTESIAN_POINT('',(-72.6923494431175,-1.40222058502372E-15,-11.45));
#571=CARTESIAN_POINT('',(-73.1914233210644,-1.40222058502372E-15,-11.45));
#572=CARTESIAN_POINT('',(-72.6923494431175,0.,11.45));
#573=CARTESIAN_POINT('Origin',(-72.6923494431175,0.,0.));
#574=CARTESIAN_POINT('Origin',(-72.6923494431175,0.,0.));
#575=CARTESIAN_POINT('Origin',(-73.6904971990114,0.,0.));
#576=CARTESIAN_POINT('Origin',(-75.2708452619393,0.,0.));
#577=CARTESIAN_POINT('',(-76.8511933248672,-1.40222058502372E-15,-11.45));
#578=CARTESIAN_POINT('Origin',(-75.2708452619393,-1.71450551880629E-15,
-14.));
#579=CARTESIAN_POINT('',(-76.8511933248672,0.,11.45));
#580=CARTESIAN_POINT('Origin',(-76.8511933248672,0.,0.));
#581=CARTESIAN_POINT('Origin',(-76.8511933248672,0.,0.));
#582=CARTESIAN_POINT('Origin',(-77.2760776095953,0.,0.));
#583=CARTESIAN_POINT('',(-77.7009618943233,11.45,0.));
#584=CARTESIAN_POINT('',(-77.7009618943233,-11.45,-1.40222058502372E-15));
#585=CARTESIAN_POINT('Origin',(-77.7009618943233,0.,0.));
#586=CARTESIAN_POINT('',(-77.7009618943233,-1.40222058502372E-15,-11.45));
#587=CARTESIAN_POINT('Origin',(-77.7009618943233,0.,0.));
#588=CARTESIAN_POINT('',(-77.2760776095953,-1.40222058502372E-15,-11.45));
#589=CARTESIAN_POINT('Origin',(-77.7009618943233,0.,0.));
#590=CARTESIAN_POINT('Origin',(-78.3504809471617,0.,0.));
#591=CARTESIAN_POINT('',(-78.3504809471617,-11.825,-1.44814483999175E-15));
#592=CARTESIAN_POINT('Origin',(-71.6387840678322,0.,0.));
#593=CARTESIAN_POINT('',(-71.6387840678322,11.15,0.));
#594=CARTESIAN_POINT('',(-71.6387840678322,-1.3654811810493E-15,11.15));
#595=CARTESIAN_POINT('Origin',(-71.6387840678322,0.,0.));
#596=CARTESIAN_POINT('Origin',(-71.6387840678322,-1.61041054087877E-15,
13.15));
#597=CARTESIAN_POINT('',(-71.6387840678322,-11.15,-1.3654811810493E-15));
#598=CARTESIAN_POINT('Origin',(-71.6387840678322,0.,0.));
#599=CARTESIAN_POINT('Origin',(-71.6387840678322,0.,0.));
#600=CARTESIAN_POINT('Origin',(-0.649519052838331,0.,0.));
#601=CARTESIAN_POINT('',(-0.649519052838331,-11.825,-1.44814483999175E-15));
#602=CARTESIAN_POINT('Origin',(-7.36121593216783,0.,0.));
#603=CARTESIAN_POINT('',(-7.36121593216782,11.15,0.));
#604=CARTESIAN_POINT('',(-7.36121593216782,-1.3654811810493E-15,11.15));
#605=CARTESIAN_POINT('Origin',(-7.36121593216782,0.,0.));
#606=CARTESIAN_POINT('',(-7.36121593216782,-11.15,-1.3654811810493E-15));
#607=CARTESIAN_POINT('Origin',(-7.36121593216782,0.,0.));
#608=CARTESIAN_POINT('Origin',(-7.36121593216782,0.,0.));
#609=CARTESIAN_POINT('Origin',(-7.36121593216783,-1.61041054087877E-15,
13.15));
#610=CARTESIAN_POINT('Origin',(-23.4306079660839,0.,0.));
#611=CARTESIAN_POINT('',(-23.4306079660839,-11.15,-1.3654811810493E-15));
#612=CARTESIAN_POINT('Origin',(-23.4306079660839,0.,0.));
#613=CARTESIAN_POINT('',(-23.4306079660839,-12.65,-1.5491782009214E-15));
#614=UNCERTAINTY_MEASURE_WITH_UNIT(LENGTH_MEASURE(0.01),#618,
'DISTANCE_ACCURACY_VALUE',
'Maximum model space distance between geometric entities at asserted c
onnectivities');
#615=UNCERTAINTY_MEASURE_WITH_UNIT(LENGTH_MEASURE(0.01),#618,
'DISTANCE_ACCURACY_VALUE',
'Maximum model space distance between geometric entities at asserted c
onnectivities');
#616=(
GEOMETRIC_REPRESENTATION_CONTEXT(3)
GLOBAL_UNCERTAINTY_ASSIGNED_CONTEXT((#614))
GLOBAL_UNIT_ASSIGNED_CONTEXT((#618,#620,#621))
REPRESENTATION_CONTEXT('','3D')
);
#617=(
GEOMETRIC_REPRESENTATION_CONTEXT(3)
GLOBAL_UNCERTAINTY_ASSIGNED_CONTEXT((#615))
GLOBAL_UNIT_ASSIGNED_CONTEXT((#618,#620,#621))
REPRESENTATION_CONTEXT('','3D')
);
#618=(
LENGTH_UNIT()
NAMED_UNIT(*)
SI_UNIT(.MILLI.,.METRE.)
);
#619=(
LENGTH_UNIT()
NAMED_UNIT(*)
SI_UNIT(.CENTI.,.METRE.)
);
#620=(
NAMED_UNIT(*)
PLANE_ANGLE_UNIT()
SI_UNIT($,.RADIAN.)
);
#621=(
NAMED_UNIT(*)
SI_UNIT($,.STERADIAN.)
SOLID_ANGLE_UNIT()
);
#622=SHAPE_DEFINITION_REPRESENTATION(#623,#624);
#623=PRODUCT_DEFINITION_SHAPE('',$,#626);
#624=SHAPE_REPRESENTATION('',(#334),#616);
#625=PRODUCT_DEFINITION_CONTEXT('part definition',#630,'design');
#626=PRODUCT_DEFINITION('183022001_Inoxprex','183022001_Inoxprex',#627,
#625);
#627=PRODUCT_DEFINITION_FORMATION('0',$,#632);
#628=PRODUCT_RELATED_PRODUCT_CATEGORY('183022001_Inoxprex',
'183022001_Inoxprex',(#632));
#629=APPLICATION_PROTOCOL_DEFINITION('international standard',
'automotive_design',2009,#630);
#630=APPLICATION_CONTEXT(
'Core Data for Automotive Mechanical Design Process');
#631=PRODUCT_CONTEXT('part definition',#630,'mechanical');
#632=PRODUCT('183022001_Inoxprex','183022001_Inoxprex',
'MANICOTTO PASSANTE De22',(#631));
#633=PRESENTATION_STYLE_ASSIGNMENT((#634));
#634=SURFACE_STYLE_USAGE(.BOTH.,#637);
#635=SURFACE_STYLE_RENDERING_WITH_PROPERTIES($,#641,(#636));
#636=SURFACE_STYLE_TRANSPARENT(0.);
#637=SURFACE_SIDE_STYLE('',(#638,#635));
#638=SURFACE_STYLE_FILL_AREA(#639);
#639=FILL_AREA_STYLE('',(#640));
#640=FILL_AREA_STYLE_COLOUR('',#641);
#641=COLOUR_RGB('',0.886274509803922,0.917647058823529,0.894117647058824);
ENDSEC;
END-ISO-10303-21;
