ISO-10303-21;
HEADER;
FILE_DESCRIPTION (( 'STEP AP203' ),
    '1' );
FILE_NAME ('3D_R169-K_48-33_17325330.STEP',
    '2024-07-11T10:22:59',
    ( '' ),
    ( '' ),
    'SwSTEP 2.0',
    'SolidWorks 2024',
    '' );
FILE_SCHEMA (( 'CONFIG_CONTROL_DESIGN' ));
ENDSEC;

DATA;
#1 = DIRECTION ( 'NONE',  ( 0.000000000000000000, 0.000000000000000000, -1.000000000000000000 ) ) ;
#2 = CARTESIAN_POINT ( 'NONE',  ( 27.00000000000000000, 0.000000000000000000, 0.000000000000000000 ) ) ;
#3 = EDGE_CURVE ( 'NONE', #39, #113, #149, .T. ) ;
#4 = AXIS2_PLACEMENT_3D ( 'NONE', #80, #57, #227 ) ;
#5 = CARTESIAN_POINT ( 'NONE',  ( 27.00000000000000000, 2.063529856563290244E-15, -16.85000000000000142 ) ) ;
#6 = CARTESIAN_POINT ( 'NONE',  ( 27.00000000000000000, 1.031764928281645122E-15, 16.85000000000000142 ) ) ;
#7 = DATE_AND_TIME ( #184, #181 ) ;
#8 = DATE_AND_TIME ( #185, #125 ) ;
#9 = EDGE_LOOP ( 'NONE', ( #206, #13, #249, #134 ) ) ;
#10 = APPROVAL_PERSON_ORGANIZATION ( #24, #219, #234 ) ;
#11 = EDGE_LOOP ( 'NONE', ( #33, #51 ) ) ;
#12 = EDGE_CURVE ( 'NONE', #113, #39, #235, .T. ) ;
#13 = ORIENTED_EDGE ( 'NONE', *, *, #56, .T. ) ;
#14 = CC_DESIGN_SECURITY_CLASSIFICATION ( #137, ( #70 ) ) ;
#15 = UNCERTAINTY_MEASURE_WITH_UNIT (LENGTH_MEASURE( 1.000000000000000082E-05 ), #41, 'distance_accuracy_value', 'NONE');
#16 = VECTOR ( 'NONE', #145, 1000.000000000000114 ) ;
#17 = DIRECTION ( 'NONE',  ( 0.000000000000000000, 0.000000000000000000, -1.000000000000000000 ) ) ;
#18 = CARTESIAN_POINT ( 'NONE',  ( 26.47800184687498160, 0.000000000000000000, 14.91932189940061093 ) ) ;
#19 = DIRECTION ( 'NONE',  ( 0.000000000000000000, 0.000000000000000000, -1.000000000000000000 ) ) ;
#20 = DIRECTION ( 'NONE',  ( 1.000000000000000000, 0.000000000000000000, 0.000000000000000000 ) ) ;
#21 = CC_DESIGN_PERSON_AND_ORGANIZATION_ASSIGNMENT ( #131, #93, ( #137 ) ) ;
#22 = EDGE_LOOP ( 'NONE', ( #38, #99 ) ) ;
#23 = FACE_OUTER_BOUND ( 'NONE', #241, .T. ) ;
#24 = PERSON_AND_ORGANIZATION ( #37, #199 ) ;
#25 = CC_DESIGN_DATE_AND_TIME_ASSIGNMENT ( #8, #198, ( #163 ) ) ;
#26 = COORDINATED_UNIVERSAL_TIME_OFFSET ( 1, 0, .AHEAD. ) ;
#27 = ADVANCED_FACE ( 'NONE', ( #159 ), #75, .T. ) ;
#28 = SHAPE_DEFINITION_REPRESENTATION ( #162, #151 ) ;
#29 = SECURITY_CLASSIFICATION_LEVEL ( 'unclassified' ) ;
#30 = AXIS2_PLACEMENT_3D ( 'NONE', #178, #36, #1 ) ;
#31 = EDGE_CURVE ( 'NONE', #135, #245, #228, .T. ) ;
#32 = APPROVAL_DATE_TIME ( #111, #219 ) ;
#33 = ORIENTED_EDGE ( 'NONE', *, *, #67, .F. ) ;
#34 = AXIS2_PLACEMENT_3D ( 'NONE', #81, #20, #157 ) ;
#35 = AXIS2_PLACEMENT_3D ( 'NONE', #63, #84, #160 ) ;
#36 = DIRECTION ( 'NONE',  ( 1.000000000000000000, 0.000000000000000000, 0.000000000000000000 ) ) ;
#37 = PERSON ( 'UNSPECIFIED', 'UNSPECIFIED', 'UNSPECIFIED', ('UNSPECIFIED'), ('UNSPECIFIED'), ('UNSPECIFIED') ) ;
#38 = ORIENTED_EDGE ( 'NONE', *, *, #3, .F. ) ;
#39 = VERTEX_POINT ( 'NONE', #102 ) ;
#40 = DIRECTION ( 'NONE',  ( 0.000000000000000000, 0.000000000000000000, -1.000000000000000000 ) ) ;
#41 =( LENGTH_UNIT ( ) NAMED_UNIT ( * ) SI_UNIT ( .MILLI., .METRE. ) );
#42 = COORDINATED_UNIVERSAL_TIME_OFFSET ( 1, 0, .AHEAD. ) ;
#43 = MANIFOLD_SOLID_BREP ( 'Wandung2', #132 ) ;
#44 = VECTOR ( 'NONE', #77, 1000.000000000000114 ) ;
#45 = LOCAL_TIME ( 12, 22, 59.00000000000000000, #52 ) ;
#46 = EDGE_CURVE ( 'NONE', #100, #245, #180, .T. ) ;
#47 = CARTESIAN_POINT ( 'NONE',  ( 27.00000000000000000, 0.000000000000000000, 0.000000000000000000 ) ) ;
#48 = ADVANCED_FACE ( 'NONE', ( #98 ), #175, .T. ) ;
#49 = DATE_AND_TIME ( #88, #155 ) ;
#50 = VERTEX_POINT ( 'NONE', #154 ) ;
#51 = ORIENTED_EDGE ( 'NONE', *, *, #56, .F. ) ;
#52 = COORDINATED_UNIVERSAL_TIME_OFFSET ( 1, 0, .AHEAD. ) ;
#53 = PERSON_AND_ORGANIZATION_ROLE ( 'design_supplier' ) ;
#54 = ORIENTED_EDGE ( 'NONE', *, *, #122, .T. ) ;
#55 = ORIENTED_EDGE ( 'NONE', *, *, #76, .F. ) ;
#56 = EDGE_CURVE ( 'NONE', #50, #135, #65, .T. ) ;
#57 = DIRECTION ( 'NONE',  ( -1.000000000000000000, -0.000000000000000000, -0.000000000000000000 ) ) ;
#58 = DIRECTION ( 'NONE',  ( -1.000000000000000000, -0.000000000000000000, -0.000000000000000000 ) ) ;
#59 = DIRECTION ( 'NONE',  ( 0.000000000000000000, 0.000000000000000000, 1.000000000000000000 ) ) ;
#60 = FACE_BOUND ( 'NONE', #73, .T. ) ;
#61 = AXIS2_PLACEMENT_3D ( 'NONE', #193, #179, #59 ) ;
#62 = CARTESIAN_POINT ( 'NONE',  ( 0.000000000000000000, 4.436283029911286895E-15, -24.14999999999999858 ) ) ;
#63 = CARTESIAN_POINT ( 'NONE',  ( 0.000000000000000000, 0.000000000000000000, 0.000000000000000000 ) ) ;
#64 = COORDINATED_UNIVERSAL_TIME_OFFSET ( 1, 0, .AHEAD. ) ;
#65 = CIRCLE ( 'NONE', #114, 14.77818906540755073 ) ;
#66 = PERSON_AND_ORGANIZATION ( #37, #199 ) ;
#67 = EDGE_CURVE ( 'NONE', #135, #50, #107, .T. ) ;
#68 = DIRECTION ( 'NONE',  ( 0.000000000000000000, 0.000000000000000000, -1.000000000000000000 ) ) ;
#69 = AXIS2_PLACEMENT_3D ( 'NONE', #248, #215, #40 ) ;
#70 = PRODUCT_DEFINITION_FORMATION_WITH_SPECIFIED_SOURCE ( 'ANY', '', #202, .NOT_KNOWN. ) ;
#71 = CALENDAR_DATE ( 2024, 11, 7 ) ;
#72 = ORIENTED_EDGE ( 'NONE', *, *, #142, .T. ) ;
#73 = EDGE_LOOP ( 'NONE', ( #242, #196 ) ) ;
#74 = PERSON_AND_ORGANIZATION ( #37, #199 ) ;
#75 = CONICAL_SURFACE ( 'NONE', #4, 16.85000000000000142, 0.2640570072075234531 ) ;
#76 = EDGE_CURVE ( 'NONE', #245, #100, #204, .T. ) ;
#77 = DIRECTION ( 'NONE',  ( -0.9653390502996949118, 0.000000000000000000, 0.2609990765625099796 ) ) ;
#78 = ORIENTED_EDGE ( 'NONE', *, *, #12, .T. ) ;
#79 = APPROVAL_PERSON_ORGANIZATION ( #170, #195, #109 ) ;
#80 = CARTESIAN_POINT ( 'NONE',  ( 27.00000000000000000, 0.000000000000000000, 0.000000000000000000 ) ) ;
#81 = CARTESIAN_POINT ( 'NONE',  ( 0.000000000000000000, 0.000000000000000000, 0.000000000000000000 ) ) ;
#82 = DIRECTION ( 'NONE',  ( 1.000000000000000000, 0.000000000000000000, 0.000000000000000000 ) ) ;
#83 = AXIS2_PLACEMENT_3D ( 'NONE', #47, #237, #68 ) ;
#84 = DIRECTION ( 'NONE',  ( 0.000000000000000000, 0.000000000000000000, 1.000000000000000000 ) ) ;
#85 = APPROVAL_STATUS ( 'not_yet_approved' ) ;
#86 = CARTESIAN_POINT ( 'NONE',  ( 0.000000000000000000, 0.000000000000000000, 22.07818906540754611 ) ) ;
#87 = DIRECTION ( 'NONE',  ( -1.000000000000000000, -0.000000000000000000, -0.000000000000000000 ) ) ;
#88 = CALENDAR_DATE ( 2024, 11, 7 ) ;
#89 = CC_DESIGN_APPROVAL ( #195, ( #137 ) ) ;
#90 = AXIS2_PLACEMENT_3D ( 'NONE', #214, #174, #17 ) ;
#91 = AXIS2_PLACEMENT_3D ( 'NONE', #165, #87, #123 ) ;
#92 = EDGE_CURVE ( 'NONE', #153, #223, #186, .T. ) ;
#93 = PERSON_AND_ORGANIZATION_ROLE ( 'classification_officer' ) ;
#94 = ORIENTED_EDGE ( 'NONE', *, *, #122, .F. ) ;
#95 = EDGE_LOOP ( 'NONE', ( #54, #172 ) ) ;
#96 = AXIS2_PLACEMENT_3D ( 'NONE', #173, #116, #247 ) ;
#97 = ADVANCED_FACE ( 'NONE', ( #60, #216 ), #141, .F. ) ;
#98 = FACE_OUTER_BOUND ( 'NONE', #117, .T. ) ;
#99 = ORIENTED_EDGE ( 'NONE', *, *, #12, .F. ) ;
#100 = VERTEX_POINT ( 'NONE', #115 ) ;
#101 = CARTESIAN_POINT ( 'NONE',  ( 0.000000000000000000, 0.000000000000000000, 0.000000000000000000 ) ) ;
#102 = CARTESIAN_POINT ( 'NONE',  ( 0.000000000000000000, -1.478761009970428965E-15, 24.14999999999999858 ) ) ;
#103 = LOCAL_TIME ( 12, 22, 59.00000000000000000, #64 ) ;
#104 = PERSON_AND_ORGANIZATION ( #37, #199 ) ;
#105 = DIRECTION ( 'NONE',  ( -0.9653390502996949118, 0.000000000000000000, 0.2609990765625099796 ) ) ;
#106 = PERSON_AND_ORGANIZATION_ROLE ( 'design_owner' ) ;
#107 = CIRCLE ( 'NONE', #90, 14.77818906540755073 ) ;
#108 = APPROVAL_DATE_TIME ( #7, #244 ) ;
#109 = APPROVAL_ROLE ( '' ) ;
#110 = APPROVAL_PERSON_ORGANIZATION ( #104, #244, #201 ) ;
#111 = DATE_AND_TIME ( #167, #103 ) ;
#112 = EDGE_CURVE ( 'NONE', #50, #100, #197, .T. ) ;
#113 = VERTEX_POINT ( 'NONE', #62 ) ;
#114 = AXIS2_PLACEMENT_3D ( 'NONE', #2, #140, #212 ) ;
#115 = CARTESIAN_POINT ( 'NONE',  ( 0.000000000000000000, 2.703798356992144538E-15, -22.07818906540754611 ) ) ;
#116 = DIRECTION ( 'NONE',  ( 1.000000000000000000, 0.000000000000000000, 0.000000000000000000 ) ) ;
#117 = EDGE_LOOP ( 'NONE', ( #213, #94, #72, #152 ) ) ;
#118 = APPLICATION_CONTEXT ( 'configuration controlled 3d designs of mechanical parts and assemblies' ) ;
#119 = CC_DESIGN_PERSON_AND_ORGANIZATION_ASSIGNMENT ( #66, #220, ( #163 ) ) ;
#120 = CARTESIAN_POINT ( 'NONE',  ( 0.000000000000000000, 0.000000000000000000, 0.000000000000000000 ) ) ;
#121 = CARTESIAN_POINT ( 'NONE',  ( 27.00000000000000000, 0.000000000000000000, 0.000000000000000000 ) ) ;
#122 = EDGE_CURVE ( 'NONE', #223, #153, #168, .T. ) ;
#123 = DIRECTION ( 'NONE',  ( 0.000000000000000000, 0.000000000000000000, 1.000000000000000000 ) ) ;
#124 = LINE ( 'NONE', #164, #128 ) ;
#125 = LOCAL_TIME ( 12, 22, 59.00000000000000000, #42 ) ;
#126 = APPLICATION_PROTOCOL_DEFINITION ( 'international standard', 'config_control_design', 1994, #224 ) ;
#127 = CARTESIAN_POINT ( 'NONE',  ( 27.00000000000000000, 1.031764928281645122E-15, -16.85000000000000142 ) ) ;
#128 = VECTOR ( 'NONE', #105, 1000.000000000000114 ) ;
#129 = ADVANCED_FACE ( 'NONE', ( #225 ), #230, .F. ) ;
#130 = DATE_TIME_ROLE ( 'classification_date' ) ;
#131 = PERSON_AND_ORGANIZATION ( #37, #199 ) ;
#132 = CLOSED_SHELL ( 'NONE', ( #210, #27, #232, #97, #48, #129 ) ) ;
#133 = CC_DESIGN_DATE_AND_TIME_ASSIGNMENT ( #49, #130, ( #137 ) ) ;
#134 = ORIENTED_EDGE ( 'NONE', *, *, #46, .F. ) ;
#135 = VERTEX_POINT ( 'NONE', #236 ) ;
#136 = AXIS2_PLACEMENT_3D ( 'NONE', #101, #139, #19 ) ;
#137 = SECURITY_CLASSIFICATION ( '', '', #29 ) ;
#138 = CARTESIAN_POINT ( 'NONE',  ( 26.47800184687498160, 0.000000000000000000, 0.000000000000000000 ) ) ;
#139 = DIRECTION ( 'NONE',  ( 1.000000000000000000, 0.000000000000000000, 0.000000000000000000 ) ) ;
#140 = DIRECTION ( 'NONE',  ( 1.000000000000000000, 0.000000000000000000, 0.000000000000000000 ) ) ;
#141 = PLANE ( 'NONE',  #69 ) ;
#142 = EDGE_CURVE ( 'NONE', #223, #39, #124, .T. ) ;
#143 = DIRECTION ( 'NONE',  ( 1.000000000000000000, 0.000000000000000000, 0.000000000000000000 ) ) ;
#144 = PERSON_AND_ORGANIZATION ( #37, #199 ) ;
#145 = DIRECTION ( 'NONE',  ( -0.9653390502996949118, 3.196316836926928388E-17, -0.2609990765625099796 ) ) ;
#146 = PLANE ( 'NONE',  #83 ) ;
#147 =( NAMED_UNIT ( * ) SI_UNIT ( $, .STERADIAN. ) SOLID_ANGLE_UNIT ( ) );
#148 = FACE_BOUND ( 'NONE', #11, .T. ) ;
#149 = CIRCLE ( 'NONE', #34, 24.14999999999999858 ) ;
#150 = PRODUCT_RELATED_PRODUCT_CATEGORY ( 'detail', '', ( #202 ) ) ;
#151 = ADVANCED_BREP_SHAPE_REPRESENTATION ( '3D_R169-K_48-33_17325330', ( #43, #35 ), #187 ) ;
#152 = ORIENTED_EDGE ( 'NONE', *, *, #3, .T. ) ;
#153 = VERTEX_POINT ( 'NONE', #127 ) ;
#154 = CARTESIAN_POINT ( 'NONE',  ( 27.00000000000000000, 2.256802275303361090E-15, -14.77818906540755073 ) ) ;
#155 = LOCAL_TIME ( 12, 22, 59.00000000000000000, #169 ) ;
#156 = DIRECTION ( 'NONE',  ( -0.9653390502996949118, 3.196316836926928388E-17, -0.2609990765625099796 ) ) ;
#157 = DIRECTION ( 'NONE',  ( 0.000000000000000000, 0.000000000000000000, -1.000000000000000000 ) ) ;
#158 = DIRECTION ( 'NONE',  ( 0.000000000000000000, 0.000000000000000000, -1.000000000000000000 ) ) ;
#159 = FACE_OUTER_BOUND ( 'NONE', #192, .T. ) ;
#160 = DIRECTION ( 'NONE',  ( 1.000000000000000000, 0.000000000000000000, 0.000000000000000000 ) ) ;
#161 = APPROVAL_STATUS ( 'not_yet_approved' ) ;
#162 = PRODUCT_DEFINITION_SHAPE ( 'NONE', 'NONE',  #163 ) ;
#163 = PRODUCT_DEFINITION ( 'UNKNOWN', '', #70, #189 ) ;
#164 = CARTESIAN_POINT ( 'NONE',  ( 27.00000000000000000, 0.000000000000000000, 16.85000000000000142 ) ) ;
#165 = CARTESIAN_POINT ( 'NONE',  ( 26.47800184687498160, 0.000000000000000000, 0.000000000000000000 ) ) ;
#166 = EDGE_CURVE ( 'NONE', #153, #113, #182, .T. ) ;
#167 = CALENDAR_DATE ( 2024, 11, 7 ) ;
#168 = CIRCLE ( 'NONE', #96, 16.85000000000000142 ) ;
#169 = COORDINATED_UNIVERSAL_TIME_OFFSET ( 1, 0, .AHEAD. ) ;
#170 = PERSON_AND_ORGANIZATION ( #37, #199 ) ;
#171 = ORIENTED_EDGE ( 'NONE', *, *, #92, .F. ) ;
#172 = ORIENTED_EDGE ( 'NONE', *, *, #92, .T. ) ;
#173 = CARTESIAN_POINT ( 'NONE',  ( 27.00000000000000000, 0.000000000000000000, 0.000000000000000000 ) ) ;
#174 = DIRECTION ( 'NONE',  ( 1.000000000000000000, 0.000000000000000000, 0.000000000000000000 ) ) ;
#175 = CONICAL_SURFACE ( 'NONE', #61, 16.85000000000000142, 0.2640570072075234531 ) ;
#176 = ORIENTED_EDGE ( 'NONE', *, *, #112, .T. ) ;
#177 = CC_DESIGN_PERSON_AND_ORGANIZATION_ASSIGNMENT ( #74, #221, ( #70 ) ) ;
#178 = CARTESIAN_POINT ( 'NONE',  ( 0.000000000000000000, 0.000000000000000000, 0.000000000000000000 ) ) ;
#179 = DIRECTION ( 'NONE',  ( -1.000000000000000000, -0.000000000000000000, -0.000000000000000000 ) ) ;
#180 = CIRCLE ( 'NONE', #190, 22.07818906540754611 ) ;
#181 = LOCAL_TIME ( 12, 22, 59.00000000000000000, #26 ) ;
#182 = LINE ( 'NONE', #5, #16 ) ;
#183 = FACE_OUTER_BOUND ( 'NONE', #95, .T. ) ;
#184 = CALENDAR_DATE ( 2024, 11, 7 ) ;
#185 = CALENDAR_DATE ( 2024, 11, 7 ) ;
#186 = CIRCLE ( 'NONE', #246, 16.85000000000000142 ) ;
#187 =( GEOMETRIC_REPRESENTATION_CONTEXT ( 3 ) GLOBAL_UNCERTAINTY_ASSIGNED_CONTEXT ( ( #15 ) ) GLOBAL_UNIT_ASSIGNED_CONTEXT ( ( #41, #233, #147 ) ) REPRESENTATION_CONTEXT ( 'NONE', 'WORKASPACE' ) );
#188 = ORIENTED_EDGE ( 'NONE', *, *, #31, .F. ) ;
#189 = DESIGN_CONTEXT ( 'detailed design', #118, 'design' ) ;
#190 = AXIS2_PLACEMENT_3D ( 'NONE', #120, #82, #229 ) ;
#191 = CC_DESIGN_PERSON_AND_ORGANIZATION_ASSIGNMENT ( #144, #106, ( #202 ) ) ;
#192 = EDGE_LOOP ( 'NONE', ( #171, #222, #78, #194 ) ) ;
#193 = CARTESIAN_POINT ( 'NONE',  ( 27.00000000000000000, 0.000000000000000000, 0.000000000000000000 ) ) ;
#194 = ORIENTED_EDGE ( 'NONE', *, *, #142, .F. ) ;
#195 = APPROVAL ( #205, 'UNSPECIFIED' ) ;
#196 = ORIENTED_EDGE ( 'NONE', *, *, #46, .T. ) ;
#197 = LINE ( 'NONE', #231, #208 ) ;
#198 = DATE_TIME_ROLE ( 'creation_date' ) ;
#199 = ORGANIZATION ( 'UNSPECIFIED', 'UNSPECIFIED', '' ) ;
#200 = MECHANICAL_CONTEXT ( 'NONE', #224, 'mechanical' ) ;
#201 = APPROVAL_ROLE ( '' ) ;
#202 = PRODUCT ( '3D_R169-K_48-33_17325330', '3D_R169-K_48-33_17325330', '', ( #200 ) ) ;
#203 = CC_DESIGN_PERSON_AND_ORGANIZATION_ASSIGNMENT ( #207, #53, ( #70 ) ) ;
#204 = CIRCLE ( 'NONE', #30, 22.07818906540754611 ) ;
#205 = APPROVAL_STATUS ( 'not_yet_approved' ) ;
#206 = ORIENTED_EDGE ( 'NONE', *, *, #112, .F. ) ;
#207 = PERSON_AND_ORGANIZATION ( #37, #199 ) ;
#208 = VECTOR ( 'NONE', #156, 1000.000000000000114 ) ;
#209 = ORIENTED_EDGE ( 'NONE', *, *, #67, .T. ) ;
#210 = ADVANCED_FACE ( 'NONE', ( #23 ), #211, .F. ) ;
#211 = CONICAL_SURFACE ( 'NONE', #91, 14.91932189940061093, 0.2640570072075234531 ) ;
#212 = DIRECTION ( 'NONE',  ( 0.000000000000000000, 0.000000000000000000, -1.000000000000000000 ) ) ;
#213 = ORIENTED_EDGE ( 'NONE', *, *, #166, .F. ) ;
#214 = CARTESIAN_POINT ( 'NONE',  ( 27.00000000000000000, 0.000000000000000000, 0.000000000000000000 ) ) ;
#215 = DIRECTION ( 'NONE',  ( 1.000000000000000000, 0.000000000000000000, 0.000000000000000000 ) ) ;
#216 = FACE_OUTER_BOUND ( 'NONE', #22, .T. ) ;
#217 = APPLICATION_PROTOCOL_DEFINITION ( 'international standard', 'config_control_design', 1994, #118 ) ;
#218 = DIRECTION ( 'NONE',  ( 0.000000000000000000, 0.000000000000000000, 1.000000000000000000 ) ) ;
#219 = APPROVAL ( #161, 'UNSPECIFIED' ) ;
#220 = PERSON_AND_ORGANIZATION_ROLE ( 'creator' ) ;
#221 = PERSON_AND_ORGANIZATION_ROLE ( 'creator' ) ;
#222 = ORIENTED_EDGE ( 'NONE', *, *, #166, .T. ) ;
#223 = VERTEX_POINT ( 'NONE', #6 ) ;
#224 = APPLICATION_CONTEXT ( 'configuration controlled 3d designs of mechanical parts and assemblies' ) ;
#225 = FACE_OUTER_BOUND ( 'NONE', #9, .T. ) ;
#226 = CC_DESIGN_APPROVAL ( #244, ( #163 ) ) ;
#227 = DIRECTION ( 'NONE',  ( 0.000000000000000000, 0.000000000000000000, 1.000000000000000000 ) ) ;
#228 = LINE ( 'NONE', #18, #44 ) ;
#229 = DIRECTION ( 'NONE',  ( 0.000000000000000000, 0.000000000000000000, -1.000000000000000000 ) ) ;
#230 = CONICAL_SURFACE ( 'NONE', #238, 14.91932189940061093, 0.2640570072075234531 ) ;
#231 = CARTESIAN_POINT ( 'NONE',  ( 26.47800184687498160, 1.827089980954996864E-15, -14.91932189940061093 ) ) ;
#232 = ADVANCED_FACE ( 'NONE', ( #148, #183 ), #146, .T. ) ;
#233 =( NAMED_UNIT ( * ) PLANE_ANGLE_UNIT ( ) SI_UNIT ( $, .RADIAN. ) );
#234 = APPROVAL_ROLE ( '' ) ;
#235 = CIRCLE ( 'NONE', #136, 24.14999999999999858 ) ;
#236 = CARTESIAN_POINT ( 'NONE',  ( 27.00000000000000000, 0.000000000000000000, 14.77818906540755073 ) ) ;
#237 = DIRECTION ( 'NONE',  ( 1.000000000000000000, 0.000000000000000000, 0.000000000000000000 ) ) ;
#238 = AXIS2_PLACEMENT_3D ( 'NONE', #138, #58, #218 ) ;
#239 = CC_DESIGN_APPROVAL ( #219, ( #70 ) ) ;
#240 = APPROVAL_DATE_TIME ( #243, #195 ) ;
#241 = EDGE_LOOP ( 'NONE', ( #209, #176, #55, #188 ) ) ;
#242 = ORIENTED_EDGE ( 'NONE', *, *, #76, .T. ) ;
#243 = DATE_AND_TIME ( #71, #45 ) ;
#244 = APPROVAL ( #85, 'UNSPECIFIED' ) ;
#245 = VERTEX_POINT ( 'NONE', #86 ) ;
#246 = AXIS2_PLACEMENT_3D ( 'NONE', #121, #143, #158 ) ;
#247 = DIRECTION ( 'NONE',  ( 0.000000000000000000, 0.000000000000000000, -1.000000000000000000 ) ) ;
#248 = CARTESIAN_POINT ( 'NONE',  ( 0.000000000000000000, 0.000000000000000000, 0.000000000000000000 ) ) ;
#249 = ORIENTED_EDGE ( 'NONE', *, *, #31, .T. ) ;
ENDSEC;
END-ISO-10303-21;
