ISO-10303-21;
HEADER;
FILE_DESCRIPTION (( 'STEP AP203' ),
    '1' );
FILE_NAME ('3D_M8012_DN100_17481150.STEP',
    '2024-09-03T14:18:18',
    ( '' ),
    ( '' ),
    'SwSTEP 2.0',
    'SolidWorks 2024',
    '' );
FILE_SCHEMA (( 'CONFIG_CONTROL_DESIGN' ));
ENDSEC;

DATA;
#1 = PLANE ( 'NONE',  #189 ) ;
#2 = ORIENTED_EDGE ( 'NONE', *, *, #277, .F. ) ;
#3 = DIRECTION ( 'NONE',  ( -0.000000000000000000, 0.000000000000000000, -1.000000000000000000 ) ) ;
#4 = AXIS2_PLACEMENT_3D ( 'NONE', #305, #248, #17 ) ;
#5 = APPROVAL_STATUS ( 'not_yet_approved' ) ;
#6 = CARTESIAN_POINT ( 'NONE',  ( 9.899735095510424469E-16, 14.42787113213839234, 0.000000000000000000 ) ) ;
#7 = EDGE_CURVE ( 'NONE', #284, #61, #223, .T. ) ;
#8 = APPROVAL_ROLE ( '' ) ;
#9 = DIRECTION ( 'NONE',  ( 4.596983092540343816E-18, 1.000000000000000000, -0.000000000000000000 ) ) ;
#10 = CALENDAR_DATE ( 2024, 3, 9 ) ;
#11 = DIRECTION ( 'NONE',  ( 1.000000000000000000, -4.596983092540343816E-18, 0.000000000000000000 ) ) ;
#12 = COORDINATED_UNIVERSAL_TIME_OFFSET ( 1, 0, .AHEAD. ) ;
#13 = DIRECTION ( 'NONE',  ( -0.000000000000000000, 0.000000000000000000, -1.000000000000000000 ) ) ;
#14 = ADVANCED_FACE ( 'NONE', ( #213 ), #392, .F. ) ;
#15 = CC_DESIGN_APPROVAL ( #354, ( #245 ) ) ;
#16 = DIRECTION ( 'NONE',  ( -1.000000000000000000, 0.000000000000000000, 0.000000000000000000 ) ) ;
#17 = DIRECTION ( 'NONE',  ( -1.000000000000000000, 4.596983092540343046E-18, 0.000000000000000000 ) ) ;
#18 = CARTESIAN_POINT ( 'NONE',  ( -44.99999999999999289, 8.710281744785886460, 0.000000000000000000 ) ) ;
#19 = ORIENTED_EDGE ( 'NONE', *, *, #389, .F. ) ;
#20 = DIRECTION ( 'NONE',  ( -1.000000000000000000, 4.596983092540343046E-18, 0.000000000000000000 ) ) ;
#21 = VECTOR ( 'NONE', #207, 1000.000000000000000 ) ;
#22 = AXIS2_PLACEMENT_3D ( 'NONE', #363, #331, #210 ) ;
#23 = DIRECTION ( 'NONE',  ( 4.596983092540343816E-18, 1.000000000000000000, -0.000000000000000000 ) ) ;
#24 = CIRCLE ( 'NONE', #314, 49.99999999999998579 ) ;
#25 = DATE_AND_TIME ( #228, #71 ) ;
#26 = EDGE_LOOP ( 'NONE', ( #126, #385, #229, #37 ) ) ;
#27 = EDGE_CURVE ( 'NONE', #315, #406, #91, .T. ) ;
#28 = DIRECTION ( 'NONE',  ( 1.000000000000000000, 0.000000000000000000, 0.000000000000000000 ) ) ;
#29 = ORIENTED_EDGE ( 'NONE', *, *, #116, .F. ) ;
#30 = DIRECTION ( 'NONE',  ( 1.000000000000000000, 0.000000000000000000, 1.224646799147353207E-16 ) ) ;
#31 = VERTEX_POINT ( 'NONE', #242 ) ;
#32 = DATE_TIME_ROLE ( 'creation_date' ) ;
#33 = EDGE_LOOP ( 'NONE', ( #373, #235 ) ) ;
#34 = AXIS2_PLACEMENT_3D ( 'NONE', #357, #272, #46 ) ;
#35 = ORIENTED_EDGE ( 'NONE', *, *, #42, .T. ) ;
#36 = CALENDAR_DATE ( 2024, 3, 9 ) ;
#37 = ORIENTED_EDGE ( 'NONE', *, *, #89, .T. ) ;
#38 = AXIS2_PLACEMENT_3D ( 'NONE', #78, #269, #244 ) ;
#39 = PERSON_AND_ORGANIZATION ( #231, #255 ) ;
#40 = DIRECTION ( 'NONE',  ( 1.000000000000000000, 0.000000000000000000, 1.224646799147353207E-16 ) ) ;
#41 = TOROIDAL_SURFACE ( 'NONE', #4, 44.99999999999999289, 5.000000000000005329 ) ;
#42 = EDGE_CURVE ( 'NONE', #347, #399, #211, .T. ) ;
#43 = DIRECTION ( 'NONE',  ( -1.224646799147353207E-16, 5.629680630014033300E-34, 1.000000000000000000 ) ) ;
#44 = CIRCLE ( 'NONE', #267, 51.99999999999999289 ) ;
#45 = DATE_TIME_ROLE ( 'classification_date' ) ;
#46 = DIRECTION ( 'NONE',  ( -1.000000000000000000, 0.000000000000000000, 0.000000000000000000 ) ) ;
#47 = SECURITY_CLASSIFICATION_LEVEL ( 'unclassified' ) ;
#48 = DIRECTION ( 'NONE',  ( -1.000000000000000000, 0.000000000000000000, 0.000000000000000000 ) ) ;
#49 = CARTESIAN_POINT ( 'NONE',  ( 9.236488298952508525E-16, 0.000000000000000000, 0.000000000000000000 ) ) ;
#50 = EDGE_LOOP ( 'NONE', ( #104, #379, #234, #320 ) ) ;
#51 = FACE_OUTER_BOUND ( 'NONE', #324, .T. ) ;
#52 = CC_DESIGN_PERSON_AND_ORGANIZATION_ASSIGNMENT ( #316, #350, ( #245 ) ) ;
#53 = FACE_OUTER_BOUND ( 'NONE', #266, .T. ) ;
#54 = APPROVAL_PERSON_ORGANIZATION ( #95, #354, #259 ) ;
#55 = CARTESIAN_POINT ( 'NONE',  ( 9.236488298952508525E-16, 0.000000000000000000, 0.000000000000000000 ) ) ;
#56 = CIRCLE ( 'NONE', #383, 51.99999999999999289 ) ;
#57 = APPLICATION_PROTOCOL_DEFINITION ( 'international standard', 'config_control_design', 1994, #141 ) ;
#58 = EDGE_CURVE ( 'NONE', #129, #63, #364, .T. ) ;
#59 = VECTOR ( 'NONE', #68, 1000.000000000000000 ) ;
#60 = DIRECTION ( 'NONE',  ( 1.000000000000000000, -4.596983092540343816E-18, 0.000000000000000000 ) ) ;
#61 = VERTEX_POINT ( 'NONE', #135 ) ;
#62 = CARTESIAN_POINT ( 'NONE',  ( 1.040949779275250179E-14, -55.00000000000000711, 0.000000000000000000 ) ) ;
#63 = VERTEX_POINT ( 'NONE', #79 ) ;
#64 = AXIS2_PLACEMENT_3D ( 'NONE', #74, #173, #273 ) ;
#65 = DATE_AND_TIME ( #319, #375 ) ;
#66 = ORIENTED_EDGE ( 'NONE', *, *, #7, .T. ) ;
#67 = EDGE_CURVE ( 'NONE', #31, #156, #56, .T. ) ;
#68 = DIRECTION ( 'NONE',  ( 4.596983092540343816E-18, 1.000000000000000000, -0.000000000000000000 ) ) ;
#69 = ORIENTED_EDGE ( 'NONE', *, *, #7, .F. ) ;
#70 = ORIENTED_EDGE ( 'NONE', *, *, #185, .T. ) ;
#71 = LOCAL_TIME ( 16, 18, 18.00000000000000000, #232 ) ;
#72 = CARTESIAN_POINT ( 'NONE',  ( 1.040949779275250179E-14, -55.00000000000000711, 0.000000000000000000 ) ) ;
#73 = ADVANCED_FACE ( 'NONE', ( #169 ), #138, .F. ) ;
#74 = CARTESIAN_POINT ( 'NONE',  ( 44.99999999999999289, 8.710281744785886460, 5.510910596163087978E-15 ) ) ;
#75 = FACE_OUTER_BOUND ( 'NONE', #322, .T. ) ;
#76 = CIRCLE ( 'NONE', #64, 7.000000000000006217 ) ;
#77 = PERSON_AND_ORGANIZATION_ROLE ( 'design_supplier' ) ;
#78 = CARTESIAN_POINT ( 'NONE',  ( 1.387778780781445676E-14, 2817.965330118411202, 0.000000000000000000 ) ) ;
#79 = CARTESIAN_POINT ( 'NONE',  ( 49.99999999999998579, -2.298491546270171292E-16, 6.123233995736764507E-15 ) ) ;
#80 = CIRCLE ( 'NONE', #296, 49.03846153846153300 ) ;
#81 = DIRECTION ( 'NONE',  ( 4.596983092540343816E-18, 1.000000000000000000, -0.000000000000000000 ) ) ;
#82 = ORIENTED_EDGE ( 'NONE', *, *, #116, .T. ) ;
#83 = DIRECTION ( 'NONE',  ( -1.000000000000000000, 0.000000000000000000, 0.000000000000000000 ) ) ;
#84 = ORIENTED_EDGE ( 'NONE', *, *, #348, .T. ) ;
#85 = EDGE_CURVE ( 'NONE', #406, #96, #247, .T. ) ;
#86 = DIRECTION ( 'NONE',  ( 4.596983092540343816E-18, 1.000000000000000000, -0.000000000000000000 ) ) ;
#87 = FACE_OUTER_BOUND ( 'NONE', #50, .T. ) ;
#88 = LOCAL_TIME ( 16, 18, 18.00000000000000000, #243 ) ;
#89 = EDGE_CURVE ( 'NONE', #263, #315, #293, .T. ) ;
#90 = CARTESIAN_POINT ( 'NONE',  ( -49.99999999999999289, 8.710281744785925540, 0.000000000000000000 ) ) ;
#91 = CIRCLE ( 'NONE', #151, 5.000000000000004441 ) ;
#92 = PERSON_AND_ORGANIZATION ( #231, #255 ) ;
#93 = EDGE_LOOP ( 'NONE', ( #317, #382, #114 ) ) ;
#94 =( GEOMETRIC_REPRESENTATION_CONTEXT ( 3 ) GLOBAL_UNCERTAINTY_ASSIGNED_CONTEXT ( ( #405 ) ) GLOBAL_UNIT_ASSIGNED_CONTEXT ( ( #128, #162, #291 ) ) REPRESENTATION_CONTEXT ( 'NONE', 'WORKASPACE' ) );
#95 = PERSON_AND_ORGANIZATION ( #231, #255 ) ;
#96 = VERTEX_POINT ( 'NONE', #388 ) ;
#97 = CARTESIAN_POINT ( 'NONE',  ( 0.000000000000000000, 0.000000000000000000, 0.000000000000000000 ) ) ;
#98 = DIRECTION ( 'NONE',  ( -1.000000000000000000, 0.000000000000000000, 0.000000000000000000 ) ) ;
#99 = AXIS2_PLACEMENT_3D ( 'NONE', #300, #9, #48 ) ;
#100 = CC_DESIGN_PERSON_AND_ORGANIZATION_ASSIGNMENT ( #209, #202, ( #304 ) ) ;
#101 = AXIS2_PLACEMENT_3D ( 'NONE', #109, #142, #11 ) ;
#102 = VERTEX_POINT ( 'NONE', #301 ) ;
#103 = DIRECTION ( 'NONE',  ( 0.000000000000000000, 0.000000000000000000, 1.000000000000000000 ) ) ;
#104 = ORIENTED_EDGE ( 'NONE', *, *, #175, .F. ) ;
#105 = PERSON_AND_ORGANIZATION ( #231, #255 ) ;
#106 = SPHERICAL_SURFACE ( 'NONE', #265, 83.00000000000000000 ) ;
#107 = DIRECTION ( 'NONE',  ( 4.596983092540343816E-18, 1.000000000000000000, -0.000000000000000000 ) ) ;
#108 = CARTESIAN_POINT ( 'NONE',  ( 1.387778780781445676E-14, 2817.965330118411202, 0.000000000000000000 ) ) ;
#109 = CARTESIAN_POINT ( 'NONE',  ( 9.236488298952508525E-16, 0.000000000000000000, 0.000000000000000000 ) ) ;
#110 = ADVANCED_FACE ( 'NONE', ( #139 ), #106, .F. ) ;
#111 = DIRECTION ( 'NONE',  ( 1.000000000000000000, 0.000000000000000000, 1.224646799147353947E-16 ) ) ;
#112 = AXIS2_PLACEMENT_3D ( 'NONE', #328, #246, #294 ) ;
#113 = DIRECTION ( 'NONE',  ( 1.000000000000000000, -4.596983092540343816E-18, 0.000000000000000000 ) ) ;
#114 = ORIENTED_EDGE ( 'NONE', *, *, #42, .F. ) ;
#115 = CIRCLE ( 'NONE', #336, 7.000000000000006217 ) ;
#116 = EDGE_CURVE ( 'NONE', #96, #406, #312, .T. ) ;
#117 = DIRECTION ( 'NONE',  ( -0.000000000000000000, 0.000000000000000000, -1.000000000000000000 ) ) ;
#118 = AXIS2_PLACEMENT_3D ( 'NONE', #396, #393, #121 ) ;
#119 = CARTESIAN_POINT ( 'NONE',  ( 1.830590720302171204E-31, 8.710281744785925540, 0.000000000000000000 ) ) ;
#120 = ORIENTED_EDGE ( 'NONE', *, *, #276, .T. ) ;
#121 = DIRECTION ( 'NONE',  ( -1.000000000000000000, 4.596983092540343816E-18, 0.000000000000000000 ) ) ;
#122 = DIRECTION ( 'NONE',  ( 4.596983092540343816E-18, 1.000000000000000000, -0.000000000000000000 ) ) ;
#123 = CC_DESIGN_APPROVAL ( #339, ( #304 ) ) ;
#124 = ORIENTED_EDGE ( 'NONE', *, *, #185, .F. ) ;
#125 = MECHANICAL_CONTEXT ( 'NONE', #141, 'mechanical' ) ;
#126 = ORIENTED_EDGE ( 'NONE', *, *, #367, .F. ) ;
#127 = CARTESIAN_POINT ( 'NONE',  ( 9.636898478072957507E-16, 8.710281744785941527, 0.000000000000000000 ) ) ;
#128 =( LENGTH_UNIT ( ) NAMED_UNIT ( * ) SI_UNIT ( .MILLI., .METRE. ) );
#129 = VERTEX_POINT ( 'NONE', #365 ) ;
#130 = CIRCLE ( 'NONE', #380, 49.99999999999999289 ) ;
#131 = CARTESIAN_POINT ( 'NONE',  ( 5.595492459242180854E-15, 30.00000000000000000, 0.000000000000000000 ) ) ;
#132 = CLOSED_SHELL ( 'NONE', ( #110, #303, #14, #192, #295, #212, #360, #140, #241, #306, #73, #264, #236 ) ) ;
#133 = ORIENTED_EDGE ( 'NONE', *, *, #325, .F. ) ;
#134 = CIRCLE ( 'NONE', #154, 83.00000000000000000 ) ;
#135 = CARTESIAN_POINT ( 'NONE',  ( 51.99999999999999289, 8.710281744785941527, 6.368163355566235593E-15 ) ) ;
#136 = APPROVAL_STATUS ( 'not_yet_approved' ) ;
#137 = DIRECTION ( 'NONE',  ( -1.000000000000000000, 0.000000000000000000, 0.000000000000000000 ) ) ;
#138 = CYLINDRICAL_SURFACE ( 'NONE', #187, 49.99999999999998579 ) ;
#139 = FACE_OUTER_BOUND ( 'NONE', #345, .T. ) ;
#140 = ADVANCED_FACE ( 'NONE', ( #75 ), #172, .T. ) ;
#141 = APPLICATION_CONTEXT ( 'configuration controlled 3d designs of mechanical parts and assemblies' ) ;
#142 = DIRECTION ( 'NONE',  ( 4.596983092540343816E-18, 1.000000000000000000, -0.000000000000000000 ) ) ;
#143 = CARTESIAN_POINT ( 'NONE',  ( 0.000000000000000000, 8.710281744785886460, 0.000000000000000000 ) ) ;
#144 = CC_DESIGN_DATE_AND_TIME_ASSIGNMENT ( #65, #32, ( #245 ) ) ;
#145 = CARTESIAN_POINT ( 'NONE',  ( 50.00000000000000000, 8.710281744785925540, 6.123233995736766085E-15 ) ) ;
#146 = VECTOR ( 'NONE', #283, 1000.000000000000000 ) ;
#147 = DIRECTION ( 'NONE',  ( 0.000000000000000000, 0.000000000000000000, 1.000000000000000000 ) ) ;
#148 = CIRCLE ( 'NONE', #369, 83.00000000000000000 ) ;
#149 = DIRECTION ( 'NONE',  ( 0.000000000000000000, 0.000000000000000000, 1.000000000000000000 ) ) ;
#150 = EDGE_LOOP ( 'NONE', ( #2, #286, #289, #19 ) ) ;
#151 = AXIS2_PLACEMENT_3D ( 'NONE', #204, #203, #111 ) ;
#152 = DIRECTION ( 'NONE',  ( -1.000000000000000000, 0.000000000000000000, 0.000000000000000000 ) ) ;
#153 = EDGE_CURVE ( 'NONE', #102, #399, #250, .T. ) ;
#154 = AXIS2_PLACEMENT_3D ( 'NONE', #62, #407, #30 ) ;
#155 = DIRECTION ( 'NONE',  ( -0.000000000000000000, 0.000000000000000000, -1.000000000000000000 ) ) ;
#156 = VERTEX_POINT ( 'NONE', #387 ) ;
#157 = FACE_OUTER_BOUND ( 'NONE', #353, .T. ) ;
#158 = ORIENTED_EDGE ( 'NONE', *, *, #175, .T. ) ;
#159 = EDGE_CURVE ( 'NONE', #102, #347, #279, .T. ) ;
#160 = CARTESIAN_POINT ( 'NONE',  ( 5.708763172971835771E-15, 27.99999999999999645, 0.000000000000000000 ) ) ;
#161 = ORIENTED_EDGE ( 'NONE', *, *, #404, .F. ) ;
#162 =( NAMED_UNIT ( * ) PLANE_ANGLE_UNIT ( ) SI_UNIT ( $, .RADIAN. ) );
#163 = ORIENTED_EDGE ( 'NONE', *, *, #219, .F. ) ;
#164 = LOCAL_TIME ( 16, 18, 18.00000000000000000, #12 ) ;
#165 = CARTESIAN_POINT ( 'NONE',  ( 9.899735095510424469E-16, 14.42787113213839234, 0.000000000000000000 ) ) ;
#166 = EDGE_LOOP ( 'NONE', ( #258, #29, #70 ) ) ;
#167 = EDGE_CURVE ( 'NONE', #156, #284, #302, .T. ) ;
#168 = AXIS2_PLACEMENT_3D ( 'NONE', #127, #260, #98 ) ;
#169 = FACE_OUTER_BOUND ( 'NONE', #26, .T. ) ;
#170 = APPROVAL_DATE_TIME ( #298, #339 ) ;
#171 = AXIS2_PLACEMENT_3D ( 'NONE', #220, #342, #83 ) ;
#172 = CYLINDRICAL_SURFACE ( 'NONE', #99, 51.99999999999999289 ) ;
#173 = DIRECTION ( 'NONE',  ( -1.224646799147353207E-16, 5.629680630014033300E-34, 1.000000000000000000 ) ) ;
#174 = TOROIDAL_SURFACE ( 'NONE', #233, 44.99999999999999289, 5.000000000000005329 ) ;
#175 = EDGE_CURVE ( 'NONE', #61, #102, #76, .T. ) ;
#176 = CALENDAR_DATE ( 2024, 3, 9 ) ;
#177 = DIRECTION ( 'NONE',  ( -1.000000000000000000, 0.000000000000000000, 0.000000000000000000 ) ) ;
#178 = DIRECTION ( 'NONE',  ( -1.000000000000000000, 0.000000000000000000, 0.000000000000000000 ) ) ;
#179 = FACE_OUTER_BOUND ( 'NONE', #376, .T. ) ;
#180 = CARTESIAN_POINT ( 'NONE',  ( -51.99999999999999289, 8.710281744785941527, 0.000000000000000000 ) ) ;
#181 = EDGE_LOOP ( 'NONE', ( #355, #226, #35 ) ) ;
#182 = SPHERICAL_SURFACE ( 'NONE', #329, 85.00000000000000000 ) ;
#183 = CARTESIAN_POINT ( 'NONE',  ( 1.040949779275250179E-14, -55.00000000000000711, 0.000000000000000000 ) ) ;
#184 = CC_DESIGN_SECURITY_CLASSIFICATION ( #221, ( #304 ) ) ;
#185 = EDGE_CURVE ( 'NONE', #96, #403, #148, .T. ) ;
#186 = CARTESIAN_POINT ( 'NONE',  ( 1.387778780781445676E-14, 2817.965330118411202, 0.000000000000000000 ) ) ;
#187 = AXIS2_PLACEMENT_3D ( 'NONE', #108, #297, #239 ) ;
#188 = APPROVAL_STATUS ( 'not_yet_approved' ) ;
#189 = AXIS2_PLACEMENT_3D ( 'NONE', #381, #402, #60 ) ;
#190 = LINE ( 'NONE', #313, #59 ) ;
#191 = ORIENTED_EDGE ( 'NONE', *, *, #27, .F. ) ;
#192 = ADVANCED_FACE ( 'NONE', ( #340 ), #371, .T. ) ;
#193 = APPLICATION_PROTOCOL_DEFINITION ( 'international standard', 'config_control_design', 1994, #218 ) ;
#194 = AXIS2_PLACEMENT_3D ( 'NONE', #72, #43, #40 ) ;
#195 = ORIENTED_EDGE ( 'NONE', *, *, #167, .F. ) ;
#196 = COORDINATED_UNIVERSAL_TIME_OFFSET ( 1, 0, .AHEAD. ) ;
#197 = ORIENTED_EDGE ( 'NONE', *, *, #252, .F. ) ;
#198 = CARTESIAN_POINT ( 'NONE',  ( -44.99999999999999289, 8.710281744785886460, 0.000000000000000000 ) ) ;
#199 = ORIENTED_EDGE ( 'NONE', *, *, #89, .F. ) ;
#200 = DATE_AND_TIME ( #176, #164 ) ;
#201 = ORIENTED_EDGE ( 'NONE', *, *, #67, .T. ) ;
#202 = PERSON_AND_ORGANIZATION_ROLE ( 'creator' ) ;
#203 = DIRECTION ( 'NONE',  ( -1.224646799147353207E-16, 5.629680630014033300E-34, 1.000000000000000000 ) ) ;
#204 = CARTESIAN_POINT ( 'NONE',  ( 44.99999999999999289, 8.710281744785886460, 5.510910596163087978E-15 ) ) ;
#205 = EDGE_CURVE ( 'NONE', #263, #96, #208, .T. ) ;
#206 = APPROVAL_DATE_TIME ( #330, #334 ) ;
#207 = DIRECTION ( 'NONE',  ( 4.596983092540343816E-18, 1.000000000000000000, -0.000000000000000000 ) ) ;
#208 = CIRCLE ( 'NONE', #309, 5.000000000000004441 ) ;
#209 = PERSON_AND_ORGANIZATION ( #231, #255 ) ;
#210 = DIRECTION ( 'NONE',  ( -1.000000000000000000, 0.000000000000000000, 0.000000000000000000 ) ) ;
#211 = CIRCLE ( 'NONE', #326, 85.00000000000000000 ) ;
#212 = ADVANCED_FACE ( 'NONE', ( #179 ), #215, .T. ) ;
#213 = FACE_OUTER_BOUND ( 'NONE', #150, .T. ) ;
#214 = AXIS2_PLACEMENT_3D ( 'NONE', #97, #103, #28 ) ;
#215 = CYLINDRICAL_SURFACE ( 'NONE', #362, 51.99999999999999289 ) ;
#216 = DIRECTION ( 'NONE',  ( -1.000000000000000000, 0.000000000000000000, 0.000000000000000000 ) ) ;
#217 = LINE ( 'NONE', #341, #349 ) ;
#218 = APPLICATION_CONTEXT ( 'configuration controlled 3d designs of mechanical parts and assemblies' ) ;
#219 = EDGE_CURVE ( 'NONE', #315, #263, #130, .T. ) ;
#220 = CARTESIAN_POINT ( 'NONE',  ( 9.636898478072957507E-16, 8.710281744785941527, 0.000000000000000000 ) ) ;
#221 = SECURITY_CLASSIFICATION ( '', '', #47 ) ;
#222 = PRODUCT ( '3D_M8012_DN100_17481150', '3D_M8012_DN100_17481150', '', ( #125 ) ) ;
#223 = CIRCLE ( 'NONE', #168, 51.99999999999999289 ) ;
#224 = DIRECTION ( 'NONE',  ( 4.596983092540343816E-18, 1.000000000000000000, -0.000000000000000000 ) ) ;
#225 = CC_DESIGN_PERSON_AND_ORGANIZATION_ASSIGNMENT ( #92, #377, ( #222 ) ) ;
#226 = ORIENTED_EDGE ( 'NONE', *, *, #159, .T. ) ;
#227 = CIRCLE ( 'NONE', #171, 51.99999999999999289 ) ;
#228 = CALENDAR_DATE ( 2024, 3, 9 ) ;
#229 = ORIENTED_EDGE ( 'NONE', *, *, #389, .T. ) ;
#230 = DESIGN_CONTEXT ( 'detailed design', #218, 'design' ) ;
#231 = PERSON ( 'UNSPECIFIED', 'UNSPECIFIED', 'UNSPECIFIED', ('UNSPECIFIED'), ('UNSPECIFIED'), ('UNSPECIFIED') ) ;
#232 = COORDINATED_UNIVERSAL_TIME_OFFSET ( 1, 0, .AHEAD. ) ;
#233 = AXIS2_PLACEMENT_3D ( 'NONE', #368, #122, #20 ) ;
#234 = ORIENTED_EDGE ( 'NONE', *, *, #404, .T. ) ;
#235 = ORIENTED_EDGE ( 'NONE', *, *, #277, .T. ) ;
#236 = ADVANCED_FACE ( 'NONE', ( #395 ), #401, .F. ) ;
#237 = PERSON_AND_ORGANIZATION ( #231, #255 ) ;
#238 = ORIENTED_EDGE ( 'NONE', *, *, #27, .T. ) ;
#239 = DIRECTION ( 'NONE',  ( -1.000000000000000000, 0.000000000000000000, 0.000000000000000000 ) ) ;
#240 = CARTESIAN_POINT ( 'NONE',  ( -51.99999999999997868, 2817.965330118411202, 0.000000000000000000 ) ) ;
#241 = ADVANCED_FACE ( 'NONE', ( #87 ), #397, .T. ) ;
#242 = CARTESIAN_POINT ( 'NONE',  ( 51.99999999999999289, -2.390431208120978045E-16, 6.368163355566235593E-15 ) ) ;
#243 = COORDINATED_UNIVERSAL_TIME_OFFSET ( 1, 0, .AHEAD. ) ;
#244 = DIRECTION ( 'NONE',  ( -1.000000000000000000, 0.000000000000000000, 0.000000000000000000 ) ) ;
#245 = PRODUCT_DEFINITION ( 'UNKNOWN', '', #304, #230 ) ;
#246 = DIRECTION ( 'NONE',  ( 4.596983092540343816E-18, 1.000000000000000000, -0.000000000000000000 ) ) ;
#247 = CIRCLE ( 'NONE', #22, 47.88461538461542943 ) ;
#248 = DIRECTION ( 'NONE',  ( 4.596983092540343816E-18, 1.000000000000000000, -0.000000000000000000 ) ) ;
#249 = ORIENTED_EDGE ( 'NONE', *, *, #85, .F. ) ;
#250 = CIRCLE ( 'NONE', #194, 85.00000000000000000 ) ;
#251 = DIRECTION ( 'NONE',  ( -1.000000000000000000, 4.596983092540343816E-18, 0.000000000000000000 ) ) ;
#252 = EDGE_CURVE ( 'NONE', #31, #61, #217, .T. ) ;
#253 = DIRECTION ( 'NONE',  ( 4.596983092540343816E-18, 1.000000000000000000, -0.000000000000000000 ) ) ;
#254 = FACE_OUTER_BOUND ( 'NONE', #181, .T. ) ;
#255 = ORGANIZATION ( 'UNSPECIFIED', 'UNSPECIFIED', '' ) ;
#256 = CARTESIAN_POINT ( 'NONE',  ( -49.03846153846153300, 14.42787113213839234, 0.000000000000000000 ) ) ;
#257 = ORIENTED_EDGE ( 'NONE', *, *, #252, .T. ) ;
#258 = ORIENTED_EDGE ( 'NONE', *, *, #348, .F. ) ;
#259 = APPROVAL_ROLE ( '' ) ;
#260 = DIRECTION ( 'NONE',  ( 4.596983092540343816E-18, 1.000000000000000000, -0.000000000000000000 ) ) ;
#261 = FACE_BOUND ( 'NONE', #33, .T. ) ;
#262 = AXIS2_PLACEMENT_3D ( 'NONE', #183, #149, #216 ) ;
#263 = VERTEX_POINT ( 'NONE', #90 ) ;
#264 = ADVANCED_FACE ( 'NONE', ( #53 ), #174, .F. ) ;
#265 = AXIS2_PLACEMENT_3D ( 'NONE', #274, #275, #137 ) ;
#266 = EDGE_LOOP ( 'NONE', ( #191, #199, #351, #82 ) ) ;
#267 = AXIS2_PLACEMENT_3D ( 'NONE', #49, #81, #338 ) ;
#268 = APPROVAL_ROLE ( '' ) ;
#269 = DIRECTION ( 'NONE',  ( 4.596983092540343816E-18, 1.000000000000000000, -0.000000000000000000 ) ) ;
#270 = CC_DESIGN_DATE_AND_TIME_ASSIGNMENT ( #200, #45, ( #221 ) ) ;
#271 = SHAPE_DEFINITION_REPRESENTATION ( #310, #343 ) ;
#272 = DIRECTION ( 'NONE',  ( 4.596983092540343816E-18, 1.000000000000000000, -0.000000000000000000 ) ) ;
#273 = DIRECTION ( 'NONE',  ( 1.000000000000000000, 0.000000000000000000, 1.224646799147352714E-16 ) ) ;
#274 = CARTESIAN_POINT ( 'NONE',  ( 1.040949779275250179E-14, -55.00000000000000711, 0.000000000000000000 ) ) ;
#275 = DIRECTION ( 'NONE',  ( 0.000000000000000000, 0.000000000000000000, 1.000000000000000000 ) ) ;
#276 = EDGE_CURVE ( 'NONE', #156, #31, #44, .T. ) ;
#277 = EDGE_CURVE ( 'NONE', #63, #129, #24, .T. ) ;
#278 = DIRECTION ( 'NONE',  ( -1.000000000000000000, 0.000000000000000000, 0.000000000000000000 ) ) ;
#279 = CIRCLE ( 'NONE', #332, 49.03846153846153300 ) ;
#280 = CARTESIAN_POINT ( 'NONE',  ( 1.040949779275250179E-14, -55.00000000000000711, 0.000000000000000000 ) ) ;
#281 = ORIENTED_EDGE ( 'NONE', *, *, #205, .F. ) ;
#282 = DIRECTION ( 'NONE',  ( 4.596983092540343816E-18, 1.000000000000000000, -0.000000000000000000 ) ) ;
#283 = DIRECTION ( 'NONE',  ( 4.596983092540343816E-18, 1.000000000000000000, -0.000000000000000000 ) ) ;
#284 = VERTEX_POINT ( 'NONE', #180 ) ;
#285 = DIRECTION ( 'NONE',  ( -1.000000000000000000, 0.000000000000000000, 0.000000000000000000 ) ) ;
#286 = ORIENTED_EDGE ( 'NONE', *, *, #367, .T. ) ;
#287 = ORIENTED_EDGE ( 'NONE', *, *, #276, .F. ) ;
#288 = EDGE_CURVE ( 'NONE', #61, #284, #227, .T. ) ;
#289 = ORIENTED_EDGE ( 'NONE', *, *, #219, .T. ) ;
#290 = CC_DESIGN_APPROVAL ( #334, ( #221 ) ) ;
#291 =( NAMED_UNIT ( * ) SI_UNIT ( $, .STERADIAN. ) SOLID_ANGLE_UNIT ( ) );
#292 = ORIENTED_EDGE ( 'NONE', *, *, #167, .T. ) ;
#293 = CIRCLE ( 'NONE', #112, 49.99999999999999289 ) ;
#294 = DIRECTION ( 'NONE',  ( -1.000000000000000000, 0.000000000000000000, 0.000000000000000000 ) ) ;
#295 = ADVANCED_FACE ( 'NONE', ( #51 ), #394, .T. ) ;
#296 = AXIS2_PLACEMENT_3D ( 'NONE', #165, #224, #352 ) ;
#297 = DIRECTION ( 'NONE',  ( 4.596983092540343816E-18, 1.000000000000000000, -0.000000000000000000 ) ) ;
#298 = DATE_AND_TIME ( #36, #88 ) ;
#299 = AXIS2_PLACEMENT_3D ( 'NONE', #280, #398, #152 ) ;
#300 = CARTESIAN_POINT ( 'NONE',  ( 1.387778780781445676E-14, 2817.965330118411202, 0.000000000000000000 ) ) ;
#301 = CARTESIAN_POINT ( 'NONE',  ( 49.03846153846153300, 14.42787113213839234, 6.186821425692493222E-15 ) ) ;
#302 = LINE ( 'NONE', #240, #21 ) ;
#303 = ADVANCED_FACE ( 'NONE', ( #311 ), #41, .F. ) ;
#304 = PRODUCT_DEFINITION_FORMATION_WITH_SPECIFIED_SOURCE ( 'ANY', '', #222, .NOT_KNOWN. ) ;
#305 = CARTESIAN_POINT ( 'NONE',  ( 0.000000000000000000, 8.710281744785886460, 0.000000000000000000 ) ) ;
#306 = ADVANCED_FACE ( 'NONE', ( #254 ), #182, .T. ) ;
#307 = CARTESIAN_POINT ( 'NONE',  ( 1.040949779275250179E-14, -55.00000000000000711, 0.000000000000000000 ) ) ;
#308 = DIRECTION ( 'NONE',  ( -1.000000000000000000, 0.000000000000000000, 0.000000000000000000 ) ) ;
#309 = AXIS2_PLACEMENT_3D ( 'NONE', #18, #117, #16 ) ;
#310 = PRODUCT_DEFINITION_SHAPE ( 'NONE', 'NONE',  #245 ) ;
#311 = FACE_OUTER_BOUND ( 'NONE', #410, .T. ) ;
#312 = CIRCLE ( 'NONE', #34, 47.88461538461542943 ) ;
#313 = CARTESIAN_POINT ( 'NONE',  ( -49.99999999999997158, 2817.965330118411202, 0.000000000000000000 ) ) ;
#314 = AXIS2_PLACEMENT_3D ( 'NONE', #55, #253, #113 ) ;
#315 = VERTEX_POINT ( 'NONE', #145 ) ;
#316 = PERSON_AND_ORGANIZATION ( #231, #255 ) ;
#317 = ORIENTED_EDGE ( 'NONE', *, *, #325, .T. ) ;
#318 = PRODUCT_RELATED_PRODUCT_CATEGORY ( 'detail', '', ( #222 ) ) ;
#319 = CALENDAR_DATE ( 2024, 3, 9 ) ;
#320 = ORIENTED_EDGE ( 'NONE', *, *, #159, .F. ) ;
#321 = LINE ( 'NONE', #409, #146 ) ;
#322 = EDGE_LOOP ( 'NONE', ( #197, #201, #292, #378 ) ) ;
#323 = COORDINATED_UNIVERSAL_TIME_OFFSET ( 1, 0, .AHEAD. ) ;
#324 = EDGE_LOOP ( 'NONE', ( #66, #158, #133, #161 ) ) ;
#325 = EDGE_CURVE ( 'NONE', #347, #102, #80, .T. ) ;
#326 = AXIS2_PLACEMENT_3D ( 'NONE', #335, #3, #359 ) ;
#327 = PERSON_AND_ORGANIZATION ( #231, #255 ) ;
#328 = CARTESIAN_POINT ( 'NONE',  ( 1.830590720302171204E-31, 8.710281744785925540, 0.000000000000000000 ) ) ;
#329 = AXIS2_PLACEMENT_3D ( 'NONE', #307, #147, #278 ) ;
#330 = DATE_AND_TIME ( #10, #356 ) ;
#331 = DIRECTION ( 'NONE',  ( 4.596983092540343816E-18, 1.000000000000000000, -0.000000000000000000 ) ) ;
#332 = AXIS2_PLACEMENT_3D ( 'NONE', #6, #107, #178 ) ;
#333 = CARTESIAN_POINT ( 'NONE',  ( 1.040949779275250179E-14, -55.00000000000000711, 0.000000000000000000 ) ) ;
#334 = APPROVAL ( #136, 'UNSPECIFIED' ) ;
#335 = CARTESIAN_POINT ( 'NONE',  ( 1.040949779275250179E-14, -55.00000000000000711, 0.000000000000000000 ) ) ;
#336 = AXIS2_PLACEMENT_3D ( 'NONE', #198, #155, #285 ) ;
#337 = DIRECTION ( 'NONE',  ( 4.596983092540343816E-18, 1.000000000000000000, -0.000000000000000000 ) ) ;
#338 = DIRECTION ( 'NONE',  ( -1.000000000000000000, 4.596983092540343046E-18, 0.000000000000000000 ) ) ;
#339 = APPROVAL ( #5, 'UNSPECIFIED' ) ;
#340 = FACE_OUTER_BOUND ( 'NONE', #93, .T. ) ;
#341 = CARTESIAN_POINT ( 'NONE',  ( 52.00000000000000711, 2817.965330118411202, 6.368163355566235593E-15 ) ) ;
#342 = DIRECTION ( 'NONE',  ( 4.596983092540343816E-18, 1.000000000000000000, -0.000000000000000000 ) ) ;
#343 = ADVANCED_BREP_SHAPE_REPRESENTATION ( '3D_M8012_DN100_17481150', ( #391, #214 ), #94 ) ;
#344 = CARTESIAN_POINT ( 'NONE',  ( 47.88461538461544365, 12.79427416432342390, 5.993704045826953036E-15 ) ) ;
#345 = EDGE_LOOP ( 'NONE', ( #249, #84, #124 ) ) ;
#346 = APPROVAL_DATE_TIME ( #25, #354 ) ;
#347 = VERTEX_POINT ( 'NONE', #256 ) ;
#348 = EDGE_CURVE ( 'NONE', #406, #403, #134, .T. ) ;
#349 = VECTOR ( 'NONE', #374, 1000.000000000000000 ) ;
#350 = PERSON_AND_ORGANIZATION_ROLE ( 'creator' ) ;
#351 = ORIENTED_EDGE ( 'NONE', *, *, #205, .T. ) ;
#352 = DIRECTION ( 'NONE',  ( -1.000000000000000000, 0.000000000000000000, 0.000000000000000000 ) ) ;
#353 = EDGE_LOOP ( 'NONE', ( #287, #408 ) ) ;
#354 = APPROVAL ( #188, 'UNSPECIFIED' ) ;
#355 = ORIENTED_EDGE ( 'NONE', *, *, #153, .F. ) ;
#356 = LOCAL_TIME ( 16, 18, 18.00000000000000000, #323 ) ;
#357 = CARTESIAN_POINT ( 'NONE',  ( 1.072114692485694170E-14, 12.79427416432342390, 0.000000000000000000 ) ) ;
#358 = PERSON_AND_ORGANIZATION_ROLE ( 'classification_officer' ) ;
#359 = DIRECTION ( 'NONE',  ( -1.000000000000000000, 0.000000000000000000, 0.000000000000000000 ) ) ;
#360 = ADVANCED_FACE ( 'NONE', ( #261, #157 ), #1, .T. ) ;
#361 = APPROVAL_PERSON_ORGANIZATION ( #39, #339, #8 ) ;
#362 = AXIS2_PLACEMENT_3D ( 'NONE', #186, #282, #372 ) ;
#363 = CARTESIAN_POINT ( 'NONE',  ( 1.072114692485694170E-14, 12.79427416432342390, 0.000000000000000000 ) ) ;
#364 = CIRCLE ( 'NONE', #101, 49.99999999999998579 ) ;
#365 = CARTESIAN_POINT ( 'NONE',  ( -49.99999999999998579, 2.298491546270171292E-16, 0.000000000000000000 ) ) ;
#366 = AXIS2_PLACEMENT_3D ( 'NONE', #143, #23, #251 ) ;
#367 = EDGE_CURVE ( 'NONE', #63, #315, #321, .T. ) ;
#368 = CARTESIAN_POINT ( 'NONE',  ( 0.000000000000000000, 8.710281744785886460, 0.000000000000000000 ) ) ;
#369 = AXIS2_PLACEMENT_3D ( 'NONE', #333, #13, #177 ) ;
#370 = ORIENTED_EDGE ( 'NONE', *, *, #85, .T. ) ;
#371 = SPHERICAL_SURFACE ( 'NONE', #262, 85.00000000000000000 ) ;
#372 = DIRECTION ( 'NONE',  ( -1.000000000000000000, 0.000000000000000000, 0.000000000000000000 ) ) ;
#373 = ORIENTED_EDGE ( 'NONE', *, *, #58, .T. ) ;
#374 = DIRECTION ( 'NONE',  ( 4.596983092540343816E-18, 1.000000000000000000, -0.000000000000000000 ) ) ;
#375 = LOCAL_TIME ( 16, 18, 18.00000000000000000, #196 ) ;
#376 = EDGE_LOOP ( 'NONE', ( #120, #257, #69, #195 ) ) ;
#377 = PERSON_AND_ORGANIZATION_ROLE ( 'design_owner' ) ;
#378 = ORIENTED_EDGE ( 'NONE', *, *, #288, .F. ) ;
#379 = ORIENTED_EDGE ( 'NONE', *, *, #288, .T. ) ;
#380 = AXIS2_PLACEMENT_3D ( 'NONE', #119, #86, #308 ) ;
#381 = CARTESIAN_POINT ( 'NONE',  ( -5.494385923806462123E-34, -1.195215604060489022E-16, 0.000000000000000000 ) ) ;
#382 = ORIENTED_EDGE ( 'NONE', *, *, #153, .T. ) ;
#383 = AXIS2_PLACEMENT_3D ( 'NONE', #390, #337, #386 ) ;
#384 = CC_DESIGN_PERSON_AND_ORGANIZATION_ASSIGNMENT ( #105, #77, ( #304 ) ) ;
#385 = ORIENTED_EDGE ( 'NONE', *, *, #58, .F. ) ;
#386 = DIRECTION ( 'NONE',  ( -1.000000000000000000, 4.596983092540343046E-18, 0.000000000000000000 ) ) ;
#387 = CARTESIAN_POINT ( 'NONE',  ( -51.99999999999999289, 2.390431208120978045E-16, 0.000000000000000000 ) ) ;
#388 = CARTESIAN_POINT ( 'NONE',  ( -47.88461538461541522, 12.79427416432342390, 0.000000000000000000 ) ) ;
#389 = EDGE_CURVE ( 'NONE', #129, #263, #190, .T. ) ;
#390 = CARTESIAN_POINT ( 'NONE',  ( 9.236488298952508525E-16, 0.000000000000000000, 0.000000000000000000 ) ) ;
#391 = MANIFOLD_SOLID_BREP ( 'Wandung1', #132 ) ;
#392 = CYLINDRICAL_SURFACE ( 'NONE', #38, 49.99999999999998579 ) ;
#393 = DIRECTION ( 'NONE',  ( 4.596983092540343816E-18, 1.000000000000000000, -0.000000000000000000 ) ) ;
#394 = TOROIDAL_SURFACE ( 'NONE', #366, 44.99999999999999289, 7.000000000000005329 ) ;
#395 = FACE_OUTER_BOUND ( 'NONE', #166, .T. ) ;
#396 = CARTESIAN_POINT ( 'NONE',  ( 0.000000000000000000, 8.710281744785886460, 0.000000000000000000 ) ) ;
#397 = TOROIDAL_SURFACE ( 'NONE', #118, 44.99999999999999289, 7.000000000000005329 ) ;
#398 = DIRECTION ( 'NONE',  ( 0.000000000000000000, 0.000000000000000000, 1.000000000000000000 ) ) ;
#399 = VERTEX_POINT ( 'NONE', #131 ) ;
#400 = CC_DESIGN_PERSON_AND_ORGANIZATION_ASSIGNMENT ( #327, #358, ( #221 ) ) ;
#401 = SPHERICAL_SURFACE ( 'NONE', #299, 83.00000000000000000 ) ;
#402 = DIRECTION ( 'NONE',  ( -4.596983092540343816E-18, -1.000000000000000000, 0.000000000000000000 ) ) ;
#403 = VERTEX_POINT ( 'NONE', #160 ) ;
#404 = EDGE_CURVE ( 'NONE', #284, #347, #115, .T. ) ;
#405 = UNCERTAINTY_MEASURE_WITH_UNIT (LENGTH_MEASURE( 1.000000000000000082E-05 ), #128, 'distance_accuracy_value', 'NONE');
#406 = VERTEX_POINT ( 'NONE', #344 ) ;
#407 = DIRECTION ( 'NONE',  ( -1.224646799147353207E-16, 5.629680630014033300E-34, 1.000000000000000000 ) ) ;
#408 = ORIENTED_EDGE ( 'NONE', *, *, #67, .F. ) ;
#409 = CARTESIAN_POINT ( 'NONE',  ( 50.00000000000000000, 2817.965330118411202, 6.123233995736764507E-15 ) ) ;
#410 = EDGE_LOOP ( 'NONE', ( #163, #238, #370, #281 ) ) ;
#411 = APPROVAL_PERSON_ORGANIZATION ( #237, #334, #268 ) ;
ENDSEC;
END-ISO-10303-21;
