ISO-10303-21;
HEADER;
FILE_DESCRIPTION (( 'STEP AP203' ),
    '1' );
FILE_NAME ('3D_R169_ DN30-20_17323163.STEP',
    '2024-07-17T12:11:37',
    ( '' ),
    ( '' ),
    'SwSTEP 2.0',
    'SolidWorks 2024',
    '' );
FILE_SCHEMA (( 'CONFIG_CONTROL_DESIGN' ));
ENDSEC;

DATA;
#1 = CC_DESIGN_PERSON_AND_ORGANIZATION_ASSIGNMENT ( #16, #231, ( #63 ) ) ;
#2 = ORIENTED_EDGE ( 'NONE', *, *, #86, .F. ) ;
#3 = APPROVAL_DATE_TIME ( #129, #45 ) ;
#4 = DIRECTION ( 'NONE',  ( 0.000000000000000000, 0.000000000000000000, -1.000000000000000000 ) ) ;
#5 = CC_DESIGN_PERSON_AND_ORGANIZATION_ASSIGNMENT ( #185, #114, ( #52 ) ) ;
#6 = DIRECTION ( 'NONE',  ( -1.000000000000000000, -0.000000000000000000, -0.000000000000000000 ) ) ;
#7 = ORIENTED_EDGE ( 'NONE', *, *, #127, .T. ) ;
#8 = APPROVAL_ROLE ( '' ) ;
#9 = CIRCLE ( 'NONE', #209, 7.972412489900592369 ) ;
#10 = COORDINATED_UNIVERSAL_TIME_OFFSET ( 1, 0, .AHEAD. ) ;
#11 = DIRECTION ( 'NONE',  ( 1.000000000000000000, 0.000000000000000000, 0.000000000000000000 ) ) ;
#12 = CARTESIAN_POINT ( 'NONE',  ( 0.000000000000000000, 0.000000000000000000, 0.000000000000000000 ) ) ;
#13 = EDGE_CURVE ( 'NONE', #98, #51, #189, .T. ) ;
#14 = AXIS2_PLACEMENT_3D ( 'NONE', #151, #191, #192 ) ;
#15 = APPROVAL_DATE_TIME ( #188, #198 ) ;
#16 = PERSON_AND_ORGANIZATION ( #28, #84 ) ;
#17 = ORIENTED_EDGE ( 'NONE', *, *, #153, .F. ) ;
#18 = ADVANCED_FACE ( 'NONE', ( #171 ), #137, .T. ) ;
#19 = AXIS2_PLACEMENT_3D ( 'NONE', #235, #62, #212 ) ;
#20 = CARTESIAN_POINT ( 'NONE',  ( 0.000000000000000000, 0.000000000000000000, 12.97241248990059326 ) ) ;
#21 = FACE_OUTER_BOUND ( 'NONE', #112, .T. ) ;
#22 = CIRCLE ( 'NONE', #143, 10.00000000000000000 ) ;
#23 = DIRECTION ( 'NONE',  ( 0.000000000000000000, 0.000000000000000000, 1.000000000000000000 ) ) ;
#24 = DIRECTION ( 'NONE',  ( -1.000000000000000000, -0.000000000000000000, -0.000000000000000000 ) ) ;
#25 = DIRECTION ( 'NONE',  ( -0.9863939238321437486, 2.013306935865721687E-17, -0.1643989873053572637 ) ) ;
#26 = CC_DESIGN_PERSON_AND_ORGANIZATION_ASSIGNMENT ( #161, #87, ( #206 ) ) ;
#27 = PERSON_AND_ORGANIZATION_ROLE ( 'creator' ) ;
#28 = PERSON ( 'UNSPECIFIED', 'UNSPECIFIED', 'UNSPECIFIED', ('UNSPECIFIED'), ('UNSPECIFIED'), ('UNSPECIFIED') ) ;
#29 = CARTESIAN_POINT ( 'NONE',  ( 29.67120202538928453, 9.830499668434666417E-16, -8.027212152335712503 ) ) ;
#30 = SHAPE_DEFINITION_REPRESENTATION ( #164, #125 ) ;
#31 = VERTEX_POINT ( 'NONE', #115 ) ;
#32 = ORIENTED_EDGE ( 'NONE', *, *, #232, .F. ) ;
#33 = AXIS2_PLACEMENT_3D ( 'NONE', #219, #90, #50 ) ;
#34 = APPROVAL ( #102, 'UNSPECIFIED' ) ;
#35 = APPROVAL_PERSON_ORGANIZATION ( #177, #34, #8 ) ;
#36 = ORIENTED_EDGE ( 'NONE', *, *, #153, .T. ) ;
#37 = APPROVAL_STATUS ( 'not_yet_approved' ) ;
#38 = FACE_BOUND ( 'NONE', #54, .T. ) ;
#39 = PERSON_AND_ORGANIZATION_ROLE ( 'creator' ) ;
#40 = DIRECTION ( 'NONE',  ( -0.9863939238321437486, 0.000000000000000000, 0.1643989873053572637 ) ) ;
#41 = DIRECTION ( 'NONE',  ( 0.000000000000000000, 0.000000000000000000, -1.000000000000000000 ) ) ;
#42 = DIRECTION ( 'NONE',  ( 1.000000000000000000, 0.000000000000000000, 0.000000000000000000 ) ) ;
#43 = CARTESIAN_POINT ( 'NONE',  ( 0.000000000000000000, 1.588662343297590672E-15, -12.97241248990059326 ) ) ;
#44 = CONICAL_SURFACE ( 'NONE', #173, 8.027212152335712503, 0.1651486774146267988 ) ;
#45 = APPROVAL ( #141, 'UNSPECIFIED' ) ;
#46 = CARTESIAN_POINT ( 'NONE',  ( 0.000000000000000000, 0.000000000000000000, 0.000000000000000000 ) ) ;
#47 =( LENGTH_UNIT ( ) NAMED_UNIT ( * ) SI_UNIT ( .MILLI., .METRE. ) );
#48 = EDGE_CURVE ( 'NONE', #108, #31, #81, .T. ) ;
#49 = UNCERTAINTY_MEASURE_WITH_UNIT (LENGTH_MEASURE( 1.000000000000000082E-05 ), #47, 'distance_accuracy_value', 'NONE');
#50 = DIRECTION ( 'NONE',  ( 0.000000000000000000, 0.000000000000000000, 1.000000000000000000 ) ) ;
#51 = VERTEX_POINT ( 'NONE', #20 ) ;
#52 = SECURITY_CLASSIFICATION ( '', '', #202 ) ;
#53 = EDGE_LOOP ( 'NONE', ( #94, #227, #78, #122 ) ) ;
#54 = EDGE_LOOP ( 'NONE', ( #32, #2 ) ) ;
#55 = VECTOR ( 'NONE', #223, 1000.000000000000114 ) ;
#56 = CC_DESIGN_PERSON_AND_ORGANIZATION_ASSIGNMENT ( #182, #39, ( #63 ) ) ;
#57 = AXIS2_PLACEMENT_3D ( 'NONE', #230, #24, #134 ) ;
#58 = LOCAL_TIME ( 14, 11, 37.00000000000000000, #92 ) ;
#59 = FACE_OUTER_BOUND ( 'NONE', #172, .T. ) ;
#60 = CALENDAR_DATE ( 2024, 17, 7 ) ;
#61 = CARTESIAN_POINT ( 'NONE',  ( 29.67120202538928453, 0.000000000000000000, 8.027212152335712503 ) ) ;
#62 = DIRECTION ( 'NONE',  ( 1.000000000000000000, 0.000000000000000000, 0.000000000000000000 ) ) ;
#63 = PRODUCT_DEFINITION_FORMATION_WITH_SPECIFIED_SOURCE ( 'ANY', '', #206, .NOT_KNOWN. ) ;
#64 = ORIENTED_EDGE ( 'NONE', *, *, #48, .F. ) ;
#65 = CARTESIAN_POINT ( 'NONE',  ( 29.67120202538928453, 0.000000000000000000, 0.000000000000000000 ) ) ;
#66 =( NAMED_UNIT ( * ) PLANE_ANGLE_UNIT ( ) SI_UNIT ( $, .RADIAN. ) );
#67 = LOCAL_TIME ( 14, 11, 37.00000000000000000, #104 ) ;
#68 = CARTESIAN_POINT ( 'NONE',  ( 30.00000000000000000, 0.000000000000000000, 0.000000000000000000 ) ) ;
#69 = ADVANCED_FACE ( 'NONE', ( #59 ), #44, .F. ) ;
#70 = DIRECTION ( 'NONE',  ( 1.000000000000000000, 0.000000000000000000, 0.000000000000000000 ) ) ;
#71 = DIRECTION ( 'NONE',  ( -0.9863939238321437486, 2.013306935865721687E-17, -0.1643989873053572637 ) ) ;
#72 = AXIS2_PLACEMENT_3D ( 'NONE', #46, #175, #70 ) ;
#73 = ADVANCED_FACE ( 'NONE', ( #21 ), #195, .F. ) ;
#74 = PERSON_AND_ORGANIZATION ( #28, #84 ) ;
#75 = MANIFOLD_SOLID_BREP ( 'Wandung2', #99 ) ;
#76 = AXIS2_PLACEMENT_3D ( 'NONE', #236, #96, #213 ) ;
#77 = FACE_OUTER_BOUND ( 'NONE', #183, .T. ) ;
#78 = ORIENTED_EDGE ( 'NONE', *, *, #48, .T. ) ;
#79 =( GEOMETRIC_REPRESENTATION_CONTEXT ( 3 ) GLOBAL_UNCERTAINTY_ASSIGNED_CONTEXT ( ( #49 ) ) GLOBAL_UNIT_ASSIGNED_CONTEXT ( ( #47, #66, #224 ) ) REPRESENTATION_CONTEXT ( 'NONE', 'WORKASPACE' ) );
#80 = LINE ( 'NONE', #149, #135 ) ;
#81 = CIRCLE ( 'NONE', #14, 15.00000000000000000 ) ;
#82 = LOCAL_TIME ( 14, 11, 37.00000000000000000, #10 ) ;
#83 = ORIENTED_EDGE ( 'NONE', *, *, #127, .F. ) ;
#84 = ORGANIZATION ( 'UNSPECIFIED', 'UNSPECIFIED', '' ) ;
#85 = ORIENTED_EDGE ( 'NONE', *, *, #159, .T. ) ;
#86 = EDGE_CURVE ( 'NONE', #186, #98, #239, .T. ) ;
#87 = PERSON_AND_ORGANIZATION_ROLE ( 'design_owner' ) ;
#88 = CALENDAR_DATE ( 2024, 17, 7 ) ;
#89 = APPLICATION_PROTOCOL_DEFINITION ( 'international standard', 'config_control_design', 1994, #132 ) ;
#90 = DIRECTION ( 'NONE',  ( -1.000000000000000000, -0.000000000000000000, -0.000000000000000000 ) ) ;
#91 = AXIS2_PLACEMENT_3D ( 'NONE', #65, #6, #23 ) ;
#92 = COORDINATED_UNIVERSAL_TIME_OFFSET ( 1, 0, .AHEAD. ) ;
#93 = EDGE_CURVE ( 'NONE', #117, #51, #180, .T. ) ;
#94 = ORIENTED_EDGE ( 'NONE', *, *, #100, .F. ) ;
#95 = DATE_AND_TIME ( #210, #190 ) ;
#96 = DIRECTION ( 'NONE',  ( 1.000000000000000000, 0.000000000000000000, 0.000000000000000000 ) ) ;
#97 = CARTESIAN_POINT ( 'NONE',  ( 30.00000000000000000, 0.000000000000000000, 7.972412489900592369 ) ) ;
#98 = VERTEX_POINT ( 'NONE', #97 ) ;
#99 = CLOSED_SHELL ( 'NONE', ( #69, #18, #139, #215, #187, #73 ) ) ;
#100 = EDGE_CURVE ( 'NONE', #116, #150, #217, .T. ) ;
#101 = CARTESIAN_POINT ( 'NONE',  ( 30.00000000000000000, 0.000000000000000000, 0.000000000000000000 ) ) ;
#102 = APPROVAL_STATUS ( 'not_yet_approved' ) ;
#103 = DIRECTION ( 'NONE',  ( 0.000000000000000000, 0.000000000000000000, -1.000000000000000000 ) ) ;
#104 = COORDINATED_UNIVERSAL_TIME_OFFSET ( 1, 0, .AHEAD. ) ;
#105 = DIRECTION ( 'NONE',  ( 0.000000000000000000, 0.000000000000000000, -1.000000000000000000 ) ) ;
#106 = PERSON_AND_ORGANIZATION ( #28, #84 ) ;
#107 = EDGE_CURVE ( 'NONE', #116, #108, #80, .T. ) ;
#108 = VERTEX_POINT ( 'NONE', #146 ) ;
#109 = VECTOR ( 'NONE', #71, 1000.000000000000114 ) ;
#110 = EDGE_CURVE ( 'NONE', #31, #108, #123, .T. ) ;
#111 = APPROVAL_PERSON_ORGANIZATION ( #106, #198, #181 ) ;
#112 = EDGE_LOOP ( 'NONE', ( #194, #130, #166, #226 ) ) ;
#113 = CARTESIAN_POINT ( 'NONE',  ( 30.00000000000000000, 0.000000000000000000, 0.000000000000000000 ) ) ;
#114 = PERSON_AND_ORGANIZATION_ROLE ( 'classification_officer' ) ;
#115 = CARTESIAN_POINT ( 'NONE',  ( 0.000000000000000000, -9.184850993605147944E-16, 15.00000000000000000 ) ) ;
#116 = VERTEX_POINT ( 'NONE', #131 ) ;
#117 = VERTEX_POINT ( 'NONE', #43 ) ;
#118 = CARTESIAN_POINT ( 'NONE',  ( 30.00000000000000000, 0.000000000000000000, 0.000000000000000000 ) ) ;
#119 = PERSON_AND_ORGANIZATION ( #28, #84 ) ;
#120 = DIRECTION ( 'NONE',  ( 1.000000000000000000, 0.000000000000000000, 0.000000000000000000 ) ) ;
#121 = DATE_TIME_ROLE ( 'creation_date' ) ;
#122 = ORIENTED_EDGE ( 'NONE', *, *, #159, .F. ) ;
#123 = CIRCLE ( 'NONE', #19, 15.00000000000000000 ) ;
#124 = ORIENTED_EDGE ( 'NONE', *, *, #93, .T. ) ;
#125 = ADVANCED_BREP_SHAPE_REPRESENTATION ( '3D_R169_ DN30-20_17323163', ( #75, #72 ), #79 ) ;
#126 = ORIENTED_EDGE ( 'NONE', *, *, #110, .T. ) ;
#127 = EDGE_CURVE ( 'NONE', #150, #116, #22, .T. ) ;
#128 = PLANE ( 'NONE',  #214 ) ;
#129 = DATE_AND_TIME ( #60, #58 ) ;
#130 = ORIENTED_EDGE ( 'NONE', *, *, #86, .T. ) ;
#131 = CARTESIAN_POINT ( 'NONE',  ( 30.00000000000000000, 6.123233995736766282E-16, -10.00000000000000000 ) ) ;
#132 = APPLICATION_CONTEXT ( 'configuration controlled 3d designs of mechanical parts and assemblies' ) ;
#133 = DIRECTION ( 'NONE',  ( -1.000000000000000000, -0.000000000000000000, -0.000000000000000000 ) ) ;
#134 = DIRECTION ( 'NONE',  ( 0.000000000000000000, 0.000000000000000000, 1.000000000000000000 ) ) ;
#135 = VECTOR ( 'NONE', #25, 1000.000000000000114 ) ;
#136 = DIRECTION ( 'NONE',  ( 1.000000000000000000, 0.000000000000000000, 0.000000000000000000 ) ) ;
#137 = CONICAL_SURFACE ( 'NONE', #57, 10.00000000000000000, 0.1651486774146267988 ) ;
#138 = DIRECTION ( 'NONE',  ( 0.000000000000000000, 0.000000000000000000, -1.000000000000000000 ) ) ;
#139 = ADVANCED_FACE ( 'NONE', ( #38, #77 ), #128, .T. ) ;
#140 = DIRECTION ( 'NONE',  ( 0.000000000000000000, 0.000000000000000000, -1.000000000000000000 ) ) ;
#141 = APPROVAL_STATUS ( 'not_yet_approved' ) ;
#142 = VECTOR ( 'NONE', #40, 1000.000000000000114 ) ;
#143 = AXIS2_PLACEMENT_3D ( 'NONE', #118, #167, #41 ) ;
#144 = APPLICATION_CONTEXT ( 'configuration controlled 3d designs of mechanical parts and assemblies' ) ;
#145 = APPROVAL_PERSON_ORGANIZATION ( #74, #45, #163 ) ;
#146 = CARTESIAN_POINT ( 'NONE',  ( 0.000000000000000000, 2.755455298081544383E-15, -15.00000000000000000 ) ) ;
#147 = ORIENTED_EDGE ( 'NONE', *, *, #13, .F. ) ;
#148 = PRODUCT_RELATED_PRODUCT_CATEGORY ( 'detail', '', ( #206 ) ) ;
#149 = CARTESIAN_POINT ( 'NONE',  ( 30.00000000000000000, 1.224646799147353256E-15, -10.00000000000000000 ) ) ;
#150 = VERTEX_POINT ( 'NONE', #241 ) ;
#151 = CARTESIAN_POINT ( 'NONE',  ( 0.000000000000000000, 0.000000000000000000, 0.000000000000000000 ) ) ;
#152 = CARTESIAN_POINT ( 'NONE',  ( 30.00000000000000000, 1.282500643510752407E-15, -7.972412489900592369 ) ) ;
#153 = EDGE_CURVE ( 'NONE', #51, #117, #157, .T. ) ;
#154 = PLANE ( 'NONE',  #228 ) ;
#155 = CC_DESIGN_SECURITY_CLASSIFICATION ( #52, ( #63 ) ) ;
#156 = DATE_AND_TIME ( #178, #67 ) ;
#157 = CIRCLE ( 'NONE', #220, 12.97241248990059148 ) ;
#158 = FACE_OUTER_BOUND ( 'NONE', #208, .T. ) ;
#159 = EDGE_CURVE ( 'NONE', #150, #31, #242, .T. ) ;
#160 = CC_DESIGN_APPROVAL ( #34, ( #184 ) ) ;
#161 = PERSON_AND_ORGANIZATION ( #28, #84 ) ;
#162 = DATE_TIME_ROLE ( 'classification_date' ) ;
#163 = APPROVAL_ROLE ( '' ) ;
#164 = PRODUCT_DEFINITION_SHAPE ( 'NONE', 'NONE',  #184 ) ;
#165 = EDGE_LOOP ( 'NONE', ( #36, #124 ) ) ;
#166 = ORIENTED_EDGE ( 'NONE', *, *, #13, .T. ) ;
#167 = DIRECTION ( 'NONE',  ( 1.000000000000000000, 0.000000000000000000, 0.000000000000000000 ) ) ;
#168 = CC_DESIGN_APPROVAL ( #198, ( #52 ) ) ;
#169 = COORDINATED_UNIVERSAL_TIME_OFFSET ( 1, 0, .AHEAD. ) ;
#170 = DIRECTION ( 'NONE',  ( 1.000000000000000000, 0.000000000000000000, 0.000000000000000000 ) ) ;
#171 = FACE_OUTER_BOUND ( 'NONE', #53, .T. ) ;
#172 = EDGE_LOOP ( 'NONE', ( #233, #205, #17, #147 ) ) ;
#173 = AXIS2_PLACEMENT_3D ( 'NONE', #249, #133, #237 ) ;
#174 = CARTESIAN_POINT ( 'NONE',  ( 30.00000000000000000, 0.000000000000000000, 0.000000000000000000 ) ) ;
#175 = DIRECTION ( 'NONE',  ( 0.000000000000000000, 0.000000000000000000, 1.000000000000000000 ) ) ;
#176 = CC_DESIGN_DATE_AND_TIME_ASSIGNMENT ( #95, #162, ( #52 ) ) ;
#177 = PERSON_AND_ORGANIZATION ( #28, #84 ) ;
#178 = CALENDAR_DATE ( 2024, 17, 7 ) ;
#179 = FACE_BOUND ( 'NONE', #165, .T. ) ;
#180 = CIRCLE ( 'NONE', #76, 12.97241248990059148 ) ;
#181 = APPROVAL_ROLE ( '' ) ;
#182 = PERSON_AND_ORGANIZATION ( #28, #84 ) ;
#183 = EDGE_LOOP ( 'NONE', ( #7, #245 ) ) ;
#184 = PRODUCT_DEFINITION ( 'UNKNOWN', '', #63, #200 ) ;
#185 = PERSON_AND_ORGANIZATION ( #28, #84 ) ;
#186 = VERTEX_POINT ( 'NONE', #152 ) ;
#187 = ADVANCED_FACE ( 'NONE', ( #201 ), #193, .T. ) ;
#188 = DATE_AND_TIME ( #246, #207 ) ;
#189 = LINE ( 'NONE', #61, #142 ) ;
#190 = LOCAL_TIME ( 14, 11, 37.00000000000000000, #234 ) ;
#191 = DIRECTION ( 'NONE',  ( 1.000000000000000000, 0.000000000000000000, 0.000000000000000000 ) ) ;
#192 = DIRECTION ( 'NONE',  ( 0.000000000000000000, 0.000000000000000000, -1.000000000000000000 ) ) ;
#193 = CONICAL_SURFACE ( 'NONE', #33, 10.00000000000000000, 0.1651486774146267988 ) ;
#194 = ORIENTED_EDGE ( 'NONE', *, *, #203, .F. ) ;
#195 = CONICAL_SURFACE ( 'NONE', #91, 8.027212152335712503, 0.1651486774146267988 ) ;
#196 = MECHANICAL_CONTEXT ( 'NONE', #132, 'mechanical' ) ;
#197 = APPROVAL_DATE_TIME ( #240, #34 ) ;
#198 = APPROVAL ( #37, 'UNSPECIFIED' ) ;
#199 = DIRECTION ( 'NONE',  ( 1.000000000000000000, 0.000000000000000000, 0.000000000000000000 ) ) ;
#200 = DESIGN_CONTEXT ( 'detailed design', #144, 'design' ) ;
#201 = FACE_OUTER_BOUND ( 'NONE', #247, .T. ) ;
#202 = SECURITY_CLASSIFICATION_LEVEL ( 'unclassified' ) ;
#203 = EDGE_CURVE ( 'NONE', #186, #117, #221, .T. ) ;
#204 = ORIENTED_EDGE ( 'NONE', *, *, #110, .F. ) ;
#205 = ORIENTED_EDGE ( 'NONE', *, *, #203, .T. ) ;
#206 = PRODUCT ( '3D_R169_ DN30-20_17323163', '3D_R169_ DN30-20_17323163', '', ( #196 ) ) ;
#207 = LOCAL_TIME ( 14, 11, 37.00000000000000000, #169 ) ;
#208 = EDGE_LOOP ( 'NONE', ( #204, #64 ) ) ;
#209 = AXIS2_PLACEMENT_3D ( 'NONE', #68, #199, #140 ) ;
#210 = CALENDAR_DATE ( 2024, 17, 7 ) ;
#211 = ORIENTED_EDGE ( 'NONE', *, *, #107, .F. ) ;
#212 = DIRECTION ( 'NONE',  ( 0.000000000000000000, 0.000000000000000000, -1.000000000000000000 ) ) ;
#213 = DIRECTION ( 'NONE',  ( 0.000000000000000000, 0.000000000000000000, -1.000000000000000000 ) ) ;
#214 = AXIS2_PLACEMENT_3D ( 'NONE', #113, #120, #138 ) ;
#215 = ADVANCED_FACE ( 'NONE', ( #179, #158 ), #154, .F. ) ;
#216 = DIRECTION ( 'NONE',  ( 0.000000000000000000, 0.000000000000000000, -1.000000000000000000 ) ) ;
#217 = CIRCLE ( 'NONE', #248, 10.00000000000000000 ) ;
#218 = CARTESIAN_POINT ( 'NONE',  ( 30.00000000000000000, 0.000000000000000000, 10.00000000000000000 ) ) ;
#219 = CARTESIAN_POINT ( 'NONE',  ( 30.00000000000000000, 0.000000000000000000, 0.000000000000000000 ) ) ;
#220 = AXIS2_PLACEMENT_3D ( 'NONE', #12, #11, #103 ) ;
#221 = LINE ( 'NONE', #29, #109 ) ;
#222 = CC_DESIGN_APPROVAL ( #45, ( #63 ) ) ;
#223 = DIRECTION ( 'NONE',  ( -0.9863939238321437486, 0.000000000000000000, 0.1643989873053572637 ) ) ;
#224 =( NAMED_UNIT ( * ) SI_UNIT ( $, .STERADIAN. ) SOLID_ANGLE_UNIT ( ) );
#225 = CC_DESIGN_PERSON_AND_ORGANIZATION_ASSIGNMENT ( #119, #27, ( #184 ) ) ;
#226 = ORIENTED_EDGE ( 'NONE', *, *, #93, .F. ) ;
#227 = ORIENTED_EDGE ( 'NONE', *, *, #107, .T. ) ;
#228 = AXIS2_PLACEMENT_3D ( 'NONE', #238, #136, #105 ) ;
#229 = AXIS2_PLACEMENT_3D ( 'NONE', #101, #170, #4 ) ;
#230 = CARTESIAN_POINT ( 'NONE',  ( 30.00000000000000000, 0.000000000000000000, 0.000000000000000000 ) ) ;
#231 = PERSON_AND_ORGANIZATION_ROLE ( 'design_supplier' ) ;
#232 = EDGE_CURVE ( 'NONE', #98, #186, #9, .T. ) ;
#233 = ORIENTED_EDGE ( 'NONE', *, *, #232, .T. ) ;
#234 = COORDINATED_UNIVERSAL_TIME_OFFSET ( 1, 0, .AHEAD. ) ;
#235 = CARTESIAN_POINT ( 'NONE',  ( 0.000000000000000000, 0.000000000000000000, 0.000000000000000000 ) ) ;
#236 = CARTESIAN_POINT ( 'NONE',  ( 0.000000000000000000, 0.000000000000000000, 0.000000000000000000 ) ) ;
#237 = DIRECTION ( 'NONE',  ( 0.000000000000000000, 0.000000000000000000, 1.000000000000000000 ) ) ;
#238 = CARTESIAN_POINT ( 'NONE',  ( 0.000000000000000000, 0.000000000000000000, 0.000000000000000000 ) ) ;
#239 = CIRCLE ( 'NONE', #229, 7.972412489900592369 ) ;
#240 = DATE_AND_TIME ( #88, #82 ) ;
#241 = CARTESIAN_POINT ( 'NONE',  ( 30.00000000000000000, 6.123233995736766282E-16, 10.00000000000000000 ) ) ;
#242 = LINE ( 'NONE', #218, #55 ) ;
#243 = APPLICATION_PROTOCOL_DEFINITION ( 'international standard', 'config_control_design', 1994, #144 ) ;
#244 = CC_DESIGN_DATE_AND_TIME_ASSIGNMENT ( #156, #121, ( #184 ) ) ;
#245 = ORIENTED_EDGE ( 'NONE', *, *, #100, .T. ) ;
#246 = CALENDAR_DATE ( 2024, 17, 7 ) ;
#247 = EDGE_LOOP ( 'NONE', ( #211, #83, #85, #126 ) ) ;
#248 = AXIS2_PLACEMENT_3D ( 'NONE', #174, #42, #216 ) ;
#249 = CARTESIAN_POINT ( 'NONE',  ( 29.67120202538928453, 0.000000000000000000, 0.000000000000000000 ) ) ;
ENDSEC;
END-ISO-10303-21;
