ISO-10303-21;
HEADER;
FILE_DESCRIPTION (( 'STEP AP203' ),
    '1' );
FILE_NAME ('3D_GR1234_42.4x2_188702255.STEP',
    '2024-10-14T11:59:51',
    ( '' ),
    ( '' ),
    'SwSTEP 2.0',
    'SolidWorks 2024',
    '' );
FILE_SCHEMA (( 'CONFIG_CONTROL_DESIGN' ));
ENDSEC;

DATA;
#1 = ORIENTED_EDGE ( 'NONE', *, *, #364, .F. ) ;
#2 = DIRECTION ( 'NONE',  ( 1.000000000000000000, 0.000000000000000000, 0.000000000000000000 ) ) ;
#3 = EDGE_CURVE ( 'NONE', #168, #319, #384, .T. ) ;
#4 = ORIENTED_EDGE ( 'NONE', *, *, #235, .F. ) ;
#5 = AXIS2_PLACEMENT_3D ( 'NONE', #131, #223, #155 ) ;
#6 = CARTESIAN_POINT ( 'NONE',  ( -1.515309782800195697E-15, 32.28692071745778236, 0.000000000000000000 ) ) ;
#7 = DIRECTION ( 'NONE',  ( 1.000000000000000000, 0.000000000000000000, 0.000000000000000000 ) ) ;
#8 = ADVANCED_FACE ( 'NONE', ( #129 ), #360, .T. ) ;
#9 = ORIENTED_EDGE ( 'NONE', *, *, #311, .T. ) ;
#10 = CC_DESIGN_PERSON_AND_ORGANIZATION_ASSIGNMENT ( #320, #292, ( #344 ) ) ;
#11 = VECTOR ( 'NONE', #166, 1000.000000000000000 ) ;
#12 = SPHERICAL_SURFACE ( 'NONE', #366, 21.19999999999999574 ) ;
#13 = ADVANCED_FACE ( 'NONE', ( #153 ), #124, .T. ) ;
#14 = DIRECTION ( 'NONE',  ( -1.000000000000000000, 0.000000000000000000, 1.224646799147353207E-16 ) ) ;
#15 = DIRECTION ( 'NONE',  ( 1.000000000000000000, 0.000000000000000000, 0.000000000000000000 ) ) ;
#16 = CIRCLE ( 'NONE', #315, 21.19999999999999574 ) ;
#17 = DIRECTION ( 'NONE',  ( 1.000000000000000000, 0.000000000000000000, 0.000000000000000000 ) ) ;
#18 = DATE_AND_TIME ( #138, #132 ) ;
#19 = CARTESIAN_POINT ( 'NONE',  ( 0.000000000000000000, 11.08692071745779018, 0.000000000000000000 ) ) ;
#20 = ADVANCED_FACE ( 'NONE', ( #211 ), #210, .T. ) ;
#21 = CARTESIAN_POINT ( 'NONE',  ( 16.19999999999999574, -7.913079282542215154, 0.000000000000000000 ) ) ;
#22 = COORDINATED_UNIVERSAL_TIME_OFFSET ( 1, 0, .AHEAD. ) ;
#23 = CIRCLE ( 'NONE', #242, 21.19999999999999574 ) ;
#24 = VERTEX_POINT ( 'NONE', #184 ) ;
#25 = CARTESIAN_POINT ( 'NONE',  ( 0.000000000000000000, 11.08692071745779018, 0.000000000000000000 ) ) ;
#26 = ORIENTED_EDGE ( 'NONE', *, *, #176, .T. ) ;
#27 = CC_DESIGN_PERSON_AND_ORGANIZATION_ASSIGNMENT ( #197, #162, ( #87 ) ) ;
#28 = VERTEX_POINT ( 'NONE', #278 ) ;
#29 = APPROVAL_PERSON_ORGANIZATION ( #167, #186, #287 ) ;
#30 = VERTEX_POINT ( 'NONE', #272 ) ;
#31 = AXIS2_PLACEMENT_3D ( 'NONE', #362, #34, #7 ) ;
#32 = DATE_AND_TIME ( #145, #340 ) ;
#33 = ORIENTED_EDGE ( 'NONE', *, *, #309, .T. ) ;
#34 = DIRECTION ( 'NONE',  ( 1.024453658981139148E-17, -1.000000000000000000, -0.000000000000000000 ) ) ;
#35 = ORIENTED_EDGE ( 'NONE', *, *, #364, .T. ) ;
#36 = CIRCLE ( 'NONE', #5, 16.20000000000000284 ) ;
#37 = DIRECTION ( 'NONE',  ( 1.024453658981139148E-17, -1.000000000000000000, -0.000000000000000000 ) ) ;
#38 = UNCERTAINTY_MEASURE_WITH_UNIT (LENGTH_MEASURE( 1.000000000000000082E-05 ), #286, 'distance_accuracy_value', 'NONE');
#39 = CARTESIAN_POINT ( 'NONE',  ( 2.149460580469620995E-16, 32.28692071745778236, 0.000000000000000000 ) ) ;
#40 = FACE_OUTER_BOUND ( 'NONE', #266, .T. ) ;
#41 = APPROVAL ( #122, 'UNSPECIFIED' ) ;
#42 = CIRCLE ( 'NONE', #156, 21.19999999999999929 ) ;
#43 = CARTESIAN_POINT ( 'NONE',  ( 6.165318923675686307E-16, -6.913079282542214266, 0.000000000000000000 ) ) ;
#44 = CARTESIAN_POINT ( 'NONE',  ( 4.321302337509635347E-16, 11.08692071745778840, 0.000000000000000000 ) ) ;
#45 = DIRECTION ( 'NONE',  ( 1.000000000000000000, 0.000000000000000000, 0.000000000000000000 ) ) ;
#46 = CONICAL_SURFACE ( 'NONE', #299, 19.20000000000000284, 0.4636476090008088691 ) ;
#47 = AXIS2_PLACEMENT_3D ( 'NONE', #187, #248, #126 ) ;
#48 = DIRECTION ( 'NONE',  ( 1.024453658981139148E-17, -1.000000000000000000, -0.000000000000000000 ) ) ;
#49 = APPLICATION_CONTEXT ( 'configuration controlled 3d designs of mechanical parts and assemblies' ) ;
#50 = DIRECTION ( 'NONE',  ( -1.000000000000000000, 0.000000000000000000, 0.000000000000000000 ) ) ;
#51 = DIRECTION ( 'NONE',  ( -1.000000000000000000, -1.024453658981139148E-17, 0.000000000000000000 ) ) ;
#52 = APPROVAL_DATE_TIME ( #200, #277 ) ;
#53 = EDGE_LOOP ( 'NONE', ( #117, #177, #143 ) ) ;
#54 = ADVANCED_FACE ( 'NONE', ( #306 ), #94, .F. ) ;
#55 = ORIENTED_EDGE ( 'NONE', *, *, #376, .F. ) ;
#56 = VERTEX_POINT ( 'NONE', #243 ) ;
#57 = PERSON_AND_ORGANIZATION_ROLE ( 'classification_officer' ) ;
#58 = ORIENTED_EDGE ( 'NONE', *, *, #245, .T. ) ;
#59 = AXIS2_PLACEMENT_3D ( 'NONE', #345, #161, #251 ) ;
#60 = ADVANCED_FACE ( 'NONE', ( #40 ), #246, .F. ) ;
#61 = SECURITY_CLASSIFICATION ( '', '', #104 ) ;
#62 = ORIENTED_EDGE ( 'NONE', *, *, #85, .T. ) ;
#63 = DIRECTION ( 'NONE',  ( 1.024453658981139148E-17, -1.000000000000000000, -0.000000000000000000 ) ) ;
#64 = CARTESIAN_POINT ( 'NONE',  ( 2.149460580469620995E-16, 32.28692071745778236, 0.000000000000000000 ) ) ;
#65 = CARTESIAN_POINT ( 'NONE',  ( -18.69999999999999929, -7.913079282542211601, 0.000000000000000000 ) ) ;
#66 = CARTESIAN_POINT ( 'NONE',  ( 2.149460580469620995E-16, 32.28692071745778236, 0.000000000000000000 ) ) ;
#67 = CARTESIAN_POINT ( 'NONE',  ( -19.20000000000000284, -6.913079282542214266, 0.000000000000000000 ) ) ;
#68 = AXIS2_PLACEMENT_3D ( 'NONE', #291, #270, #51 ) ;
#69 = CC_DESIGN_APPROVAL ( #277, ( #344 ) ) ;
#70 = CIRCLE ( 'NONE', #289, 19.20000000000000284 ) ;
#71 = DIRECTION ( 'NONE',  ( 0.000000000000000000, 0.000000000000000000, 1.000000000000000000 ) ) ;
#72 = FACE_OUTER_BOUND ( 'NONE', #86, .T. ) ;
#73 = DIRECTION ( 'NONE',  ( -1.000000000000000000, 0.000000000000000000, 0.000000000000000000 ) ) ;
#74 = AXIS2_PLACEMENT_3D ( 'NONE', #363, #99, #219 ) ;
#75 = CC_DESIGN_APPROVAL ( #186, ( #260 ) ) ;
#76 = EDGE_CURVE ( 'NONE', #208, #149, #195, .T. ) ;
#77 = DIRECTION ( 'NONE',  ( 1.000000000000000000, 0.000000000000000000, 0.000000000000000000 ) ) ;
#78 = DATE_AND_TIME ( #227, #178 ) ;
#79 = ORIENTED_EDGE ( 'NONE', *, *, #176, .F. ) ;
#80 = APPROVAL_STATUS ( 'not_yet_approved' ) ;
#81 = ORIENTED_EDGE ( 'NONE', *, *, #213, .F. ) ;
#82 = COORDINATED_UNIVERSAL_TIME_OFFSET ( 1, 0, .AHEAD. ) ;
#83 = ORIENTED_EDGE ( 'NONE', *, *, #105, .F. ) ;
#84 = VERTEX_POINT ( 'NONE', #361 ) ;
#85 = EDGE_CURVE ( 'NONE', #149, #168, #307, .T. ) ;
#86 = EDGE_LOOP ( 'NONE', ( #179, #26, #268 ) ) ;
#87 = PRODUCT ( '3D_GR1234_42.4x2_188702255', '3D_GR1234_42.4x2_188702255', '', ( #127 ) ) ;
#88 = CALENDAR_DATE ( 2024, 14, 10 ) ;
#89 = CARTESIAN_POINT ( 'NONE',  ( 0.000000000000000000, 11.08692071745779195, 0.000000000000000000 ) ) ;
#90 = AXIS2_PLACEMENT_3D ( 'NONE', #365, #71, #45 ) ;
#91 = VERTEX_POINT ( 'NONE', #6 ) ;
#92 = EDGE_CURVE ( 'NONE', #84, #168, #150, .T. ) ;
#93 = DIRECTION ( 'NONE',  ( 1.000000000000000000, 0.000000000000000000, 0.000000000000000000 ) ) ;
#94 = CYLINDRICAL_SURFACE ( 'NONE', #341, 16.19999999999999929 ) ;
#95 = CIRCLE ( 'NONE', #193, 19.19999999999999574 ) ;
#96 = DIRECTION ( 'NONE',  ( 1.000000000000000000, 0.000000000000000000, 0.000000000000000000 ) ) ;
#97 = FACE_OUTER_BOUND ( 'NONE', #233, .T. ) ;
#98 = ADVANCED_FACE ( 'NONE', ( #215, #181 ), #303, .F. ) ;
#99 = DIRECTION ( 'NONE',  ( 1.024453658981139148E-17, -1.000000000000000000, -0.000000000000000000 ) ) ;
#100 = ADVANCED_FACE ( 'NONE', ( #97 ), #46, .T. ) ;
#101 = DIRECTION ( 'NONE',  ( 1.000000000000000000, 0.000000000000000000, 0.000000000000000000 ) ) ;
#102 = CARTESIAN_POINT ( 'NONE',  ( 0.000000000000000000, 11.08692071745779195, 0.000000000000000000 ) ) ;
#103 = DIRECTION ( 'NONE',  ( -1.024453658981139148E-17, 1.000000000000000000, 0.000000000000000000 ) ) ;
#104 = SECURITY_CLASSIFICATION_LEVEL ( 'unclassified' ) ;
#105 = EDGE_CURVE ( 'NONE', #323, #84, #305, .T. ) ;
#106 = CARTESIAN_POINT ( 'NONE',  ( 4.321302337509635347E-16, 11.08692071745778840, 0.000000000000000000 ) ) ;
#107 = AXIS2_PLACEMENT_3D ( 'NONE', #368, #157, #17 ) ;
#108 =( NAMED_UNIT ( * ) PLANE_ANGLE_UNIT ( ) SI_UNIT ( $, .RADIAN. ) );
#109 = COORDINATED_UNIVERSAL_TIME_OFFSET ( 1, 0, .AHEAD. ) ;
#110 = ORIENTED_EDGE ( 'NONE', *, *, #382, .T. ) ;
#111 = ORIENTED_EDGE ( 'NONE', *, *, #160, .F. ) ;
#112 = APPLICATION_PROTOCOL_DEFINITION ( 'international standard', 'config_control_design', 1994, #234 ) ;
#113 = PERSON_AND_ORGANIZATION ( #294, #253 ) ;
#114 = EDGE_LOOP ( 'NONE', ( #298, #33, #58 ) ) ;
#115 = DIRECTION ( 'NONE',  ( 1.024453658981139148E-17, -1.000000000000000000, -0.000000000000000000 ) ) ;
#116 = AXIS2_PLACEMENT_3D ( 'NONE', #244, #240, #2 ) ;
#117 = ORIENTED_EDGE ( 'NONE', *, *, #309, .F. ) ;
#118 = EDGE_CURVE ( 'NONE', #323, #319, #283, .T. ) ;
#119 = FACE_OUTER_BOUND ( 'NONE', #53, .T. ) ;
#120 = ORIENTED_EDGE ( 'NONE', *, *, #213, .T. ) ;
#121 = CC_DESIGN_PERSON_AND_ORGANIZATION_ASSIGNMENT ( #113, #378, ( #260 ) ) ;
#122 = APPROVAL_STATUS ( 'not_yet_approved' ) ;
#123 = DIRECTION ( 'NONE',  ( 1.024453658981139148E-17, -1.000000000000000000, -0.000000000000000000 ) ) ;
#124 = CYLINDRICAL_SURFACE ( 'NONE', #336, 19.20000000000000284 ) ;
#125 = VECTOR ( 'NONE', #128, 1000.000000000000000 ) ;
#126 = DIRECTION ( 'NONE',  ( 1.000000000000000000, 0.000000000000000000, 0.000000000000000000 ) ) ;
#127 = MECHANICAL_CONTEXT ( 'NONE', #234, 'mechanical' ) ;
#128 = DIRECTION ( 'NONE',  ( 0.4472135954999604257, 0.8944271909999146342, 5.476786982642057059E-17 ) ) ;
#129 = FACE_OUTER_BOUND ( 'NONE', #352, .T. ) ;
#130 = DIRECTION ( 'NONE',  ( -0.4472135954999604257, 0.8944271909999146342, 0.000000000000000000 ) ) ;
#131 = CARTESIAN_POINT ( 'NONE',  ( 3.265568172123940406E-16, 21.39225913984837391, 0.000000000000000000 ) ) ;
#132 = LOCAL_TIME ( 13, 59, 51.00000000000000000, #22 ) ;
#133 = DIRECTION ( 'NONE',  ( -1.000000000000000000, 0.000000000000000000, 0.000000000000000000 ) ) ;
#134 = PERSON_AND_ORGANIZATION_ROLE ( 'design_supplier' ) ;
#135 = CARTESIAN_POINT ( 'NONE',  ( 6.165318923675686307E-16, -6.913079282542214266, 0.000000000000000000 ) ) ;
#136 = PERSON_AND_ORGANIZATION ( #294, #253 ) ;
#137 = CIRCLE ( 'NONE', #357, 19.20000000000000284 ) ;
#138 = CALENDAR_DATE ( 2024, 14, 10 ) ;
#139 = ORIENTED_EDGE ( 'NONE', *, *, #3, .F. ) ;
#140 = DIRECTION ( 'NONE',  ( 0.000000000000000000, 0.000000000000000000, -1.000000000000000000 ) ) ;
#141 = COORDINATED_UNIVERSAL_TIME_OFFSET ( 1, 0, .AHEAD. ) ;
#142 = ORIENTED_EDGE ( 'NONE', *, *, #76, .T. ) ;
#143 = ORIENTED_EDGE ( 'NONE', *, *, #217, .T. ) ;
#144 = SPHERICAL_SURFACE ( 'NONE', #209, 19.19999999999999574 ) ;
#145 = CALENDAR_DATE ( 2024, 14, 10 ) ;
#146 = ORIENTED_EDGE ( 'NONE', *, *, #356, .T. ) ;
#147 = ADVANCED_FACE ( 'NONE', ( #220 ), #192, .F. ) ;
#148 = PERSON_AND_ORGANIZATION ( #294, #253 ) ;
#149 = VERTEX_POINT ( 'NONE', #347 ) ;
#150 = LINE ( 'NONE', #185, #249 ) ;
#151 = CIRCLE ( 'NONE', #74, 16.19999999999999574 ) ;
#152 = ORIENTED_EDGE ( 'NONE', *, *, #235, .T. ) ;
#153 = FACE_OUTER_BOUND ( 'NONE', #326, .T. ) ;
#154 = DIRECTION ( 'NONE',  ( -1.024453658981139148E-17, 1.000000000000000000, 0.000000000000000000 ) ) ;
#155 = DIRECTION ( 'NONE',  ( 1.000000000000000000, 0.000000000000000000, 0.000000000000000000 ) ) ;
#156 = AXIS2_PLACEMENT_3D ( 'NONE', #230, #115, #232 ) ;
#157 = DIRECTION ( 'NONE',  ( 1.024453658981139148E-17, -1.000000000000000000, -0.000000000000000000 ) ) ;
#158 = EDGE_CURVE ( 'NONE', #24, #30, #189, .T. ) ;
#159 = DIRECTION ( 'NONE',  ( 1.000000000000000000, 0.000000000000000000, 0.000000000000000000 ) ) ;
#160 = EDGE_CURVE ( 'NONE', #319, #168, #137, .T. ) ;
#161 = DIRECTION ( 'NONE',  ( 1.024453658981139148E-17, -1.000000000000000000, -0.000000000000000000 ) ) ;
#162 = PERSON_AND_ORGANIZATION_ROLE ( 'design_owner' ) ;
#163 = CARTESIAN_POINT ( 'NONE',  ( 0.000000000000000000, 11.08692071745779195, 0.000000000000000000 ) ) ;
#164 = CARTESIAN_POINT ( 'NONE',  ( 4.321302337509635347E-16, 11.08692071745778840, 0.000000000000000000 ) ) ;
#165 = APPLICATION_PROTOCOL_DEFINITION ( 'international standard', 'config_control_design', 1994, #49 ) ;
#166 = DIRECTION ( 'NONE',  ( 1.024453658981139148E-17, -1.000000000000000000, -0.000000000000000000 ) ) ;
#167 = PERSON_AND_ORGANIZATION ( #294, #253 ) ;
#168 = VERTEX_POINT ( 'NONE', #257 ) ;
#169 =( GEOMETRIC_REPRESENTATION_CONTEXT ( 3 ) GLOBAL_UNCERTAINTY_ASSIGNED_CONTEXT ( ( #38 ) ) GLOBAL_UNIT_ASSIGNED_CONTEXT ( ( #286, #108, #377 ) ) REPRESENTATION_CONTEXT ( 'NONE', 'WORKASPACE' ) );
#170 = AXIS2_PLACEMENT_3D ( 'NONE', #64, #63, #180 ) ;
#171 = FACE_BOUND ( 'NONE', #206, .T. ) ;
#172 = ORIENTED_EDGE ( 'NONE', *, *, #160, .T. ) ;
#173 = DIRECTION ( 'NONE',  ( 1.000000000000000000, 0.000000000000000000, 0.000000000000000000 ) ) ;
#174 = DATE_TIME_ROLE ( 'classification_date' ) ;
#175 = ORIENTED_EDGE ( 'NONE', *, *, #290, .T. ) ;
#176 = EDGE_CURVE ( 'NONE', #91, #383, #23, .T. ) ;
#177 = ORIENTED_EDGE ( 'NONE', *, *, #158, .T. ) ;
#178 = LOCAL_TIME ( 13, 59, 51.00000000000000000, #141 ) ;
#179 = ORIENTED_EDGE ( 'NONE', *, *, #290, .F. ) ;
#180 = DIRECTION ( 'NONE',  ( 1.000000000000000000, 0.000000000000000000, 0.000000000000000000 ) ) ;
#181 = FACE_OUTER_BOUND ( 'NONE', #293, .T. ) ;
#182 = CC_DESIGN_DATE_AND_TIME_ASSIGNMENT ( #32, #174, ( #61 ) ) ;
#183 = AXIS2_PLACEMENT_3D ( 'NONE', #196, #371, #15 ) ;
#184 = CARTESIAN_POINT ( 'NONE',  ( -1.372356029705837322E-15, 30.28692071745778236, 0.000000000000000000 ) ) ;
#185 = CARTESIAN_POINT ( 'NONE',  ( 19.20000000000000284, 32.28692071745778236, 0.000000000000000000 ) ) ;
#186 = APPROVAL ( #370, 'UNSPECIFIED' ) ;
#187 = CARTESIAN_POINT ( 'NONE',  ( 2.149460580469620995E-16, 32.28692071745778236, 0.000000000000000000 ) ) ;
#188 = FACE_OUTER_BOUND ( 'NONE', #355, .T. ) ;
#189 = CIRCLE ( 'NONE', #90, 19.19999999999999574 ) ;
#190 = DIRECTION ( 'NONE',  ( 1.024453658981139148E-17, -1.000000000000000000, -0.000000000000000000 ) ) ;
#191 = DIRECTION ( 'NONE',  ( 1.024453658981139148E-17, -1.000000000000000000, -0.000000000000000000 ) ) ;
#192 = SPHERICAL_SURFACE ( 'NONE', #203, 19.19999999999999574 ) ;
#193 = AXIS2_PLACEMENT_3D ( 'NONE', #19, #222, #14 ) ;
#194 = CC_DESIGN_SECURITY_CLASSIFICATION ( #61, ( #260 ) ) ;
#195 = CIRCLE ( 'NONE', #31, 18.69999999999999929 ) ;
#196 = CARTESIAN_POINT ( 'NONE',  ( 6.267764289573800468E-16, -7.913079282542215154, 0.000000000000000000 ) ) ;
#197 = PERSON_AND_ORGANIZATION ( #294, #253 ) ;
#198 = CARTESIAN_POINT ( 'NONE',  ( 0.000000000000000000, 0.000000000000000000, 0.000000000000000000 ) ) ;
#199 = ORIENTED_EDGE ( 'NONE', *, *, #118, .F. ) ;
#200 = DATE_AND_TIME ( #284, #241 ) ;
#201 = ORIENTED_EDGE ( 'NONE', *, *, #217, .F. ) ;
#202 = CC_DESIGN_APPROVAL ( #41, ( #61 ) ) ;
#203 = AXIS2_PLACEMENT_3D ( 'NONE', #343, #313, #281 ) ;
#204 = DATE_AND_TIME ( #88, #304 ) ;
#205 = ORIENTED_EDGE ( 'NONE', *, *, #76, .F. ) ;
#206 = EDGE_LOOP ( 'NONE', ( #81, #83 ) ) ;
#207 = FACE_OUTER_BOUND ( 'NONE', #263, .T. ) ;
#208 = VERTEX_POINT ( 'NONE', #312 ) ;
#209 = AXIS2_PLACEMENT_3D ( 'NONE', #25, #140, #50 ) ;
#210 = SPHERICAL_SURFACE ( 'NONE', #367, 21.19999999999999574 ) ;
#211 = FACE_OUTER_BOUND ( 'NONE', #237, .T. ) ;
#212 = ORIENTED_EDGE ( 'NONE', *, *, #382, .F. ) ;
#213 = EDGE_CURVE ( 'NONE', #84, #323, #70, .T. ) ;
#214 = CIRCLE ( 'NONE', #183, 18.69999999999999929 ) ;
#215 = FACE_BOUND ( 'NONE', #375, .T. ) ;
#216 = CLOSED_SHELL ( 'NONE', ( #60, #147, #20, #8, #302, #100, #13, #324, #264, #337, #54, #98 ) ) ;
#217 = EDGE_CURVE ( 'NONE', #30, #28, #254, .T. ) ;
#218 = CARTESIAN_POINT ( 'NONE',  ( 6.165318923675686307E-16, -6.913079282542214266, 0.000000000000000000 ) ) ;
#219 = DIRECTION ( 'NONE',  ( 1.000000000000000000, 0.000000000000000000, 0.000000000000000000 ) ) ;
#220 = FACE_OUTER_BOUND ( 'NONE', #114, .T. ) ;
#221 = CARTESIAN_POINT ( 'NONE',  ( -19.20000000000000284, 32.28692071745778236, 2.351321854362918079E-15 ) ) ;
#222 = DIRECTION ( 'NONE',  ( -1.224646799147353207E-16, -1.254593894346046134E-33, -1.000000000000000000 ) ) ;
#223 = DIRECTION ( 'NONE',  ( 1.024453658981139148E-17, -1.000000000000000000, -0.000000000000000000 ) ) ;
#224 = AXIS2_PLACEMENT_3D ( 'NONE', #164, #295, #173 ) ;
#225 = APPROVAL_PERSON_ORGANIZATION ( #136, #277, #374 ) ;
#226 = VECTOR ( 'NONE', #191, 1000.000000000000000 ) ;
#227 = CALENDAR_DATE ( 2024, 14, 10 ) ;
#228 = ORIENTED_EDGE ( 'NONE', *, *, #85, .F. ) ;
#229 = PRODUCT_RELATED_PRODUCT_CATEGORY ( 'detail', '', ( #87 ) ) ;
#230 = CARTESIAN_POINT ( 'NONE',  ( 4.321302337509635347E-16, 11.08692071745778840, 0.000000000000000000 ) ) ;
#231 = EDGE_LOOP ( 'NONE', ( #1, #271, #379, #328 ) ) ;
#232 = DIRECTION ( 'NONE',  ( 1.000000000000000000, 0.000000000000000000, 0.000000000000000000 ) ) ;
#233 = EDGE_LOOP ( 'NONE', ( #228, #205, #288, #172 ) ) ;
#234 = APPLICATION_CONTEXT ( 'configuration controlled 3d designs of mechanical parts and assemblies' ) ;
#235 = EDGE_CURVE ( 'NONE', #149, #208, #214, .T. ) ;
#236 = APPROVAL_DATE_TIME ( #204, #41 ) ;
#237 = EDGE_LOOP ( 'NONE', ( #79, #175, #212 ) ) ;
#238 = CARTESIAN_POINT ( 'NONE',  ( -16.19999999999999574, -7.913079282542215154, 1.983927814618711451E-15 ) ) ;
#239 = ORIENTED_EDGE ( 'NONE', *, *, #3, .T. ) ;
#240 = DIRECTION ( 'NONE',  ( 1.024453658981139148E-17, -1.000000000000000000, -0.000000000000000000 ) ) ;
#241 = LOCAL_TIME ( 13, 59, 51.00000000000000000, #109 ) ;
#242 = AXIS2_PLACEMENT_3D ( 'NONE', #102, #316, #77 ) ;
#243 = CARTESIAN_POINT ( 'NONE',  ( 21.19999999999999574, 11.08692071745778840, -2.596251214192388770E-15 ) ) ;
#244 = CARTESIAN_POINT ( 'NONE',  ( 6.165318923675686307E-16, -6.913079282542214266, 0.000000000000000000 ) ) ;
#245 = EDGE_CURVE ( 'NONE', #28, #30, #36, .T. ) ;
#246 = CYLINDRICAL_SURFACE ( 'NONE', #170, 16.19999999999999929 ) ;
#247 = MANIFOLD_SOLID_BREP ( 'Rotation1', #216 ) ;
#248 = DIRECTION ( 'NONE',  ( 1.024453658981139148E-17, -1.000000000000000000, -0.000000000000000000 ) ) ;
#249 = VECTOR ( 'NONE', #358, 1000.000000000000000 ) ;
#250 = DIRECTION ( 'NONE',  ( -1.000000000000000000, 0.000000000000000000, 1.224646799147353207E-16 ) ) ;
#251 = DIRECTION ( 'NONE',  ( 1.000000000000000000, 0.000000000000000000, 0.000000000000000000 ) ) ;
#252 = DIRECTION ( 'NONE',  ( 1.024453658981139148E-17, -1.000000000000000000, -0.000000000000000000 ) ) ;
#253 = ORGANIZATION ( 'UNSPECIFIED', 'UNSPECIFIED', '' ) ;
#254 = CIRCLE ( 'NONE', #107, 16.20000000000000284 ) ;
#255 = CARTESIAN_POINT ( 'NONE',  ( 0.000000000000000000, 11.08692071745779195, 0.000000000000000000 ) ) ;
#256 = EDGE_CURVE ( 'NONE', #335, #351, #280, .T. ) ;
#257 = CARTESIAN_POINT ( 'NONE',  ( 19.20000000000000284, -6.913079282542214266, 2.351321854362918079E-15 ) ) ;
#258 = PLANE ( 'NONE',  #68 ) ;
#259 = VECTOR ( 'NONE', #130, 1000.000000000000000 ) ;
#260 = PRODUCT_DEFINITION_FORMATION_WITH_SPECIFIED_SOURCE ( 'ANY', '', #87, .NOT_KNOWN. ) ;
#261 = ADVANCED_BREP_SHAPE_REPRESENTATION ( '3D_GR1234_42.4x2_188702255', ( #247, #321 ), #169 ) ;
#262 = APPROVAL_DATE_TIME ( #18, #186 ) ;
#263 = EDGE_LOOP ( 'NONE', ( #110, #146 ) ) ;
#264 = ADVANCED_FACE ( 'NONE', ( #72 ), #12, .T. ) ;
#265 = CARTESIAN_POINT ( 'NONE',  ( -16.19999999999999929, 32.28692071745778236, 1.983927814618711846E-15 ) ) ;
#266 = EDGE_LOOP ( 'NONE', ( #201, #35, #9, #55 ) ) ;
#267 = CARTESIAN_POINT ( 'NONE',  ( 16.19999999999999929, 32.28692071745778236, 0.000000000000000000 ) ) ;
#268 = ORIENTED_EDGE ( 'NONE', *, *, #356, .F. ) ;
#269 = AXIS2_PLACEMENT_3D ( 'NONE', #44, #48, #339 ) ;
#270 = DIRECTION ( 'NONE',  ( -1.024453658981139148E-17, 1.000000000000000000, 0.000000000000000000 ) ) ;
#271 = ORIENTED_EDGE ( 'NONE', *, *, #245, .F. ) ;
#272 = CARTESIAN_POINT ( 'NONE',  ( -16.20000000000000284, 21.39225913984837391, 0.000000000000000000 ) ) ;
#273 = EDGE_CURVE ( 'NONE', #208, #319, #314, .T. ) ;
#274 = DIRECTION ( 'NONE',  ( 1.000000000000000000, 0.000000000000000000, 0.000000000000000000 ) ) ;
#275 = AXIS2_PLACEMENT_3D ( 'NONE', #65, #154, #279 ) ;
#276 = ORIENTED_EDGE ( 'NONE', *, *, #273, .F. ) ;
#277 = APPROVAL ( #80, 'UNSPECIFIED' ) ;
#278 = CARTESIAN_POINT ( 'NONE',  ( 16.20000000000000284, 21.39225913984837391, -1.983927814618712240E-15 ) ) ;
#279 = DIRECTION ( 'NONE',  ( -1.000000000000000000, -1.024453658981139148E-17, 0.000000000000000000 ) ) ;
#280 = CIRCLE ( 'NONE', #59, 16.19999999999999574 ) ;
#281 = DIRECTION ( 'NONE',  ( -1.000000000000000000, 0.000000000000000000, 0.000000000000000000 ) ) ;
#282 = CARTESIAN_POINT ( 'NONE',  ( -19.20000000000000284, 11.08692071745778840, 2.351321854362918079E-15 ) ) ;
#283 = LINE ( 'NONE', #221, #226 ) ;
#284 = CALENDAR_DATE ( 2024, 14, 10 ) ;
#285 = CARTESIAN_POINT ( 'NONE',  ( -19.20000000000000284, -6.913079282542214266, 0.000000000000000000 ) ) ;
#286 =( LENGTH_UNIT ( ) NAMED_UNIT ( * ) SI_UNIT ( .MILLI., .METRE. ) );
#287 = APPROVAL_ROLE ( '' ) ;
#288 = ORIENTED_EDGE ( 'NONE', *, *, #273, .T. ) ;
#289 = AXIS2_PLACEMENT_3D ( 'NONE', #106, #190, #159 ) ;
#290 = EDGE_CURVE ( 'NONE', #91, #56, #16, .T. ) ;
#291 = CARTESIAN_POINT ( 'NONE',  ( -21.19999999999999929, 11.08692071745778840, 0.000000000000000000 ) ) ;
#292 = PERSON_AND_ORGANIZATION_ROLE ( 'creator' ) ;
#293 = EDGE_LOOP ( 'NONE', ( #142, #152 ) ) ;
#294 = PERSON ( 'UNSPECIFIED', 'UNSPECIFIED', 'UNSPECIFIED', ('UNSPECIFIED'), ('UNSPECIFIED'), ('UNSPECIFIED') ) ;
#295 = DIRECTION ( 'NONE',  ( 1.024453658981139148E-17, -1.000000000000000000, -0.000000000000000000 ) ) ;
#296 = ORIENTED_EDGE ( 'NONE', *, *, #256, .F. ) ;
#297 = CARTESIAN_POINT ( 'NONE',  ( -21.19999999999999574, 11.08692071745778840, 0.000000000000000000 ) ) ;
#298 = ORIENTED_EDGE ( 'NONE', *, *, #158, .F. ) ;
#299 = AXIS2_PLACEMENT_3D ( 'NONE', #218, #338, #342 ) ;
#300 = COORDINATED_UNIVERSAL_TIME_OFFSET ( 1, 0, .AHEAD. ) ;
#301 = ORIENTED_EDGE ( 'NONE', *, *, #92, .T. ) ;
#302 = ADVANCED_FACE ( 'NONE', ( #188 ), #385, .T. ) ;
#303 = PLANE ( 'NONE',  #275 ) ;
#304 = LOCAL_TIME ( 13, 59, 51.00000000000000000, #300 ) ;
#305 = CIRCLE ( 'NONE', #269, 19.20000000000000284 ) ;
#306 = FACE_OUTER_BOUND ( 'NONE', #231, .T. ) ;
#307 = LINE ( 'NONE', #334, #125 ) ;
#308 = DIRECTION ( 'NONE',  ( -1.000000000000000000, 0.000000000000000000, 0.000000000000000000 ) ) ;
#309 = EDGE_CURVE ( 'NONE', #24, #28, #95, .T. ) ;
#310 = DIRECTION ( 'NONE',  ( 0.000000000000000000, 0.000000000000000000, -1.000000000000000000 ) ) ;
#311 = EDGE_CURVE ( 'NONE', #351, #335, #151, .T. ) ;
#312 = CARTESIAN_POINT ( 'NONE',  ( -18.69999999999999929, -7.913079282542215154, 0.000000000000000000 ) ) ;
#313 = DIRECTION ( 'NONE',  ( 0.000000000000000000, 0.000000000000000000, -1.000000000000000000 ) ) ;
#314 = LINE ( 'NONE', #285, #259 ) ;
#315 = AXIS2_PLACEMENT_3D ( 'NONE', #255, #369, #250 ) ;
#316 = DIRECTION ( 'NONE',  ( 0.000000000000000000, 0.000000000000000000, 1.000000000000000000 ) ) ;
#317 = DIRECTION ( 'NONE',  ( 0.000000000000000000, 0.000000000000000000, 1.000000000000000000 ) ) ;
#318 = DATE_TIME_ROLE ( 'creation_date' ) ;
#319 = VERTEX_POINT ( 'NONE', #67 ) ;
#320 = PERSON_AND_ORGANIZATION ( #294, #253 ) ;
#321 = AXIS2_PLACEMENT_3D ( 'NONE', #198, #317, #96 ) ;
#322 = ORIENTED_EDGE ( 'NONE', *, *, #105, .T. ) ;
#323 = VERTEX_POINT ( 'NONE', #282 ) ;
#324 = ADVANCED_FACE ( 'NONE', ( #171, #207 ), #258, .F. ) ;
#325 = PERSON_AND_ORGANIZATION ( #294, #253 ) ;
#326 = EDGE_LOOP ( 'NONE', ( #199, #322, #301, #111 ) ) ;
#327 = CC_DESIGN_DATE_AND_TIME_ASSIGNMENT ( #78, #318, ( #344 ) ) ;
#328 = ORIENTED_EDGE ( 'NONE', *, *, #256, .T. ) ;
#329 = AXIS2_PLACEMENT_3D ( 'NONE', #43, #103, #73 ) ;
#330 = APPROVAL_ROLE ( '' ) ;
#331 = CC_DESIGN_PERSON_AND_ORGANIZATION_ASSIGNMENT ( #325, #57, ( #61 ) ) ;
#332 = DIRECTION ( 'NONE',  ( 0.000000000000000000, 0.000000000000000000, -1.000000000000000000 ) ) ;
#333 = PRODUCT_DEFINITION_SHAPE ( 'NONE', 'NONE',  #344 ) ;
#334 = CARTESIAN_POINT ( 'NONE',  ( 19.20000000000000284, -6.913079282542214266, 2.351321854362918079E-15 ) ) ;
#335 = VERTEX_POINT ( 'NONE', #21 ) ;
#336 = AXIS2_PLACEMENT_3D ( 'NONE', #66, #123, #93 ) ;
#337 = ADVANCED_FACE ( 'NONE', ( #119 ), #144, .F. ) ;
#338 = DIRECTION ( 'NONE',  ( -1.024453658981139148E-17, 1.000000000000000000, 0.000000000000000000 ) ) ;
#339 = DIRECTION ( 'NONE',  ( 1.000000000000000000, 0.000000000000000000, 0.000000000000000000 ) ) ;
#340 = LOCAL_TIME ( 13, 59, 51.00000000000000000, #82 ) ;
#341 = AXIS2_PLACEMENT_3D ( 'NONE', #39, #37, #274 ) ;
#342 = DIRECTION ( 'NONE',  ( -1.000000000000000000, 0.000000000000000000, 0.000000000000000000 ) ) ;
#343 = CARTESIAN_POINT ( 'NONE',  ( 0.000000000000000000, 11.08692071745779018, 0.000000000000000000 ) ) ;
#344 = PRODUCT_DEFINITION ( 'UNKNOWN', '', #260, #359 ) ;
#345 = CARTESIAN_POINT ( 'NONE',  ( 6.267764289573800468E-16, -7.913079282542215154, 0.000000000000000000 ) ) ;
#346 = VECTOR ( 'NONE', #387, 1000.000000000000000 ) ;
#347 = CARTESIAN_POINT ( 'NONE',  ( 18.69999999999999929, -7.913079282542215154, 2.320705684384234292E-15 ) ) ;
#348 = ORIENTED_EDGE ( 'NONE', *, *, #311, .F. ) ;
#349 = LINE ( 'NONE', #265, #346 ) ;
#350 = ORIENTED_EDGE ( 'NONE', *, *, #92, .F. ) ;
#351 = VERTEX_POINT ( 'NONE', #238 ) ;
#352 = EDGE_LOOP ( 'NONE', ( #120, #386, #139, #350 ) ) ;
#353 = LINE ( 'NONE', #267, #11 ) ;
#354 = SHAPE_DEFINITION_REPRESENTATION ( #333, #261 ) ;
#355 = EDGE_LOOP ( 'NONE', ( #4, #62, #239, #276 ) ) ;
#356 = EDGE_CURVE ( 'NONE', #56, #383, #42, .T. ) ;
#357 = AXIS2_PLACEMENT_3D ( 'NONE', #135, #252, #101 ) ;
#358 = DIRECTION ( 'NONE',  ( 1.024453658981139148E-17, -1.000000000000000000, -0.000000000000000000 ) ) ;
#359 = DESIGN_CONTEXT ( 'detailed design', #49, 'design' ) ;
#360 = CYLINDRICAL_SURFACE ( 'NONE', #47, 19.20000000000000284 ) ;
#361 = CARTESIAN_POINT ( 'NONE',  ( 19.20000000000000284, 11.08692071745778840, 0.000000000000000000 ) ) ;
#362 = CARTESIAN_POINT ( 'NONE',  ( 6.267764289573800468E-16, -7.913079282542215154, 0.000000000000000000 ) ) ;
#363 = CARTESIAN_POINT ( 'NONE',  ( 6.267764289573800468E-16, -7.913079282542215154, 0.000000000000000000 ) ) ;
#364 = EDGE_CURVE ( 'NONE', #30, #351, #349, .T. ) ;
#365 = CARTESIAN_POINT ( 'NONE',  ( 0.000000000000000000, 11.08692071745779018, 0.000000000000000000 ) ) ;
#366 = AXIS2_PLACEMENT_3D ( 'NONE', #163, #310, #133 ) ;
#367 = AXIS2_PLACEMENT_3D ( 'NONE', #89, #332, #308 ) ;
#368 = CARTESIAN_POINT ( 'NONE',  ( 3.265568172123940406E-16, 21.39225913984837391, 0.000000000000000000 ) ) ;
#369 = DIRECTION ( 'NONE',  ( -1.224646799147353207E-16, -1.254593894346046134E-33, -1.000000000000000000 ) ) ;
#370 = APPROVAL_STATUS ( 'not_yet_approved' ) ;
#371 = DIRECTION ( 'NONE',  ( 1.024453658981139148E-17, -1.000000000000000000, -0.000000000000000000 ) ) ;
#372 = CIRCLE ( 'NONE', #224, 21.19999999999999929 ) ;
#373 = APPROVAL_PERSON_ORGANIZATION ( #148, #41, #330 ) ;
#374 = APPROVAL_ROLE ( '' ) ;
#375 = EDGE_LOOP ( 'NONE', ( #296, #348 ) ) ;
#376 = EDGE_CURVE ( 'NONE', #28, #335, #353, .T. ) ;
#377 =( NAMED_UNIT ( * ) SI_UNIT ( $, .STERADIAN. ) SOLID_ANGLE_UNIT ( ) );
#378 = PERSON_AND_ORGANIZATION_ROLE ( 'creator' ) ;
#379 = ORIENTED_EDGE ( 'NONE', *, *, #376, .T. ) ;
#380 = CC_DESIGN_PERSON_AND_ORGANIZATION_ASSIGNMENT ( #381, #134, ( #260 ) ) ;
#381 = PERSON_AND_ORGANIZATION ( #294, #253 ) ;
#382 = EDGE_CURVE ( 'NONE', #383, #56, #372, .T. ) ;
#383 = VERTEX_POINT ( 'NONE', #297 ) ;
#384 = CIRCLE ( 'NONE', #116, 19.20000000000000284 ) ;
#385 = CONICAL_SURFACE ( 'NONE', #329, 19.20000000000000284, 0.4636476090008088691 ) ;
#386 = ORIENTED_EDGE ( 'NONE', *, *, #118, .T. ) ;
#387 = DIRECTION ( 'NONE',  ( 1.024453658981139148E-17, -1.000000000000000000, -0.000000000000000000 ) ) ;
ENDSEC;
END-ISO-10303-21;
