ISO-10303-21;
HEADER;
FILE_DESCRIPTION (( 'STEP AP203' ),
    '1' );
FILE_NAME ('3D_R365_48.3x2_173371115.STEP',
    '2024-07-16T06:18:25',
    ( '' ),
    ( '' ),
    'SwSTEP 2.0',
    'SolidWorks 2024',
    '' );
FILE_SCHEMA (( 'CONFIG_CONTROL_DESIGN' ));
ENDSEC;

DATA;
#1 = CARTESIAN_POINT ( 'NONE',  ( 9.256018851662265499E-16, 0.4248558743111807701, 0.000000000000000000 ) ) ;
#2 = CARTESIAN_POINT ( 'NONE',  ( -24.14999999999999858, 1.110171416848492936E-16, 0.000000000000000000 ) ) ;
#3 = APPROVAL_STATUS ( 'not_yet_approved' ) ;
#4 = DIRECTION ( 'NONE',  ( -1.000000000000000000, 0.000000000000000000, 0.000000000000000000 ) ) ;
#5 = APPLICATION_PROTOCOL_DEFINITION ( 'international standard', 'config_control_design', 1994, #51 ) ;
#6 = CARTESIAN_POINT ( 'NONE',  ( -24.14999999999998437, 2817.965330118411202, 0.000000000000000000 ) ) ;
#7 = AXIS2_PLACEMENT_3D ( 'NONE', #261, #34, #315 ) ;
#8 = AXIS2_PLACEMENT_3D ( 'NONE', #409, #378, #376 ) ;
#9 = CALENDAR_DATE ( 2024, 16, 7 ) ;
#10 = DIRECTION ( 'NONE',  ( -1.224646799147353207E-16, 5.629680630014033300E-34, 1.000000000000000000 ) ) ;
#11 = DIRECTION ( 'NONE',  ( -1.000000000000000000, 0.000000000000000000, 0.000000000000000000 ) ) ;
#12 = EDGE_LOOP ( 'NONE', ( #330, #250 ) ) ;
#13 = DATE_AND_TIME ( #9, #203 ) ;
#14 = EDGE_CURVE ( 'NONE', #299, #117, #15, .T. ) ;
#15 = CIRCLE ( 'NONE', #47, 36.64000000000000057 ) ;
#16 = EDGE_LOOP ( 'NONE', ( #281, #370, #215, #79 ) ) ;
#17 = CC_DESIGN_APPROVAL ( #133, ( #178 ) ) ;
#18 = DIRECTION ( 'NONE',  ( 4.596983092540343816E-18, 1.000000000000000000, -0.000000000000000000 ) ) ;
#19 = AXIS2_PLACEMENT_3D ( 'NONE', #159, #287, #201 ) ;
#20 = VECTOR ( 'NONE', #337, 1000.000000000000000 ) ;
#21 = DIRECTION ( 'NONE',  ( 4.596983092540343816E-18, 1.000000000000000000, -0.000000000000000000 ) ) ;
#22 = DIRECTION ( 'NONE',  ( -1.000000000000000000, 0.000000000000000000, 0.000000000000000000 ) ) ;
#23 = EDGE_LOOP ( 'NONE', ( #173, #306, #92 ) ) ;
#24 = DIRECTION ( 'NONE',  ( 4.596983092540343816E-18, 1.000000000000000000, -0.000000000000000000 ) ) ;
#25 = DIRECTION ( 'NONE',  ( -1.000000000000000000, 0.000000000000000000, 0.000000000000000000 ) ) ;
#26 = EDGE_CURVE ( 'NONE', #213, #176, #61, .T. ) ;
#27 = AXIS2_PLACEMENT_3D ( 'NONE', #323, #40, #170 ) ;
#28 = AXIS2_PLACEMENT_3D ( 'NONE', #152, #33, #314 ) ;
#29 = ORIENTED_EDGE ( 'NONE', *, *, #87, .T. ) ;
#30 = EDGE_CURVE ( 'NONE', #146, #122, #217, .T. ) ;
#31 = CARTESIAN_POINT ( 'NONE',  ( -2.551719616537040292E-34, -5.550857084242464680E-17, 0.000000000000000000 ) ) ;
#32 = CARTESIAN_POINT ( 'NONE',  ( 2.289521716633931565E-15, 12.00000000000000000, 0.000000000000000000 ) ) ;
#33 = DIRECTION ( 'NONE',  ( 4.596983092540343816E-18, 1.000000000000000000, -0.000000000000000000 ) ) ;
#34 = DIRECTION ( 'NONE',  ( 0.000000000000000000, 0.000000000000000000, 1.000000000000000000 ) ) ;
#35 = PERSON_AND_ORGANIZATION_ROLE ( 'classification_officer' ) ;
#36 = FACE_OUTER_BOUND ( 'NONE', #156, .T. ) ;
#37 = DATE_AND_TIME ( #321, #102 ) ;
#38 = DIRECTION ( 'NONE',  ( 1.000000000000000000, 0.000000000000000000, 1.224646799147353207E-16 ) ) ;
#39 = PERSON_AND_ORGANIZATION ( #175, #280 ) ;
#40 = DIRECTION ( 'NONE',  ( 4.596983092540343816E-18, 1.000000000000000000, -0.000000000000000000 ) ) ;
#41 =( GEOMETRIC_REPRESENTATION_CONTEXT ( 3 ) GLOBAL_UNCERTAINTY_ASSIGNED_CONTEXT ( ( #59 ) ) GLOBAL_UNIT_ASSIGNED_CONTEXT ( ( #45, #288, #291 ) ) REPRESENTATION_CONTEXT ( 'NONE', 'WORKASPACE' ) );
#42 = COORDINATED_UNIVERSAL_TIME_OFFSET ( 1, 0, .AHEAD. ) ;
#43 = VERTEX_POINT ( 'NONE', #153 ) ;
#44 = CC_DESIGN_PERSON_AND_ORGANIZATION_ASSIGNMENT ( #357, #73, ( #70 ) ) ;
#45 =( LENGTH_UNIT ( ) NAMED_UNIT ( * ) SI_UNIT ( .MILLI., .METRE. ) );
#46 = ORIENTED_EDGE ( 'NONE', *, *, #260, .T. ) ;
#47 = AXIS2_PLACEMENT_3D ( 'NONE', #84, #216, #338 ) ;
#48 = AXIS2_PLACEMENT_3D ( 'NONE', #56, #364, #22 ) ;
#49 = ORIENTED_EDGE ( 'NONE', *, *, #14, .F. ) ;
#50 = CC_DESIGN_PERSON_AND_ORGANIZATION_ASSIGNMENT ( #392, #35, ( #178 ) ) ;
#51 = APPLICATION_CONTEXT ( 'configuration controlled 3d designs of mechanical parts and assemblies' ) ;
#52 = ORIENTED_EDGE ( 'NONE', *, *, #87, .F. ) ;
#53 = VERTEX_POINT ( 'NONE', #179 ) ;
#54 = CARTESIAN_POINT ( 'NONE',  ( 22.15000000000000924, 2817.965330118411202, 2.712592660111386845E-15 ) ) ;
#55 = ORIENTED_EDGE ( 'NONE', *, *, #393, .F. ) ;
#56 = CARTESIAN_POINT ( 'NONE',  ( -18.90499999999999403, 0.4248558743113474145, 0.000000000000000000 ) ) ;
#57 = ADVANCED_FACE ( 'NONE', ( #340 ), #303, .F. ) ;
#58 = ORIENTED_EDGE ( 'NONE', *, *, #208, .T. ) ;
#59 = UNCERTAINTY_MEASURE_WITH_UNIT (LENGTH_MEASURE( 1.000000000000000082E-05 ), #45, 'distance_accuracy_value', 'NONE');
#60 = ORIENTED_EDGE ( 'NONE', *, *, #188, .T. ) ;
#61 = CIRCLE ( 'NONE', #298, 34.64000000000000057 ) ;
#62 = EDGE_LOOP ( 'NONE', ( #268, #264, #300, #187 ) ) ;
#63 = DIRECTION ( 'NONE',  ( 4.596983092540343816E-18, 1.000000000000000000, -0.000000000000000000 ) ) ;
#64 = DIRECTION ( 'NONE',  ( -0.000000000000000000, 0.000000000000000000, -1.000000000000000000 ) ) ;
#65 = DIRECTION ( 'NONE',  ( 0.000000000000000000, 0.000000000000000000, 1.000000000000000000 ) ) ;
#66 = CARTESIAN_POINT ( 'NONE',  ( -24.15000000000000213, 0.4248558743111808811, 0.000000000000000000 ) ) ;
#67 = FACE_OUTER_BOUND ( 'NONE', #400, .T. ) ;
#68 = DATE_TIME_ROLE ( 'classification_date' ) ;
#69 = DIRECTION ( 'NONE',  ( -1.000000000000000000, 0.000000000000000000, 0.000000000000000000 ) ) ;
#70 = PRODUCT_DEFINITION ( 'UNKNOWN', '', #190, #91 ) ;
#71 = CARTESIAN_POINT ( 'NONE',  ( 0.000000000000000000, 0.000000000000000000, 0.000000000000000000 ) ) ;
#72 = CARTESIAN_POINT ( 'NONE',  ( -22.14999999999999503, 0.4248558743112443858, 0.000000000000000000 ) ) ;
#73 = PERSON_AND_ORGANIZATION_ROLE ( 'creator' ) ;
#74 = CARTESIAN_POINT ( 'NONE',  ( 22.14999999999999503, 0.4248558743112441638, 2.712592660111386845E-15 ) ) ;
#75 = ORIENTED_EDGE ( 'NONE', *, *, #393, .T. ) ;
#76 = AXIS2_PLACEMENT_3D ( 'NONE', #123, #184, #343 ) ;
#77 = ADVANCED_FACE ( 'NONE', ( #319 ), #408, .T. ) ;
#78 = SECURITY_CLASSIFICATION_LEVEL ( 'unclassified' ) ;
#79 = ORIENTED_EDGE ( 'NONE', *, *, #30, .F. ) ;
#80 = AXIS2_PLACEMENT_3D ( 'NONE', #396, #90, #25 ) ;
#81 = AXIS2_PLACEMENT_3D ( 'NONE', #1, #24, #181 ) ;
#82 = VERTEX_POINT ( 'NONE', #2 ) ;
#83 = CARTESIAN_POINT ( 'NONE',  ( 24.15000000000000568, 0.4248558743111806590, 2.957522019940858719E-15 ) ) ;
#84 = CARTESIAN_POINT ( 'NONE',  ( 4.364641192161204004E-15, -24.63999999999999702, 0.000000000000000000 ) ) ;
#85 = DIRECTION ( 'NONE',  ( 4.596983092540343816E-18, 1.000000000000000000, -0.000000000000000000 ) ) ;
#86 = TOROIDAL_SURFACE ( 'NONE', #112, 18.90499999999999403, 3.245000000000003215 ) ;
#87 = EDGE_CURVE ( 'NONE', #82, #373, #101, .T. ) ;
#88 = EDGE_LOOP ( 'NONE', ( #273, #398, #29, #361 ) ) ;
#89 = CARTESIAN_POINT ( 'NONE',  ( 4.364641192161204004E-15, -24.63999999999999702, 0.000000000000000000 ) ) ;
#90 = DIRECTION ( 'NONE',  ( -0.000000000000000000, 0.000000000000000000, -1.000000000000000000 ) ) ;
#91 = DESIGN_CONTEXT ( 'detailed design', #391, 'design' ) ;
#92 = ORIENTED_EDGE ( 'NONE', *, *, #14, .T. ) ;
#93 = EDGE_CURVE ( 'NONE', #53, #117, #369, .T. ) ;
#94 = CC_DESIGN_APPROVAL ( #214, ( #190 ) ) ;
#95 = AXIS2_PLACEMENT_3D ( 'NONE', #199, #65, #283 ) ;
#96 = TOROIDAL_SURFACE ( 'NONE', #302, 18.90499999999999403, 5.245000000000002771 ) ;
#97 = CARTESIAN_POINT ( 'NONE',  ( 1.387778780781445676E-14, 2817.965330118411202, 0.000000000000000000 ) ) ;
#98 = LINE ( 'NONE', #226, #105 ) ;
#99 = DIRECTION ( 'NONE',  ( 4.596983092540343816E-18, 1.000000000000000000, -0.000000000000000000 ) ) ;
#100 = DIRECTION ( 'NONE',  ( 1.000000000000000000, -4.596983092540344586E-18, 0.000000000000000000 ) ) ;
#101 = LINE ( 'NONE', #6, #267 ) ;
#102 = LOCAL_TIME ( 8, 18, 25.00000000000000000, #42 ) ;
#103 = ADVANCED_FACE ( 'NONE', ( #387 ), #196, .T. ) ;
#104 = AXIS2_PLACEMENT_3D ( 'NONE', #224, #64, #127 ) ;
#105 = VECTOR ( 'NONE', #220, 1000.000000000000000 ) ;
#106 = APPROVAL_STATUS ( 'not_yet_approved' ) ;
#107 = DIRECTION ( 'NONE',  ( 4.596983092540343816E-18, 1.000000000000000000, -0.000000000000000000 ) ) ;
#108 = COORDINATED_UNIVERSAL_TIME_OFFSET ( 1, 0, .AHEAD. ) ;
#109 = CARTESIAN_POINT ( 'NONE',  ( 20.85902850772422212, 3.015569596628242532, 2.633543454821086310E-15 ) ) ;
#110 = ADVANCED_FACE ( 'NONE', ( #130 ), #86, .F. ) ;
#111 = CALENDAR_DATE ( 2024, 16, 7 ) ;
#112 = AXIS2_PLACEMENT_3D ( 'NONE', #132, #227, #407 ) ;
#113 = DATE_AND_TIME ( #350, #272 ) ;
#114 = ADVANCED_FACE ( 'NONE', ( #381 ), #352, .F. ) ;
#115 = AXIS2_PLACEMENT_3D ( 'NONE', #292, #138, #4 ) ;
#116 = CIRCLE ( 'NONE', #48, 5.245000000000002771 ) ;
#117 = VERTEX_POINT ( 'NONE', #32 ) ;
#118 = FACE_OUTER_BOUND ( 'NONE', #209, .T. ) ;
#119 = ORIENTED_EDGE ( 'NONE', *, *, #334, .T. ) ;
#120 = DIRECTION ( 'NONE',  ( 0.000000000000000000, 0.000000000000000000, 1.000000000000000000 ) ) ;
#121 = ADVANCED_FACE ( 'NONE', ( #256 ), #346, .T. ) ;
#122 = VERTEX_POINT ( 'NONE', #317 ) ;
#123 = CARTESIAN_POINT ( 'NONE',  ( 9.448515478332204448E-16, 4.612311490197917863, 0.000000000000000000 ) ) ;
#124 = AXIS2_PLACEMENT_3D ( 'NONE', #285, #379, #349 ) ;
#125 = ORIENTED_EDGE ( 'NONE', *, *, #237, .F. ) ;
#126 = VERTEX_POINT ( 'NONE', #229 ) ;
#127 = DIRECTION ( 'NONE',  ( -1.000000000000000000, 0.000000000000000000, 0.000000000000000000 ) ) ;
#128 = AXIS2_PLACEMENT_3D ( 'NONE', #71, #172, #139 ) ;
#129 = PLANE ( 'NONE',  #155 ) ;
#130 = FACE_OUTER_BOUND ( 'NONE', #16, .T. ) ;
#131 = DIRECTION ( 'NONE',  ( -1.000000000000000000, 4.489449989588009436E-18, 0.000000000000000000 ) ) ;
#132 = CARTESIAN_POINT ( 'NONE',  ( 0.000000000000000000, 0.4248558743113473035, 0.000000000000000000 ) ) ;
#133 = APPROVAL ( #106, 'UNSPECIFIED' ) ;
#134 = COORDINATED_UNIVERSAL_TIME_OFFSET ( 1, 0, .AHEAD. ) ;
#135 = CARTESIAN_POINT ( 'NONE',  ( 1.387778780781445676E-14, 2817.965330118411202, 0.000000000000000000 ) ) ;
#136 = CIRCLE ( 'NONE', #204, 5.245000000000002771 ) ;
#137 = CIRCLE ( 'NONE', #168, 20.85902850772421857 ) ;
#138 = DIRECTION ( 'NONE',  ( 0.000000000000000000, 0.000000000000000000, 1.000000000000000000 ) ) ;
#139 = DIRECTION ( 'NONE',  ( 1.000000000000000000, 0.000000000000000000, 0.000000000000000000 ) ) ;
#140 = DIRECTION ( 'NONE',  ( -1.000000000000000000, 0.000000000000000000, 0.000000000000000000 ) ) ;
#141 = ORIENTED_EDGE ( 'NONE', *, *, #295, .F. ) ;
#142 = PERSON_AND_ORGANIZATION ( #175, #280 ) ;
#143 = AXIS2_PLACEMENT_3D ( 'NONE', #151, #21, #150 ) ;
#144 = PRODUCT_DEFINITION_SHAPE ( 'NONE', 'NONE',  #70 ) ;
#145 = EDGE_CURVE ( 'NONE', #332, #404, #165, .T. ) ;
#146 = VERTEX_POINT ( 'NONE', #72 ) ;
#147 = TOROIDAL_SURFACE ( 'NONE', #239, 18.90499999999999403, 3.245000000000003215 ) ;
#148 = CARTESIAN_POINT ( 'NONE',  ( 0.000000000000000000, 0.4248558743113473035, 0.000000000000000000 ) ) ;
#149 = EDGE_CURVE ( 'NONE', #299, #53, #335, .T. ) ;
#150 = DIRECTION ( 'NONE',  ( -1.000000000000000000, 0.000000000000000000, 0.000000000000000000 ) ) ;
#151 = CARTESIAN_POINT ( 'NONE',  ( 1.387778780781445676E-14, 2817.965330118411202, 0.000000000000000000 ) ) ;
#152 = CARTESIAN_POINT ( 'NONE',  ( 9.236488298952508525E-16, 0.000000000000000000, 0.000000000000000000 ) ) ;
#153 = CARTESIAN_POINT ( 'NONE',  ( -22.14999999999999503, 1.018231754997686060E-16, 0.000000000000000000 ) ) ;
#154 = AXIS2_PLACEMENT_3D ( 'NONE', #97, #344, #193 ) ;
#155 = AXIS2_PLACEMENT_3D ( 'NONE', #31, #254, #284 ) ;
#156 = EDGE_LOOP ( 'NONE', ( #313, #141, #119, #171 ) ) ;
#157 = CARTESIAN_POINT ( 'NONE',  ( 2.402792430363586087E-15, 9.999999999999998224, 0.000000000000000000 ) ) ;
#158 = DIRECTION ( 'NONE',  ( -1.000000000000000000, 0.000000000000000000, 0.000000000000000000 ) ) ;
#159 = CARTESIAN_POINT ( 'NONE',  ( 0.000000000000000000, 0.4248558743113473035, 0.000000000000000000 ) ) ;
#160 = CARTESIAN_POINT ( 'NONE',  ( 9.236488298952508525E-16, 0.000000000000000000, 0.000000000000000000 ) ) ;
#161 = CC_DESIGN_PERSON_AND_ORGANIZATION_ASSIGNMENT ( #142, #388, ( #190 ) ) ;
#162 = COORDINATED_UNIVERSAL_TIME_OFFSET ( 1, 0, .AHEAD. ) ;
#163 = DIRECTION ( 'NONE',  ( 4.596983092540343816E-18, 1.000000000000000000, -0.000000000000000000 ) ) ;
#164 = APPROVAL_DATE_TIME ( #37, #133 ) ;
#165 = LINE ( 'NONE', #232, #374 ) ;
#166 = EDGE_CURVE ( 'NONE', #146, #223, #167, .T. ) ;
#167 = CIRCLE ( 'NONE', #124, 22.14999999999999503 ) ;
#168 = AXIS2_PLACEMENT_3D ( 'NONE', #399, #18, #397 ) ;
#169 = DATE_AND_TIME ( #111, #329 ) ;
#170 = DIRECTION ( 'NONE',  ( -1.000000000000000000, 4.894817934471804449E-18, 0.000000000000000000 ) ) ;
#171 = ORIENTED_EDGE ( 'NONE', *, *, #166, .T. ) ;
#172 = DIRECTION ( 'NONE',  ( 0.000000000000000000, 0.000000000000000000, 1.000000000000000000 ) ) ;
#173 = ORIENTED_EDGE ( 'NONE', *, *, #93, .F. ) ;
#174 = ADVANCED_FACE ( 'NONE', ( #67 ), #377, .F. ) ;
#175 = PERSON ( 'UNSPECIFIED', 'UNSPECIFIED', 'UNSPECIFIED', ('UNSPECIFIED'), ('UNSPECIFIED'), ('UNSPECIFIED') ) ;
#176 = VERTEX_POINT ( 'NONE', #157 ) ;
#177 = CC_DESIGN_PERSON_AND_ORGANIZATION_ASSIGNMENT ( #231, #262, ( #190 ) ) ;
#178 = SECURITY_CLASSIFICATION ( '', '', #78 ) ;
#179 = CARTESIAN_POINT ( 'NONE',  ( 22.06336040770822748, 4.612311490197917863, 2.829752195057144966E-15 ) ) ;
#180 = AXIS2_PLACEMENT_3D ( 'NONE', #348, #271, #345 ) ;
#181 = DIRECTION ( 'NONE',  ( -1.000000000000000000, 4.489449989588009436E-18, 0.000000000000000000 ) ) ;
#182 = SHAPE_DEFINITION_REPRESENTATION ( #144, #339 ) ;
#183 = ORIENTED_EDGE ( 'NONE', *, *, #221, .F. ) ;
#184 = DIRECTION ( 'NONE',  ( 4.596983092540343816E-18, 1.000000000000000000, -0.000000000000000000 ) ) ;
#185 = ORIENTED_EDGE ( 'NONE', *, *, #149, .F. ) ;
#186 = LOCAL_TIME ( 8, 18, 25.00000000000000000, #134 ) ;
#187 = ORIENTED_EDGE ( 'NONE', *, *, #334, .F. ) ;
#188 = EDGE_CURVE ( 'NONE', #122, #176, #395, .T. ) ;
#189 = AXIS2_PLACEMENT_3D ( 'NONE', #307, #63, #131 ) ;
#190 = PRODUCT_DEFINITION_FORMATION_WITH_SPECIFIED_SOURCE ( 'ANY', '', #210, .NOT_KNOWN. ) ;
#191 = DIRECTION ( 'NONE',  ( -1.224646799147353207E-16, 5.629680630014033300E-34, 1.000000000000000000 ) ) ;
#192 = FACE_OUTER_BOUND ( 'NONE', #12, .T. ) ;
#193 = DIRECTION ( 'NONE',  ( -1.000000000000000000, 0.000000000000000000, 0.000000000000000000 ) ) ;
#194 = ADVANCED_FACE ( 'NONE', ( #36 ), #251, .F. ) ;
#195 = DIRECTION ( 'NONE',  ( 4.596983092540343816E-18, 1.000000000000000000, -0.000000000000000000 ) ) ;
#196 = SPHERICAL_SURFACE ( 'NONE', #115, 36.64000000000000057 ) ;
#197 = AXIS2_PLACEMENT_3D ( 'NONE', #351, #163, #69 ) ;
#198 = COORDINATED_UNIVERSAL_TIME_OFFSET ( 1, 0, .AHEAD. ) ;
#199 = CARTESIAN_POINT ( 'NONE',  ( 4.364641192161204004E-15, -24.63999999999999702, 0.000000000000000000 ) ) ;
#200 = APPROVAL_ROLE ( '' ) ;
#201 = DIRECTION ( 'NONE',  ( -1.000000000000000000, 4.596983092540343816E-18, 0.000000000000000000 ) ) ;
#202 = PERSON_AND_ORGANIZATION_ROLE ( 'design_owner' ) ;
#203 = LOCAL_TIME ( 8, 18, 25.00000000000000000, #108 ) ;
#204 = AXIS2_PLACEMENT_3D ( 'NONE', #294, #10, #263 ) ;
#205 = APPROVAL_PERSON_ORGANIZATION ( #39, #405, #358 ) ;
#206 = CALENDAR_DATE ( 2024, 16, 7 ) ;
#207 = DATE_TIME_ROLE ( 'creation_date' ) ;
#208 = EDGE_CURVE ( 'NONE', #122, #213, #309, .T. ) ;
#209 = EDGE_LOOP ( 'NONE', ( #125, #46, #75, #390 ) ) ;
#210 = PRODUCT ( '3D_R365_48.3x2_173371115', '3D_R365_48.3x2_173371115', '', ( #233 ) ) ;
#211 = CIRCLE ( 'NONE', #27, 22.14999999999999503 ) ;
#212 = AXIS2_PLACEMENT_3D ( 'NONE', #228, #85, #158 ) ;
#213 = VERTEX_POINT ( 'NONE', #109 ) ;
#214 = APPROVAL ( #3, 'UNSPECIFIED' ) ;
#215 = ORIENTED_EDGE ( 'NONE', *, *, #385, .T. ) ;
#216 = DIRECTION ( 'NONE',  ( -0.000000000000000000, 0.000000000000000000, -1.000000000000000000 ) ) ;
#217 = CIRCLE ( 'NONE', #80, 3.245000000000001439 ) ;
#218 = LINE ( 'NONE', #54, #20 ) ;
#219 = EDGE_LOOP ( 'NONE', ( #372, #297, #236, #52 ) ) ;
#220 = DIRECTION ( 'NONE',  ( 4.596983092540343816E-18, 1.000000000000000000, -0.000000000000000000 ) ) ;
#221 = EDGE_CURVE ( 'NONE', #223, #213, #328, .T. ) ;
#222 = ORIENTED_EDGE ( 'NONE', *, *, #208, .F. ) ;
#223 = VERTEX_POINT ( 'NONE', #74 ) ;
#224 = CARTESIAN_POINT ( 'NONE',  ( 4.364641192161204004E-15, -24.63999999999999702, 0.000000000000000000 ) ) ;
#225 = EDGE_CURVE ( 'NONE', #223, #146, #211, .T. ) ;
#226 = CARTESIAN_POINT ( 'NONE',  ( -22.14999999999998082, 2817.965330118411202, 0.000000000000000000 ) ) ;
#227 = DIRECTION ( 'NONE',  ( 4.596983092540343816E-18, 1.000000000000000000, -0.000000000000000000 ) ) ;
#228 = CARTESIAN_POINT ( 'NONE',  ( 1.387778780781445676E-14, 2817.965330118411202, 0.000000000000000000 ) ) ;
#229 = CARTESIAN_POINT ( 'NONE',  ( 22.14999999999999503, -1.018231754997686060E-16, 2.712592660111386845E-15 ) ) ;
#230 = CC_DESIGN_SECURITY_CLASSIFICATION ( #178, ( #190 ) ) ;
#231 = PERSON_AND_ORGANIZATION ( #175, #280 ) ;
#232 = CARTESIAN_POINT ( 'NONE',  ( 24.15000000000001279, 2817.965330118411202, 2.957522019940857930E-15 ) ) ;
#233 = MECHANICAL_CONTEXT ( 'NONE', #51, 'mechanical' ) ;
#234 = CARTESIAN_POINT ( 'NONE',  ( 18.90499999999999403, 0.4248558743113471925, 2.315194773788070611E-15 ) ) ;
#235 = APPROVAL_ROLE ( '' ) ;
#236 = ORIENTED_EDGE ( 'NONE', *, *, #282, .F. ) ;
#237 = EDGE_CURVE ( 'NONE', #404, #53, #136, .T. ) ;
#238 = APPLICATION_PROTOCOL_DEFINITION ( 'international standard', 'config_control_design', 1994, #391 ) ;
#239 = AXIS2_PLACEMENT_3D ( 'NONE', #243, #401, #301 ) ;
#240 = EDGE_CURVE ( 'NONE', #53, #299, #252, .T. ) ;
#241 = ORIENTED_EDGE ( 'NONE', *, *, #290, .T. ) ;
#242 = EDGE_LOOP ( 'NONE', ( #406, #241 ) ) ;
#243 = CARTESIAN_POINT ( 'NONE',  ( 0.000000000000000000, 0.4248558743113473035, 0.000000000000000000 ) ) ;
#244 = EDGE_LOOP ( 'NONE', ( #336, #359, #185, #55 ) ) ;
#245 = FACE_BOUND ( 'NONE', #242, .T. ) ;
#246 = ORIENTED_EDGE ( 'NONE', *, *, #30, .T. ) ;
#247 = DIRECTION ( 'NONE',  ( 4.596983092540343816E-18, 1.000000000000000000, -0.000000000000000000 ) ) ;
#248 = ADVANCED_FACE ( 'NONE', ( #245, #192 ), #129, .T. ) ;
#249 = ORIENTED_EDGE ( 'NONE', *, *, #149, .T. ) ;
#250 = ORIENTED_EDGE ( 'NONE', *, *, #353, .F. ) ;
#251 = CYLINDRICAL_SURFACE ( 'NONE', #154, 22.14999999999999503 ) ;
#252 = CIRCLE ( 'NONE', #76, 22.06336040770822748 ) ;
#253 = AXIS2_PLACEMENT_3D ( 'NONE', #160, #195, #100 ) ;
#254 = DIRECTION ( 'NONE',  ( -4.596983092540343816E-18, -1.000000000000000000, 0.000000000000000000 ) ) ;
#255 = CARTESIAN_POINT ( 'NONE',  ( 4.491773378011476704E-15, 3.015569596628242532, 0.000000000000000000 ) ) ;
#256 = FACE_OUTER_BOUND ( 'NONE', #88, .T. ) ;
#257 = DATE_AND_TIME ( #206, #186 ) ;
#258 = DIRECTION ( 'NONE',  ( 4.596983092540343816E-18, 1.000000000000000000, -0.000000000000000000 ) ) ;
#259 = CIRCLE ( 'NONE', #180, 24.14999999999999858 ) ;
#260 = EDGE_CURVE ( 'NONE', #404, #373, #293, .T. ) ;
#261 = CARTESIAN_POINT ( 'NONE',  ( 4.364641192161204004E-15, -24.63999999999999702, 0.000000000000000000 ) ) ;
#262 = PERSON_AND_ORGANIZATION_ROLE ( 'creator' ) ;
#263 = DIRECTION ( 'NONE',  ( 1.000000000000000000, 0.000000000000000000, 1.224646799147353454E-16 ) ) ;
#264 = ORIENTED_EDGE ( 'NONE', *, *, #312, .T. ) ;
#265 = EDGE_LOOP ( 'NONE', ( #366, #222, #60 ) ) ;
#266 = ADVANCED_FACE ( 'NONE', ( #118 ), #96, .T. ) ;
#267 = VECTOR ( 'NONE', #258, 1000.000000000000000 ) ;
#268 = ORIENTED_EDGE ( 'NONE', *, *, #290, .F. ) ;
#269 = CIRCLE ( 'NONE', #28, 24.14999999999999858 ) ;
#270 = ORIENTED_EDGE ( 'NONE', *, *, #166, .F. ) ;
#271 = DIRECTION ( 'NONE',  ( 4.596983092540343816E-18, 1.000000000000000000, -0.000000000000000000 ) ) ;
#272 = LOCAL_TIME ( 8, 18, 25.00000000000000000, #162 ) ;
#273 = ORIENTED_EDGE ( 'NONE', *, *, #145, .F. ) ;
#274 = FACE_OUTER_BOUND ( 'NONE', #219, .T. ) ;
#275 = EDGE_LOOP ( 'NONE', ( #249, #310, #49 ) ) ;
#276 = CARTESIAN_POINT ( 'NONE',  ( 24.14999999999999858, -1.110171416848492936E-16, 2.957522019940857930E-15 ) ) ;
#277 = ADVANCED_FACE ( 'NONE', ( #274 ), #367, .T. ) ;
#278 = AXIS2_PLACEMENT_3D ( 'NONE', #135, #107, #410 ) ;
#279 = ORIENTED_EDGE ( 'NONE', *, *, #26, .T. ) ;
#280 = ORGANIZATION ( 'UNSPECIFIED', 'UNSPECIFIED', '' ) ;
#281 = ORIENTED_EDGE ( 'NONE', *, *, #225, .F. ) ;
#282 = EDGE_CURVE ( 'NONE', #373, #404, #356, .T. ) ;
#283 = DIRECTION ( 'NONE',  ( -1.000000000000000000, 0.000000000000000000, 0.000000000000000000 ) ) ;
#284 = DIRECTION ( 'NONE',  ( 1.000000000000000000, -4.596983092540343816E-18, 0.000000000000000000 ) ) ;
#285 = CARTESIAN_POINT ( 'NONE',  ( -4.736274136203340747E-31, 0.4248558743112442748, 0.000000000000000000 ) ) ;
#286 = CARTESIAN_POINT ( 'NONE',  ( -22.06336040770822748, 4.612311490197917863, 0.000000000000000000 ) ) ;
#287 = DIRECTION ( 'NONE',  ( 4.596983092540343816E-18, 1.000000000000000000, -0.000000000000000000 ) ) ;
#288 =( NAMED_UNIT ( * ) PLANE_ANGLE_UNIT ( ) SI_UNIT ( $, .RADIAN. ) );
#289 = DIRECTION ( 'NONE',  ( -1.224646799147353207E-16, 5.629680630014033300E-34, 1.000000000000000000 ) ) ;
#290 = EDGE_CURVE ( 'NONE', #126, #43, #325, .T. ) ;
#291 =( NAMED_UNIT ( * ) SI_UNIT ( $, .STERADIAN. ) SOLID_ANGLE_UNIT ( ) );
#292 = CARTESIAN_POINT ( 'NONE',  ( 4.364641192161204004E-15, -24.63999999999999702, 0.000000000000000000 ) ) ;
#293 = CIRCLE ( 'NONE', #189, 24.15000000000000213 ) ;
#294 = CARTESIAN_POINT ( 'NONE',  ( 18.90499999999999403, 0.4248558743113471925, 2.315194773788070611E-15 ) ) ;
#295 = EDGE_CURVE ( 'NONE', #43, #126, #311, .T. ) ;
#296 = APPROVAL_DATE_TIME ( #169, #405 ) ;
#297 = ORIENTED_EDGE ( 'NONE', *, *, #145, .T. ) ;
#298 = AXIS2_PLACEMENT_3D ( 'NONE', #308, #191, #341 ) ;
#299 = VERTEX_POINT ( 'NONE', #286 ) ;
#300 = ORIENTED_EDGE ( 'NONE', *, *, #225, .T. ) ;
#301 = DIRECTION ( 'NONE',  ( -1.000000000000000000, 4.596983092540343816E-18, 0.000000000000000000 ) ) ;
#302 = AXIS2_PLACEMENT_3D ( 'NONE', #148, #247, #316 ) ;
#303 = CYLINDRICAL_SURFACE ( 'NONE', #143, 22.14999999999999503 ) ;
#304 = FACE_OUTER_BOUND ( 'NONE', #394, .T. ) ;
#305 = CC_DESIGN_DATE_AND_TIME_ASSIGNMENT ( #113, #207, ( #70 ) ) ;
#306 = ORIENTED_EDGE ( 'NONE', *, *, #240, .T. ) ;
#307 = CARTESIAN_POINT ( 'NONE',  ( 9.256018851662265499E-16, 0.4248558743111807701, 0.000000000000000000 ) ) ;
#308 = CARTESIAN_POINT ( 'NONE',  ( 4.364641192161204004E-15, -24.63999999999999702, 0.000000000000000000 ) ) ;
#309 = CIRCLE ( 'NONE', #324, 20.85902850772421857 ) ;
#310 = ORIENTED_EDGE ( 'NONE', *, *, #93, .T. ) ;
#311 = CIRCLE ( 'NONE', #253, 22.14999999999999503 ) ;
#312 = EDGE_CURVE ( 'NONE', #126, #223, #218, .T. ) ;
#313 = ORIENTED_EDGE ( 'NONE', *, *, #312, .F. ) ;
#314 = DIRECTION ( 'NONE',  ( -1.000000000000000000, 4.596983092540343816E-18, 0.000000000000000000 ) ) ;
#315 = DIRECTION ( 'NONE',  ( -1.000000000000000000, 0.000000000000000000, 0.000000000000000000 ) ) ;
#316 = DIRECTION ( 'NONE',  ( -1.000000000000000000, 4.596983092540343816E-18, 0.000000000000000000 ) ) ;
#317 = CARTESIAN_POINT ( 'NONE',  ( -20.85902850772421502, 3.015569596628242532, 0.000000000000000000 ) ) ;
#318 = APPROVAL_DATE_TIME ( #13, #214 ) ;
#319 = FACE_OUTER_BOUND ( 'NONE', #244, .T. ) ;
#320 = EDGE_CURVE ( 'NONE', #82, #332, #269, .T. ) ;
#321 = CALENDAR_DATE ( 2024, 16, 7 ) ;
#322 = CARTESIAN_POINT ( 'NONE',  ( 4.364641192161204004E-15, -24.63999999999999702, 0.000000000000000000 ) ) ;
#323 = CARTESIAN_POINT ( 'NONE',  ( -4.736274136203340747E-31, 0.4248558743112442748, 0.000000000000000000 ) ) ;
#324 = AXIS2_PLACEMENT_3D ( 'NONE', #255, #99, #140 ) ;
#325 = CIRCLE ( 'NONE', #8, 22.14999999999999503 ) ;
#326 = PERSON_AND_ORGANIZATION ( #175, #280 ) ;
#327 = ORIENTED_EDGE ( 'NONE', *, *, #385, .F. ) ;
#328 = CIRCLE ( 'NONE', #382, 3.245000000000001439 ) ;
#329 = LOCAL_TIME ( 8, 18, 25.00000000000000000, #198 ) ;
#330 = ORIENTED_EDGE ( 'NONE', *, *, #320, .F. ) ;
#331 = PRODUCT_RELATED_PRODUCT_CATEGORY ( 'detail', '', ( #210 ) ) ;
#332 = VERTEX_POINT ( 'NONE', #276 ) ;
#333 = SPHERICAL_SURFACE ( 'NONE', #342, 36.64000000000000057 ) ;
#334 = EDGE_CURVE ( 'NONE', #43, #146, #98, .T. ) ;
#335 = CIRCLE ( 'NONE', #197, 22.06336040770822748 ) ;
#336 = ORIENTED_EDGE ( 'NONE', *, *, #282, .T. ) ;
#337 = DIRECTION ( 'NONE',  ( 4.596983092540343816E-18, 1.000000000000000000, -0.000000000000000000 ) ) ;
#338 = DIRECTION ( 'NONE',  ( -1.000000000000000000, 0.000000000000000000, 0.000000000000000000 ) ) ;
#339 = ADVANCED_BREP_SHAPE_REPRESENTATION ( '3D_R365_48.3x2_173371115', ( #362, #128 ), #41 ) ;
#340 = FACE_OUTER_BOUND ( 'NONE', #62, .T. ) ;
#341 = DIRECTION ( 'NONE',  ( 1.000000000000000000, 0.000000000000000000, 1.224646799147352961E-16 ) ) ;
#342 = AXIS2_PLACEMENT_3D ( 'NONE', #89, #120, #11 ) ;
#343 = DIRECTION ( 'NONE',  ( -1.000000000000000000, 0.000000000000000000, 0.000000000000000000 ) ) ;
#344 = DIRECTION ( 'NONE',  ( 4.596983092540343816E-18, 1.000000000000000000, -0.000000000000000000 ) ) ;
#345 = DIRECTION ( 'NONE',  ( -1.000000000000000000, 4.596983092540343816E-18, 0.000000000000000000 ) ) ;
#346 = CYLINDRICAL_SURFACE ( 'NONE', #278, 24.14999999999999858 ) ;
#347 = CC_DESIGN_DATE_AND_TIME_ASSIGNMENT ( #257, #68, ( #178 ) ) ;
#348 = CARTESIAN_POINT ( 'NONE',  ( 9.236488298952508525E-16, 0.000000000000000000, 0.000000000000000000 ) ) ;
#349 = DIRECTION ( 'NONE',  ( -1.000000000000000000, 4.894817934471804449E-18, 0.000000000000000000 ) ) ;
#350 = CALENDAR_DATE ( 2024, 16, 7 ) ;
#351 = CARTESIAN_POINT ( 'NONE',  ( 9.448515478332204448E-16, 4.612311490197917863, 0.000000000000000000 ) ) ;
#352 = SPHERICAL_SURFACE ( 'NONE', #7, 34.64000000000000057 ) ;
#353 = EDGE_CURVE ( 'NONE', #332, #82, #259, .T. ) ;
#354 = PERSON_AND_ORGANIZATION ( #175, #280 ) ;
#355 = DIRECTION ( 'NONE',  ( 1.000000000000000000, 0.000000000000000000, 1.224646799147353454E-16 ) ) ;
#356 = CIRCLE ( 'NONE', #81, 24.15000000000000213 ) ;
#357 = PERSON_AND_ORGANIZATION ( #175, #280 ) ;
#358 = APPROVAL_ROLE ( '' ) ;
#359 = ORIENTED_EDGE ( 'NONE', *, *, #237, .T. ) ;
#360 = CC_DESIGN_PERSON_AND_ORGANIZATION_ASSIGNMENT ( #354, #202, ( #210 ) ) ;
#361 = ORIENTED_EDGE ( 'NONE', *, *, #260, .F. ) ;
#362 = MANIFOLD_SOLID_BREP ( 'Wandung1', #402 ) ;
#363 = ORIENTED_EDGE ( 'NONE', *, *, #188, .F. ) ;
#364 = DIRECTION ( 'NONE',  ( -0.000000000000000000, 0.000000000000000000, -1.000000000000000000 ) ) ;
#365 = ADVANCED_FACE ( 'NONE', ( #304 ), #147, .F. ) ;
#366 = ORIENTED_EDGE ( 'NONE', *, *, #26, .F. ) ;
#367 = CYLINDRICAL_SURFACE ( 'NONE', #212, 24.14999999999999858 ) ;
#368 = APPROVAL_PERSON_ORGANIZATION ( #326, #133, #200 ) ;
#369 = CIRCLE ( 'NONE', #403, 36.64000000000000057 ) ;
#370 = ORIENTED_EDGE ( 'NONE', *, *, #221, .T. ) ;
#371 = FACE_OUTER_BOUND ( 'NONE', #275, .T. ) ;
#372 = ORIENTED_EDGE ( 'NONE', *, *, #320, .T. ) ;
#373 = VERTEX_POINT ( 'NONE', #66 ) ;
#374 = VECTOR ( 'NONE', #375, 1000.000000000000000 ) ;
#375 = DIRECTION ( 'NONE',  ( 4.596983092540343816E-18, 1.000000000000000000, -0.000000000000000000 ) ) ;
#376 = DIRECTION ( 'NONE',  ( 1.000000000000000000, -4.596983092540344586E-18, 0.000000000000000000 ) ) ;
#377 = SPHERICAL_SURFACE ( 'NONE', #95, 34.64000000000000057 ) ;
#378 = DIRECTION ( 'NONE',  ( 4.596983092540343816E-18, 1.000000000000000000, -0.000000000000000000 ) ) ;
#379 = DIRECTION ( 'NONE',  ( 4.596983092540343816E-18, 1.000000000000000000, -0.000000000000000000 ) ) ;
#380 = PERSON_AND_ORGANIZATION ( #175, #280 ) ;
#381 = FACE_OUTER_BOUND ( 'NONE', #265, .T. ) ;
#382 = AXIS2_PLACEMENT_3D ( 'NONE', #234, #389, #355 ) ;
#383 = CC_DESIGN_APPROVAL ( #405, ( #70 ) ) ;
#384 = APPROVAL_PERSON_ORGANIZATION ( #380, #214, #235 ) ;
#385 = EDGE_CURVE ( 'NONE', #213, #122, #137, .T. ) ;
#386 = APPROVAL_STATUS ( 'not_yet_approved' ) ;
#387 = FACE_OUTER_BOUND ( 'NONE', #23, .T. ) ;
#388 = PERSON_AND_ORGANIZATION_ROLE ( 'design_supplier' ) ;
#389 = DIRECTION ( 'NONE',  ( -1.224646799147353207E-16, 5.629680630014033300E-34, 1.000000000000000000 ) ) ;
#390 = ORIENTED_EDGE ( 'NONE', *, *, #240, .F. ) ;
#391 = APPLICATION_CONTEXT ( 'configuration controlled 3d designs of mechanical parts and assemblies' ) ;
#392 = PERSON_AND_ORGANIZATION ( #175, #280 ) ;
#393 = EDGE_CURVE ( 'NONE', #373, #299, #116, .T. ) ;
#394 = EDGE_LOOP ( 'NONE', ( #183, #270, #246, #58 ) ) ;
#395 = CIRCLE ( 'NONE', #104, 34.64000000000000057 ) ;
#396 = CARTESIAN_POINT ( 'NONE',  ( -18.90499999999999403, 0.4248558743113474145, 0.000000000000000000 ) ) ;
#397 = DIRECTION ( 'NONE',  ( -1.000000000000000000, 0.000000000000000000, 0.000000000000000000 ) ) ;
#398 = ORIENTED_EDGE ( 'NONE', *, *, #353, .T. ) ;
#399 = CARTESIAN_POINT ( 'NONE',  ( 4.491773378011476704E-15, 3.015569596628242532, 0.000000000000000000 ) ) ;
#400 = EDGE_LOOP ( 'NONE', ( #327, #279, #363 ) ) ;
#401 = DIRECTION ( 'NONE',  ( 4.596983092540343816E-18, 1.000000000000000000, -0.000000000000000000 ) ) ;
#402 = CLOSED_SHELL ( 'NONE', ( #174, #110, #57, #411, #77, #277, #248, #121, #266, #103, #194, #365, #114 ) ) ;
#403 = AXIS2_PLACEMENT_3D ( 'NONE', #322, #289, #38 ) ;
#404 = VERTEX_POINT ( 'NONE', #83 ) ;
#405 = APPROVAL ( #386, 'UNSPECIFIED' ) ;
#406 = ORIENTED_EDGE ( 'NONE', *, *, #295, .T. ) ;
#407 = DIRECTION ( 'NONE',  ( -1.000000000000000000, 4.596983092540343816E-18, 0.000000000000000000 ) ) ;
#408 = TOROIDAL_SURFACE ( 'NONE', #19, 18.90499999999999403, 5.245000000000002771 ) ;
#409 = CARTESIAN_POINT ( 'NONE',  ( 9.236488298952508525E-16, 0.000000000000000000, 0.000000000000000000 ) ) ;
#410 = DIRECTION ( 'NONE',  ( -1.000000000000000000, 0.000000000000000000, 0.000000000000000000 ) ) ;
#411 = ADVANCED_FACE ( 'NONE', ( #371 ), #333, .T. ) ;
ENDSEC;
END-ISO-10303-21;
