ISO-10303-21;
HEADER;
/****************************************************************
 * Generated by software with PDElib inside                    *
 * PDElib Version v51a, created Wed 07/06/2011                  *
 * ITI Transcendata (http://www.transcendata.com/)              *
 ****************************************************************/
FILE_DESCRIPTION(('Hygienic Clamp Joint - 6,35x0,89_V00'),'2;1');
FILE_NAME('E090_CC_6,35x0,89_MR14,3_L41,2_Fl25_00.stp','2013-09-04T16:34:34',(''),('DOCKWEILER AG'),'Autodesk Inventor 2012','Autodesk Inventor 2012','');
FILE_SCHEMA(('CONFIG_CONTROL_DESIGN'));
ENDSEC;
DATA;
#5=APPLICATION_CONTEXT('configuration controlled 3D designs of mechanical parts and assemblies');
#6=APPLICATION_PROTOCOL_DEFINITION('International Standard','ap203_configuration_controlled_3d_design_of_mechanical_parts_and_assemblies_mim_lf',2004,#5);
#7=PRODUCT_CONTEXT('',#5,'mechanical');
#8=PRODUCT('N0001_009_001','N0001_009_001',$,(#7));
#9=PRODUCT_RELATED_PRODUCT_CATEGORY('part',$,(#8));
#10=PRODUCT_DEFINITION_FORMATION('',$,#8);
#11=PRODUCT_DEFINITION_CONTEXT('part definition',#5,'design');
#12=PRODUCT_DEFINITION('',$,#10,#11);
#18=(NAMED_UNIT(*)PLANE_ANGLE_UNIT()SI_UNIT($,.RADIAN.));
#19=DIMENSIONAL_EXPONENTS(0.0,0.0,0.0,0.0,0.0,0.0,0.0);
#20=PLANE_ANGLE_MEASURE_WITH_UNIT(PLANE_ANGLE_MEASURE(0.0174532925),#18);
#24=(CONVERSION_BASED_UNIT('DEGREE',#20)NAMED_UNIT(#19)PLANE_ANGLE_UNIT());
#28=(NAMED_UNIT(*)SI_UNIT($,.STERADIAN.)SOLID_ANGLE_UNIT());
#32=(LENGTH_UNIT()NAMED_UNIT(*)SI_UNIT(.MILLI.,.METRE.));
#34=UNCERTAINTY_MEASURE_WITH_UNIT(LENGTH_MEASURE(0.01),#32,'DISTANCE_ACCURACY_VALUE','');
#36=(GEOMETRIC_REPRESENTATION_CONTEXT(3)GLOBAL_UNCERTAINTY_ASSIGNED_CONTEXT((#34))GLOBAL_UNIT_ASSIGNED_CONTEXT((#24,#28,#32))REPRESENTATION_CONTEXT('None','None'));
#37=AXIS2_PLACEMENT_3D('',#38,#39,#40);
#38=CARTESIAN_POINT('',(0.0,0.0,0.0));
#39=DIRECTION('',(0.0,0.0,1.0));
#40=DIRECTION('',(1.0,0.0,0.0));
#41=SHAPE_REPRESENTATION('',(#37,#293,#668,#680),#36);
#42=PRODUCT_DEFINITION_SHAPE('','',#12);
#43=SHAPE_DEFINITION_REPRESENTATION(#42,#41);
#44=APPLICATION_CONTEXT('configuration controlled 3D designs of mechanical parts and assemblies');
#45=APPLICATION_PROTOCOL_DEFINITION('International Standard','ap203_configuration_controlled_3d_design_of_mechanical_parts_and_assemblies_mim_lf',2004,#44);
#46=PRODUCT_CONTEXT('',#44,'mechanical');
#47=PRODUCT('N0001_001_001_04','N0001_001_001_04',$,(#46));
#48=PRODUCT_RELATED_PRODUCT_CATEGORY('part',$,(#47));
#49=PRODUCT_DEFINITION_FORMATION('',$,#47);
#50=PRODUCT_DEFINITION_CONTEXT('part definition',#44,'design');
#51=PRODUCT_DEFINITION('',$,#49,#50);
#57=(NAMED_UNIT(*)PLANE_ANGLE_UNIT()SI_UNIT($,.RADIAN.));
#58=DIMENSIONAL_EXPONENTS(0.0,0.0,0.0,0.0,0.0,0.0,0.0);
#59=PLANE_ANGLE_MEASURE_WITH_UNIT(PLANE_ANGLE_MEASURE(0.0174532925),#57);
#63=(CONVERSION_BASED_UNIT('DEGREE',#59)NAMED_UNIT(#58)PLANE_ANGLE_UNIT());
#67=(NAMED_UNIT(*)SI_UNIT($,.STERADIAN.)SOLID_ANGLE_UNIT());
#71=(LENGTH_UNIT()NAMED_UNIT(*)SI_UNIT(.MILLI.,.METRE.));
#73=UNCERTAINTY_MEASURE_WITH_UNIT(LENGTH_MEASURE(0.01),#71,'DISTANCE_ACCURACY_VALUE','');
#75=(GEOMETRIC_REPRESENTATION_CONTEXT(3)GLOBAL_UNCERTAINTY_ASSIGNED_CONTEXT((#73))GLOBAL_UNIT_ASSIGNED_CONTEXT((#63,#67,#71))REPRESENTATION_CONTEXT('None','None'));
#76=AXIS2_PLACEMENT_3D('',#77,#78,#79);
#77=CARTESIAN_POINT('',(0.0,0.0,0.0));
#78=DIRECTION('',(0.0,0.0,1.0));
#79=DIRECTION('',(1.0,0.0,0.0));
#80=SHAPE_REPRESENTATION('',(#76),#75);
#81=PRODUCT_DEFINITION_SHAPE('','',#51);
#82=SHAPE_DEFINITION_REPRESENTATION(#81,#80);
#88=(NAMED_UNIT(*)PLANE_ANGLE_UNIT()SI_UNIT($,.RADIAN.));
#89=DIMENSIONAL_EXPONENTS(0.0,0.0,0.0,0.0,0.0,0.0,0.0);
#90=PLANE_ANGLE_MEASURE_WITH_UNIT(PLANE_ANGLE_MEASURE(0.0174532925),#88);
#94=(CONVERSION_BASED_UNIT('DEGREE',#90)NAMED_UNIT(#89)PLANE_ANGLE_UNIT());
#98=(NAMED_UNIT(*)SI_UNIT($,.STERADIAN.)SOLID_ANGLE_UNIT());
#102=(LENGTH_UNIT()NAMED_UNIT(*)SI_UNIT(.MILLI.,.METRE.));
#104=UNCERTAINTY_MEASURE_WITH_UNIT(LENGTH_MEASURE(0.000001),#102,'DISTANCE_ACCURACY_VALUE','');
#106=(GEOMETRIC_REPRESENTATION_CONTEXT(3)GLOBAL_UNCERTAINTY_ASSIGNED_CONTEXT((#104))GLOBAL_UNIT_ASSIGNED_CONTEXT((#94,#98,#102))REPRESENTATION_CONTEXT('','3D'));
#107=CARTESIAN_POINT('',(0.0,0.0,38.10000000000003));
#108=DIRECTION('',(0.0,0.0,-1.0));
#109=DIRECTION('',(-1.0,0.0,0.0));
#110=AXIS2_PLACEMENT_3D('',#107,#108,#109);
#111=PLANE('',#110);
#112=CARTESIAN_POINT('',(3.174999999999999,3.888254E-016,38.10000000000003));
#113=VERTEX_POINT('',#112);
#114=CARTESIAN_POINT('',(1.934749E-016,0.0,38.10000000000003));
#115=DIRECTION('',(0.0,0.0,1.0));
#116=DIRECTION('',(-1.0,0.0,0.0));
#117=AXIS2_PLACEMENT_3D('',#114,#115,#116);
#118=CIRCLE('',#117,3.174999999999999);
#119=EDGE_CURVE('',#113,#113,#118,.T.);
#120=ORIENTED_EDGE('',*,*,#119,.F.);
#121=EDGE_LOOP('',(#120));
#122=FACE_OUTER_BOUND('',#121,.T.);
#123=CARTESIAN_POINT('',(2.285,-2.798318E-016,38.10000000000003));
#124=VERTEX_POINT('',#123);
#125=CARTESIAN_POINT('',(1.934749E-016,0.0,38.10000000000003));
#126=DIRECTION('',(0.0,0.0,-1.0));
#127=DIRECTION('',(-1.0,0.0,0.0));
#128=AXIS2_PLACEMENT_3D('',#125,#126,#127);
#129=CIRCLE('',#128,2.284999999999999);
#130=EDGE_CURVE('',#124,#124,#129,.T.);
#131=ORIENTED_EDGE('',*,*,#130,.F.);
#132=EDGE_LOOP('',(#131));
#133=FACE_BOUND('',#132,.T.);
#134=ADVANCED_FACE('',(#122,#133),#111,.T.);
#135=CARTESIAN_POINT('',(28.599999999999994,0.0,66.700000000000017));
#136=DIRECTION('',(-1.0,0.0,0.0));
#137=DIRECTION('',(0.0,0.0,1.0));
#138=AXIS2_PLACEMENT_3D('',#135,#136,#137);
#139=PLANE('',#138);
#140=CARTESIAN_POINT('',(28.599999999999994,-3.888254E-016,63.52500000000002));
#141=VERTEX_POINT('',#140);
#142=CARTESIAN_POINT('',(28.599999999999994,0.0,66.700000000000017));
#143=DIRECTION('',(-1.0,0.0,0.0));
#144=DIRECTION('',(0.0,0.0,1.0));
#145=AXIS2_PLACEMENT_3D('',#142,#143,#144);
#146=CIRCLE('',#145,3.174999999999999);
#147=EDGE_CURVE('',#141,#141,#146,.T.);
#148=ORIENTED_EDGE('',*,*,#147,.F.);
#149=EDGE_LOOP('',(#148));
#150=FACE_OUTER_BOUND('',#149,.T.);
#151=CARTESIAN_POINT('',(28.599999999999994,2.798318E-016,64.41500000000002));
#152=VERTEX_POINT('',#151);
#153=CARTESIAN_POINT('',(28.599999999999994,0.0,66.700000000000017));
#154=DIRECTION('',(1.0,0.0,0.0));
#155=DIRECTION('',(0.0,0.0,1.0));
#156=AXIS2_PLACEMENT_3D('',#153,#154,#155);
#157=CIRCLE('',#156,2.284999999999999);
#158=EDGE_CURVE('',#152,#152,#157,.T.);
#159=ORIENTED_EDGE('',*,*,#158,.F.);
#160=EDGE_LOOP('',(#159));
#161=FACE_BOUND('',#160,.T.);
#162=ADVANCED_FACE('',(#150,#161),#139,.F.);
#163=CARTESIAN_POINT('',(14.299999999999997,0.0,66.700000000000017));
#164=DIRECTION('',(1.0,0.0,0.0));
#165=DIRECTION('',(0.0,0.0,1.0));
#166=AXIS2_PLACEMENT_3D('',#163,#164,#165);
#167=CYLINDRICAL_SURFACE('',#166,2.284999999999999);
#168=ORIENTED_EDGE('',*,*,#158,.T.);
#169=EDGE_LOOP('',(#168));
#170=FACE_OUTER_BOUND('',#169,.T.);
#171=CARTESIAN_POINT('',(14.299999999999997,2.798318E-016,64.415000000000035));
#172=VERTEX_POINT('',#171);
#173=CARTESIAN_POINT('',(14.299999999999997,0.0,66.700000000000017));
#174=DIRECTION('',(-1.0,0.0,0.0));
#175=DIRECTION('',(0.0,0.0,1.0));
#176=AXIS2_PLACEMENT_3D('',#173,#174,#175);
#177=CIRCLE('',#176,2.284999999999999);
#178=EDGE_CURVE('',#172,#172,#177,.T.);
#179=ORIENTED_EDGE('',*,*,#178,.T.);
#180=EDGE_LOOP('',(#179));
#181=FACE_BOUND('',#180,.T.);
#182=ADVANCED_FACE('',(#170,#181),#167,.F.);
#183=CARTESIAN_POINT('',(14.299999999999997,0.0,52.400000000000027));
#184=DIRECTION('',(0.0,1.0,0.0));
#185=DIRECTION('',(0.0,0.0,1.0));
#186=AXIS2_PLACEMENT_3D('',#183,#184,#185);
#187=TOROIDAL_SURFACE('',#186,14.299999999999997,2.284999999999999);
#188=ORIENTED_EDGE('',*,*,#178,.F.);
#189=EDGE_LOOP('',(#188));
#190=FACE_OUTER_BOUND('',#189,.T.);
#191=CARTESIAN_POINT('',(2.285,2.798318E-016,52.400000000000027));
#192=VERTEX_POINT('',#191);
#193=CARTESIAN_POINT('',(2.660915E-016,0.0,52.400000000000027));
#194=DIRECTION('',(0.0,0.0,-1.0));
#195=DIRECTION('',(-1.0,0.0,0.0));
#196=AXIS2_PLACEMENT_3D('',#193,#194,#195);
#197=CIRCLE('',#196,2.284999999999999);
#198=EDGE_CURVE('',#192,#192,#197,.T.);
#199=ORIENTED_EDGE('',*,*,#198,.T.);
#200=EDGE_LOOP('',(#199));
#201=FACE_BOUND('',#200,.T.);
#202=ADVANCED_FACE('',(#190,#201),#187,.F.);
#203=CARTESIAN_POINT('',(0.0,0.0,0.0));
#204=DIRECTION('',(5.078082E-018,0.0,1.0));
#205=DIRECTION('',(-1.0,0.0,0.0));
#206=AXIS2_PLACEMENT_3D('',#203,#204,#205);
#207=CYLINDRICAL_SURFACE('',#206,2.284999999999999);
#208=ORIENTED_EDGE('',*,*,#130,.T.);
#209=EDGE_LOOP('',(#208));
#210=FACE_OUTER_BOUND('',#209,.T.);
#211=ORIENTED_EDGE('',*,*,#198,.F.);
#212=EDGE_LOOP('',(#211));
#213=FACE_BOUND('',#212,.T.);
#214=ADVANCED_FACE('',(#210,#213),#207,.F.);
#215=CARTESIAN_POINT('',(14.299999999999997,0.0,66.700000000000017));
#216=DIRECTION('',(1.0,0.0,0.0));
#217=DIRECTION('',(0.0,0.0,1.0));
#218=AXIS2_PLACEMENT_3D('',#215,#216,#217);
#219=CYLINDRICAL_SURFACE('',#218,3.174999999999999);
#220=ORIENTED_EDGE('',*,*,#147,.T.);
#221=EDGE_LOOP('',(#220));
#222=FACE_OUTER_BOUND('',#221,.T.);
#223=CARTESIAN_POINT('',(14.299999999999997,3.888254E-016,63.525000000000027));
#224=VERTEX_POINT('',#223);
#225=CARTESIAN_POINT('',(14.299999999999997,0.0,66.700000000000017));
#226=DIRECTION('',(-1.0,0.0,0.0));
#227=DIRECTION('',(0.0,0.0,1.0));
#228=AXIS2_PLACEMENT_3D('',#225,#226,#227);
#229=CIRCLE('',#228,3.174999999999999);
#230=EDGE_CURVE('',#224,#224,#229,.T.);
#231=ORIENTED_EDGE('',*,*,#230,.F.);
#232=EDGE_LOOP('',(#231));
#233=FACE_BOUND('',#232,.T.);
#234=ADVANCED_FACE('',(#222,#233),#219,.T.);
#235=CARTESIAN_POINT('',(14.299999999999997,0.0,52.400000000000027));
#236=DIRECTION('',(0.0,1.0,0.0));
#237=DIRECTION('',(0.0,0.0,1.0));
#238=AXIS2_PLACEMENT_3D('',#235,#236,#237);
#239=TOROIDAL_SURFACE('',#238,14.299999999999997,3.174999999999999);
#240=ORIENTED_EDGE('',*,*,#230,.T.);
#241=EDGE_LOOP('',(#240));
#242=FACE_OUTER_BOUND('',#241,.T.);
#243=CARTESIAN_POINT('',(3.174999999999999,3.888254E-016,52.400000000000027));
#244=VERTEX_POINT('',#243);
#245=CARTESIAN_POINT('',(2.660915E-016,0.0,52.400000000000027));
#246=DIRECTION('',(0.0,0.0,-1.0));
#247=DIRECTION('',(-1.0,0.0,0.0));
#248=AXIS2_PLACEMENT_3D('',#245,#246,#247);
#249=CIRCLE('',#248,3.174999999999999);
#250=EDGE_CURVE('',#244,#244,#249,.T.);
#251=ORIENTED_EDGE('',*,*,#250,.F.);
#252=EDGE_LOOP('',(#251));
#253=FACE_BOUND('',#252,.T.);
#254=ADVANCED_FACE('',(#242,#253),#239,.T.);
#255=CARTESIAN_POINT('',(0.0,0.0,0.0));
#256=DIRECTION('',(5.078082E-018,0.0,1.0));
#257=DIRECTION('',(-1.0,0.0,0.0));
#258=AXIS2_PLACEMENT_3D('',#255,#256,#257);
#259=CYLINDRICAL_SURFACE('',#258,3.174999999999999);
#260=ORIENTED_EDGE('',*,*,#119,.T.);
#261=EDGE_LOOP('',(#260));
#262=FACE_OUTER_BOUND('',#261,.T.);
#263=ORIENTED_EDGE('',*,*,#250,.T.);
#264=EDGE_LOOP('',(#263));
#265=FACE_BOUND('',#264,.T.);
#266=ADVANCED_FACE('',(#262,#265),#259,.T.);
#267=CLOSED_SHELL('',(#134,#162,#182,#202,#214,#234,#254,#266));
#268=MANIFOLD_SOLID_BREP('',#267);
#269=COLOUR_RGB('',0.639216005802155,0.639216005802155,0.686275005340576);
#270=FILL_AREA_STYLE_COLOUR('',#269);
#271=FILL_AREA_STYLE('',(#270));
#272=SURFACE_STYLE_FILL_AREA(#271);
#273=SURFACE_SIDE_STYLE('',(#272));
#274=SURFACE_STYLE_USAGE(.BOTH.,#273);
#275=PRESENTATION_STYLE_ASSIGNMENT((#274));
#276=STYLED_ITEM('',(#275),#182);
#277=STYLED_ITEM('',(#275),#202);
#278=STYLED_ITEM('',(#275),#214);
#279=STYLED_ITEM('',(#275),#234);
#280=STYLED_ITEM('',(#275),#254);
#281=STYLED_ITEM('',(#275),#266);
#282=MECHANICAL_DESIGN_GEOMETRIC_PRESENTATION_REPRESENTATION('',(#276,#277,#278,#279,#280,#281,#290,#665),#106);
#283=COLOUR_RGB('Metall - Stahl',0.639216005802155,0.639216005802155,0.686275005340576);
#284=FILL_AREA_STYLE_COLOUR('Metall - Stahl',#283);
#285=FILL_AREA_STYLE('Metall - Stahl',(#284));
#286=SURFACE_STYLE_FILL_AREA(#285);
#287=SURFACE_SIDE_STYLE('Metall - Stahl',(#286));
#288=SURFACE_STYLE_USAGE(.BOTH.,#287);
#289=PRESENTATION_STYLE_ASSIGNMENT((#288));
#290=STYLED_ITEM('',(#289),#268);
#291=ADVANCED_BREP_SHAPE_REPRESENTATION('ABSR',(#268),#75);
#292=SHAPE_REPRESENTATION_RELATIONSHIP('SRR','None',#291,#80);
#293=AXIS2_PLACEMENT_3D('',#294,#295,#296);
#294=CARTESIAN_POINT('',(0.0,0.0,0.0));
#295=DIRECTION('',(0.0,0.0,1.0));
#296=DIRECTION('',(1.0,0.0,0.0));
#297=NEXT_ASSEMBLY_USAGE_OCCURRENCE('N0001_001_001_04_1:1','N0001_001_001_04_1:1','N0001_001_001_04_1:1',#12,#51,'N0001_001_001_04_1:1');
#298=PRODUCT_DEFINITION_SHAPE('N0001_001_001_04_1:1','N0001_001_001_04_1:1',#297);
#299=ITEM_DEFINED_TRANSFORMATION('N0001_001_001_04_1:1','N0001_001_001_04_1:1',#76,#293);
#303=(REPRESENTATION_RELATIONSHIP('N0001_001_001_04_1:1','N0001_001_001_04_1:1',#80,#41)REPRESENTATION_RELATIONSHIP_WITH_TRANSFORMATION(#299)SHAPE_REPRESENTATION_RELATIONSHIP());
#304=CONTEXT_DEPENDENT_SHAPE_REPRESENTATION(#303,#298);
#305=APPLICATION_CONTEXT('configuration controlled 3D designs of mechanical parts and assemblies');
#306=APPLICATION_PROTOCOL_DEFINITION('International Standard','ap203_configuration_controlled_3d_design_of_mechanical_parts_and_assemblies_mim_lf',2004,#305);
#307=PRODUCT_CONTEXT('',#305,'mechanical');
#308=PRODUCT('N0003_003_001_06','N0003_003_001_06',$,(#307));
#309=PRODUCT_RELATED_PRODUCT_CATEGORY('part',$,(#308));
#310=PRODUCT_DEFINITION_FORMATION('',$,#308);
#311=PRODUCT_DEFINITION_CONTEXT('part definition',#305,'design');
#312=PRODUCT_DEFINITION('',$,#310,#311);
#318=(NAMED_UNIT(*)PLANE_ANGLE_UNIT()SI_UNIT($,.RADIAN.));
#319=DIMENSIONAL_EXPONENTS(0.0,0.0,0.0,0.0,0.0,0.0,0.0);
#320=PLANE_ANGLE_MEASURE_WITH_UNIT(PLANE_ANGLE_MEASURE(0.0174532925),#318);
#324=(CONVERSION_BASED_UNIT('DEGREE',#320)NAMED_UNIT(#319)PLANE_ANGLE_UNIT());
#328=(NAMED_UNIT(*)SI_UNIT($,.STERADIAN.)SOLID_ANGLE_UNIT());
#332=(LENGTH_UNIT()NAMED_UNIT(*)SI_UNIT(.MILLI.,.METRE.));
#334=UNCERTAINTY_MEASURE_WITH_UNIT(LENGTH_MEASURE(0.01),#332,'DISTANCE_ACCURACY_VALUE','');
#336=(GEOMETRIC_REPRESENTATION_CONTEXT(3)GLOBAL_UNCERTAINTY_ASSIGNED_CONTEXT((#334))GLOBAL_UNIT_ASSIGNED_CONTEXT((#324,#328,#332))REPRESENTATION_CONTEXT('None','None'));
#337=AXIS2_PLACEMENT_3D('',#338,#339,#340);
#338=CARTESIAN_POINT('',(0.0,0.0,0.0));
#339=DIRECTION('',(0.0,0.0,1.0));
#340=DIRECTION('',(1.0,0.0,0.0));
#341=SHAPE_REPRESENTATION('',(#337),#336);
#342=PRODUCT_DEFINITION_SHAPE('','',#312);
#343=SHAPE_DEFINITION_REPRESENTATION(#342,#341);
#349=(NAMED_UNIT(*)PLANE_ANGLE_UNIT()SI_UNIT($,.RADIAN.));
#350=DIMENSIONAL_EXPONENTS(0.0,0.0,0.0,0.0,0.0,0.0,0.0);
#351=PLANE_ANGLE_MEASURE_WITH_UNIT(PLANE_ANGLE_MEASURE(0.0174532925),#349);
#355=(CONVERSION_BASED_UNIT('DEGREE',#351)NAMED_UNIT(#350)PLANE_ANGLE_UNIT());
#359=(NAMED_UNIT(*)SI_UNIT($,.STERADIAN.)SOLID_ANGLE_UNIT());
#363=(LENGTH_UNIT()NAMED_UNIT(*)SI_UNIT(.MILLI.,.METRE.));
#365=UNCERTAINTY_MEASURE_WITH_UNIT(LENGTH_MEASURE(0.000001),#363,'DISTANCE_ACCURACY_VALUE','');
#367=(GEOMETRIC_REPRESENTATION_CONTEXT(3)GLOBAL_UNCERTAINTY_ASSIGNED_CONTEXT((#365))GLOBAL_UNIT_ASSIGNED_CONTEXT((#355,#359,#363))REPRESENTATION_CONTEXT('','3D'));
#368=CARTESIAN_POINT('',(2.730000000000004,12.699999999999998,0.0));
#369=DIRECTION('',(0.0,1.0,0.0));
#370=DIRECTION('',(0.0,0.0,1.0));
#371=AXIS2_PLACEMENT_3D('',#368,#369,#370);
#372=PLANE('',#371);
#373=CARTESIAN_POINT('',(3.175000000000004,12.699999999999998,0.0));
#374=VERTEX_POINT('',#373);
#375=CARTESIAN_POINT('',(0.0,12.699999999999998,0.0));
#376=DIRECTION('',(0.0,-1.0,0.0));
#377=DIRECTION('',(1.0,0.0,0.0));
#378=AXIS2_PLACEMENT_3D('',#375,#376,#377);
#379=CIRCLE('',#378,3.175000000000004);
#380=EDGE_CURVE('',#374,#374,#379,.T.);
#381=ORIENTED_EDGE('',*,*,#380,.F.);
#382=EDGE_LOOP('',(#381));
#383=FACE_OUTER_BOUND('',#382,.T.);
#384=CARTESIAN_POINT('',(2.285000000000004,12.699999999999998,0.0));
#385=VERTEX_POINT('',#384);
#386=CARTESIAN_POINT('',(0.0,12.699999999999998,0.0));
#387=DIRECTION('',(0.0,-1.0,0.0));
#388=DIRECTION('',(1.0,0.0,0.0));
#389=AXIS2_PLACEMENT_3D('',#386,#387,#388);
#390=CIRCLE('',#389,2.285000000000004);
#391=EDGE_CURVE('',#385,#385,#390,.T.);
#392=ORIENTED_EDGE('',*,*,#391,.T.);
#393=EDGE_LOOP('',(#392));
#394=FACE_BOUND('',#393,.T.);
#395=ADVANCED_FACE('',(#383,#394),#372,.T.);
#396=CARTESIAN_POINT('',(0.0,10.12709423255005,0.0));
#397=DIRECTION('',(0.0,-1.0,0.0));
#398=DIRECTION('',(1.0,0.0,0.0));
#399=AXIS2_PLACEMENT_3D('',#396,#397,#398);
#400=CYLINDRICAL_SURFACE('',#399,3.175000000000006);
#401=CARTESIAN_POINT('',(3.175000000000008,7.554188465100098,0.0));
#402=VERTEX_POINT('',#401);
#403=CARTESIAN_POINT('',(0.0,7.554188465100098,0.0));
#404=DIRECTION('',(0.0,-1.0,0.0));
#405=DIRECTION('',(1.0,0.0,0.0));
#406=AXIS2_PLACEMENT_3D('',#403,#404,#405);
#407=CIRCLE('',#406,3.175000000000008);
#408=EDGE_CURVE('',#402,#402,#407,.T.);
#409=ORIENTED_EDGE('',*,*,#408,.F.);
#410=EDGE_LOOP('',(#409));
#411=FACE_OUTER_BOUND('',#410,.T.);
#412=ORIENTED_EDGE('',*,*,#380,.T.);
#413=EDGE_LOOP('',(#412));
#414=FACE_BOUND('',#413,.T.);
#415=ADVANCED_FACE('',(#411,#414),#400,.T.);
#416=CARTESIAN_POINT('',(0.0,7.554188465100098,0.0));
#417=DIRECTION('',(0.0,-1.0,0.0));
#418=DIRECTION('',(0.0,0.0,-1.0));
#419=AXIS2_PLACEMENT_3D('',#416,#417,#418);
#420=TOROIDAL_SURFACE('',#419,3.975000000000007,0.8);
#421=CARTESIAN_POINT('',(3.701383885339472,6.802434368471372,0.0));
#422=VERTEX_POINT('',#421);
#423=CARTESIAN_POINT('',(0.0,6.802434368471372,0.0));
#424=DIRECTION('',(0.0,-1.0,0.0));
#425=DIRECTION('',(1.0,0.0,0.0));
#426=AXIS2_PLACEMENT_3D('',#423,#424,#425);
#427=CIRCLE('',#426,3.701383885339472);
#428=EDGE_CURVE('',#422,#422,#427,.T.);
#429=ORIENTED_EDGE('',*,*,#428,.F.);
#430=EDGE_LOOP('',(#429));
#431=FACE_OUTER_BOUND('',#430,.T.);
#432=ORIENTED_EDGE('',*,*,#408,.T.);
#433=EDGE_LOOP('',(#432));
#434=FACE_BOUND('',#433,.T.);
#435=ADVANCED_FACE('',(#431,#434),#420,.F.);
#436=CARTESIAN_POINT('',(0.0,5.297011217266165,0.0));
#437=DIRECTION('',(0.0,-1.0,0.0));
#438=DIRECTION('',(1.0,0.0,0.0));
#439=AXIS2_PLACEMENT_3D('',#436,#437,#438);
#440=CONICAL_SURFACE('',#439,7.837500000000002,70.000000000000014);
#441=CARTESIAN_POINT('',(11.973616114660533,3.791588066060959,0.0));
#442=VERTEX_POINT('',#441);
#443=CARTESIAN_POINT('',(0.0,3.791588066060959,0.0));
#444=DIRECTION('',(0.0,-1.0,0.0));
#445=DIRECTION('',(1.0,0.0,0.0));
#446=AXIS2_PLACEMENT_3D('',#443,#444,#445);
#447=CIRCLE('',#446,11.973616114660533);
#448=EDGE_CURVE('',#442,#442,#447,.T.);
#449=ORIENTED_EDGE('',*,*,#448,.F.);
#450=EDGE_LOOP('',(#449));
#451=FACE_OUTER_BOUND('',#450,.T.);
#452=ORIENTED_EDGE('',*,*,#428,.T.);
#453=EDGE_LOOP('',(#452));
#454=FACE_BOUND('',#453,.T.);
#455=ADVANCED_FACE('',(#451,#454),#440,.T.);
#456=CARTESIAN_POINT('',(0.0,3.039833969432233,0.0));
#457=DIRECTION('',(0.0,-1.0,0.0));
#458=DIRECTION('',(0.0,0.0,-1.0));
#459=AXIS2_PLACEMENT_3D('',#456,#457,#458);
#460=TOROIDAL_SURFACE('',#459,11.699999999999998,0.8);
#461=CARTESIAN_POINT('',(12.5,3.039833969432233,0.0));
#462=VERTEX_POINT('',#461);
#463=CARTESIAN_POINT('',(0.0,3.039833969432233,0.0));
#464=DIRECTION('',(0.0,-1.0,0.0));
#465=DIRECTION('',(1.0,0.0,0.0));
#466=AXIS2_PLACEMENT_3D('',#463,#464,#465);
#467=CIRCLE('',#466,12.5);
#468=EDGE_CURVE('',#462,#462,#467,.T.);
#469=ORIENTED_EDGE('',*,*,#468,.F.);
#470=EDGE_LOOP('',(#469));
#471=FACE_OUTER_BOUND('',#470,.T.);
#472=ORIENTED_EDGE('',*,*,#448,.T.);
#473=EDGE_LOOP('',(#472));
#474=FACE_BOUND('',#473,.T.);
#475=ADVANCED_FACE('',(#471,#474),#460,.T.);
#476=CARTESIAN_POINT('',(0.0,1.519916984716117,0.0));
#477=DIRECTION('',(0.0,-1.0,0.0));
#478=DIRECTION('',(1.0,0.0,0.0));
#479=AXIS2_PLACEMENT_3D('',#476,#477,#478);
#480=CYLINDRICAL_SURFACE('',#479,12.5);
#481=CARTESIAN_POINT('',(12.5,6.938894E-017,0.0));
#482=VERTEX_POINT('',#481);
#483=CARTESIAN_POINT('',(0.0,1.387779E-016,0.0));
#484=DIRECTION('',(0.0,-1.0,0.0));
#485=DIRECTION('',(1.0,0.0,0.0));
#486=AXIS2_PLACEMENT_3D('',#483,#484,#485);
#487=CIRCLE('',#486,12.5);
#488=EDGE_CURVE('',#482,#482,#487,.T.);
#489=ORIENTED_EDGE('',*,*,#488,.F.);
#490=EDGE_LOOP('',(#489));
#491=FACE_OUTER_BOUND('',#490,.T.);
#492=ORIENTED_EDGE('',*,*,#468,.T.);
#493=EDGE_LOOP('',(#492));
#494=FACE_BOUND('',#493,.T.);
#495=ADVANCED_FACE('',(#491,#494),#480,.T.);
#496=CARTESIAN_POINT('',(11.98,1.090599E-018,0.0));
#497=DIRECTION('',(0.0,-1.0,0.0));
#498=DIRECTION('',(0.0,0.0,-1.0));
#499=AXIS2_PLACEMENT_3D('',#496,#497,#498);
#500=PLANE('',#499);
#501=ORIENTED_EDGE('',*,*,#488,.T.);
#502=EDGE_LOOP('',(#501));
#503=FACE_OUTER_BOUND('',#502,.T.);
#504=CARTESIAN_POINT('',(11.460000000000001,-6.720774E-017,0.0));
#505=VERTEX_POINT('',#504);
#506=CARTESIAN_POINT('',(0.0,0.0,0.0));
#507=DIRECTION('',(0.0,-1.0,0.0));
#508=DIRECTION('',(1.0,0.0,0.0));
#509=AXIS2_PLACEMENT_3D('',#506,#507,#508);
#510=CIRCLE('',#509,11.460000000000001);
#511=EDGE_CURVE('',#505,#505,#510,.T.);
#512=ORIENTED_EDGE('',*,*,#511,.F.);
#513=EDGE_LOOP('',(#512));
#514=FACE_BOUND('',#513,.T.);
#515=ADVANCED_FACE('',(#503,#514),#500,.T.);
#516=CARTESIAN_POINT('',(0.0,0.5,0.0));
#517=DIRECTION('',(0.0,-1.0,0.0));
#518=DIRECTION('',(0.0,0.0,-1.0));
#519=AXIS2_PLACEMENT_3D('',#516,#517,#518);
#520=TOROIDAL_SURFACE('',#519,11.460000000000001,0.5);
#521=CARTESIAN_POINT('',(10.960000000000001,0.5,0.0));
#522=VERTEX_POINT('',#521);
#523=CARTESIAN_POINT('',(0.0,0.5,0.0));
#524=DIRECTION('',(0.0,-1.0,0.0));
#525=DIRECTION('',(1.0,0.0,0.0));
#526=AXIS2_PLACEMENT_3D('',#523,#524,#525);
#527=CIRCLE('',#526,10.960000000000001);
#528=EDGE_CURVE('',#522,#522,#527,.T.);
#529=ORIENTED_EDGE('',*,*,#528,.F.);
#530=EDGE_LOOP('',(#529));
#531=FACE_OUTER_BOUND('',#530,.T.);
#532=ORIENTED_EDGE('',*,*,#511,.T.);
#533=EDGE_LOOP('',(#532));
#534=FACE_BOUND('',#533,.T.);
#535=ADVANCED_FACE('',(#531,#534),#520,.T.);
#536=CARTESIAN_POINT('',(0.0,1.0,0.0));
#537=DIRECTION('',(0.0,-1.0,0.0));
#538=DIRECTION('',(1.0,0.0,0.0));
#539=AXIS2_PLACEMENT_3D('',#536,#537,#538);
#540=CYLINDRICAL_SURFACE('',#539,10.960000000000001);
#541=CARTESIAN_POINT('',(10.960000000000001,1.499999999999999,0.0));
#542=VERTEX_POINT('',#541);
#543=CARTESIAN_POINT('',(0.0,1.499999999999999,0.0));
#544=DIRECTION('',(0.0,-1.0,0.0));
#545=DIRECTION('',(1.0,0.0,0.0));
#546=AXIS2_PLACEMENT_3D('',#543,#544,#545);
#547=CIRCLE('',#546,10.960000000000001);
#548=EDGE_CURVE('',#542,#542,#547,.T.);
#549=ORIENTED_EDGE('',*,*,#548,.F.);
#550=EDGE_LOOP('',(#549));
#551=FACE_OUTER_BOUND('',#550,.T.);
#552=ORIENTED_EDGE('',*,*,#528,.T.);
#553=EDGE_LOOP('',(#552));
#554=FACE_BOUND('',#553,.T.);
#555=ADVANCED_FACE('',(#551,#554),#540,.F.);
#556=CARTESIAN_POINT('',(0.0,1.499999999999999,0.0));
#557=DIRECTION('',(0.0,-1.0,0.0));
#558=DIRECTION('',(0.0,0.0,-1.0));
#559=AXIS2_PLACEMENT_3D('',#556,#557,#558);
#560=TOROIDAL_SURFACE('',#559,10.16,0.8);
#561=CARTESIAN_POINT('',(9.504678364568806,1.958861149080837,0.0));
#562=VERTEX_POINT('',#561);
#563=CARTESIAN_POINT('',(0.0,1.958861149080837,0.0));
#564=DIRECTION('',(0.0,-1.0,0.0));
#565=DIRECTION('',(1.0,0.0,0.0));
#566=AXIS2_PLACEMENT_3D('',#563,#564,#565);
#567=CIRCLE('',#566,9.504678364568806);
#568=EDGE_CURVE('',#562,#562,#567,.T.);
#569=ORIENTED_EDGE('',*,*,#568,.F.);
#570=EDGE_LOOP('',(#569));
#571=FACE_OUTER_BOUND('',#570,.T.);
#572=ORIENTED_EDGE('',*,*,#548,.T.);
#573=EDGE_LOOP('',(#572));
#574=FACE_BOUND('',#573,.T.);
#575=ADVANCED_FACE('',(#571,#574),#560,.F.);
#576=CARTESIAN_POINT('',(0.0,1.486036465452657,0.0));
#577=DIRECTION('',(0.0,1.0,0.0));
#578=DIRECTION('',(1.0,0.0,0.0));
#579=AXIS2_PLACEMENT_3D('',#576,#577,#578);
#580=CONICAL_SURFACE('',#579,9.173602956840734,35.000000000000007);
#581=CARTESIAN_POINT('',(8.84252754911266,1.013211781824476,0.0));
#582=VERTEX_POINT('',#581);
#583=CARTESIAN_POINT('',(0.0,1.013211781824476,0.0));
#584=DIRECTION('',(0.0,-1.0,0.0));
#585=DIRECTION('',(1.0,0.0,0.0));
#586=AXIS2_PLACEMENT_3D('',#583,#584,#585);
#587=CIRCLE('',#586,8.84252754911266);
#588=EDGE_CURVE('',#582,#582,#587,.T.);
#589=ORIENTED_EDGE('',*,*,#588,.F.);
#590=EDGE_LOOP('',(#589));
#591=FACE_OUTER_BOUND('',#590,.T.);
#592=ORIENTED_EDGE('',*,*,#568,.T.);
#593=EDGE_LOOP('',(#592));
#594=FACE_BOUND('',#593,.T.);
#595=ADVANCED_FACE('',(#591,#594),#580,.T.);
#596=CARTESIAN_POINT('',(0.0,1.299999999999999,0.0));
#597=DIRECTION('',(0.0,-1.0,0.0));
#598=DIRECTION('',(0.0,0.0,-1.0));
#599=AXIS2_PLACEMENT_3D('',#596,#597,#598);
#600=TOROIDAL_SURFACE('',#599,8.432951526968164,0.5);
#601=CARTESIAN_POINT('',(8.432951526968164,0.8,0.0));
#602=VERTEX_POINT('',#601);
#603=CARTESIAN_POINT('',(0.0,0.8,0.0));
#604=DIRECTION('',(0.0,-1.0,0.0));
#605=DIRECTION('',(1.0,0.0,0.0));
#606=AXIS2_PLACEMENT_3D('',#603,#604,#605);
#607=CIRCLE('',#606,8.432951526968164);
#608=EDGE_CURVE('',#602,#602,#607,.T.);
#609=ORIENTED_EDGE('',*,*,#608,.F.);
#610=EDGE_LOOP('',(#609));
#611=FACE_OUTER_BOUND('',#610,.T.);
#612=ORIENTED_EDGE('',*,*,#588,.T.);
#613=EDGE_LOOP('',(#612));
#614=FACE_BOUND('',#613,.T.);
#615=ADVANCED_FACE('',(#611,#614),#600,.T.);
#616=CARTESIAN_POINT('',(5.358975763484086,0.8,0.0));
#617=DIRECTION('',(0.0,-1.0,0.0));
#618=DIRECTION('',(0.0,0.0,-1.0));
#619=AXIS2_PLACEMENT_3D('',#616,#617,#618);
#620=PLANE('',#619);
#621=ORIENTED_EDGE('',*,*,#608,.T.);
#622=EDGE_LOOP('',(#621));
#623=FACE_OUTER_BOUND('',#622,.T.);
#624=CARTESIAN_POINT('',(2.285000000000009,0.800000000000001,0.0));
#625=VERTEX_POINT('',#624);
#626=CARTESIAN_POINT('',(0.0,0.800000000000001,0.0));
#627=DIRECTION('',(0.0,-1.0,0.0));
#628=DIRECTION('',(1.0,0.0,0.0));
#629=AXIS2_PLACEMENT_3D('',#626,#627,#628);
#630=CIRCLE('',#629,2.285000000000009);
#631=EDGE_CURVE('',#625,#625,#630,.T.);
#632=ORIENTED_EDGE('',*,*,#631,.F.);
#633=EDGE_LOOP('',(#632));
#634=FACE_BOUND('',#633,.T.);
#635=ADVANCED_FACE('',(#623,#634),#620,.T.);
#636=CARTESIAN_POINT('',(0.0,6.749999999999999,0.0));
#637=DIRECTION('',(0.0,-1.0,0.0));
#638=DIRECTION('',(1.0,0.0,0.0));
#639=AXIS2_PLACEMENT_3D('',#636,#637,#638);
#640=CYLINDRICAL_SURFACE('',#639,2.285000000000006);
#641=ORIENTED_EDGE('',*,*,#391,.F.);
#642=EDGE_LOOP('',(#641));
#643=FACE_OUTER_BOUND('',#642,.T.);
#644=ORIENTED_EDGE('',*,*,#631,.T.);
#645=EDGE_LOOP('',(#644));
#646=FACE_BOUND('',#645,.T.);
#647=ADVANCED_FACE('',(#643,#646),#640,.F.);
#648=CLOSED_SHELL('',(#395,#415,#435,#455,#475,#495,#515,#535,#555,#575,#595,#615,#635,#647));
#649=MANIFOLD_SOLID_BREP('Volumenk\S\vrper1',#648);
#650=STYLED_ITEM('',(#275),#395);
#651=STYLED_ITEM('',(#275),#415);
#652=STYLED_ITEM('',(#275),#435);
#653=STYLED_ITEM('',(#275),#455);
#654=STYLED_ITEM('',(#275),#475);
#655=STYLED_ITEM('',(#275),#495);
#656=STYLED_ITEM('',(#275),#515);
#657=STYLED_ITEM('',(#275),#535);
#658=STYLED_ITEM('',(#275),#555);
#659=STYLED_ITEM('',(#275),#575);
#660=STYLED_ITEM('',(#275),#595);
#661=STYLED_ITEM('',(#275),#615);
#662=STYLED_ITEM('',(#275),#635);
#663=STYLED_ITEM('',(#275),#647);
#664=MECHANICAL_DESIGN_GEOMETRIC_PRESENTATION_REPRESENTATION('',(#650,#651,#652,#653,#654,#655,#656,#657,#658,#659,#660,#661,#662,#663),#367);
#665=STYLED_ITEM('',(#289),#649);
#666=ADVANCED_BREP_SHAPE_REPRESENTATION('ABSR',(#649),#336);
#667=SHAPE_REPRESENTATION_RELATIONSHIP('SRR','None',#666,#341);
#668=AXIS2_PLACEMENT_3D('',#669,#670,#671);
#669=CARTESIAN_POINT('',(41.29999999999999,1.710058E-029,66.700000000000088));
#670=DIRECTION('',(6.065927E-017,7.413584E-017,1.0));
#671=DIRECTION('',(-4.996004E-016,1.000000000000001,-1.665335E-016));
#672=NEXT_ASSEMBLY_USAGE_OCCURRENCE('N0003_003_001_06:1','N0003_003_001_06:1','N0003_003_001_06:1',#12,#312,'N0003_003_001_06:1');
#673=PRODUCT_DEFINITION_SHAPE('N0003_003_001_06:1','N0003_003_001_06:1',#672);
#674=ITEM_DEFINED_TRANSFORMATION('N0003_003_001_06:1','N0003_003_001_06:1',#337,#668);
#678=(REPRESENTATION_RELATIONSHIP('N0003_003_001_06:1','N0003_003_001_06:1',#341,#41)REPRESENTATION_RELATIONSHIP_WITH_TRANSFORMATION(#674)SHAPE_REPRESENTATION_RELATIONSHIP());
#679=CONTEXT_DEPENDENT_SHAPE_REPRESENTATION(#678,#673);
#680=AXIS2_PLACEMENT_3D('',#681,#682,#683);
#681=CARTESIAN_POINT('',(0.0,0.0,25.400000000000027));
#682=DIRECTION('',(-0.26712276122782,-0.963662508575499,0.0));
#683=DIRECTION('',(0.963662508575499,-0.26712276122782,0.0));
#684=NEXT_ASSEMBLY_USAGE_OCCURRENCE('N0003_003_001_06:2','N0003_003_001_06:2','N0003_003_001_06:2',#12,#312,'N0003_003_001_06:2');
#685=PRODUCT_DEFINITION_SHAPE('N0003_003_001_06:2','N0003_003_001_06:2',#684);
#686=ITEM_DEFINED_TRANSFORMATION('N0003_003_001_06:2','N0003_003_001_06:2',#337,#680);
#690=(REPRESENTATION_RELATIONSHIP('N0003_003_001_06:2','N0003_003_001_06:2',#341,#41)REPRESENTATION_RELATIONSHIP_WITH_TRANSFORMATION(#686)SHAPE_REPRESENTATION_RELATIONSHIP());
#691=CONTEXT_DEPENDENT_SHAPE_REPRESENTATION(#690,#685);
ENDSEC;
END-ISO-10303-21;
