ISO-10303-21;
HEADER;
FILE_DESCRIPTION (( 'STEP AP203' ),
    '1' );
FILE_NAME ('3D_R1650_26.9x2.6_17351170.STEP',
    '2024-08-03T08:45:20',
    ( '' ),
    ( '' ),
    'SwSTEP 2.0',
    'SolidWorks 2024',
    '' );
FILE_SCHEMA (( 'CONFIG_CONTROL_DESIGN' ));
ENDSEC;

DATA;
#1 = ORIENTED_EDGE ( 'NONE', *, *, #33, .T. ) ;
#2 = AXIS2_PLACEMENT_3D ( 'NONE', #243, #29, #52 ) ;
#3 = DIRECTION ( 'NONE',  ( 1.000000000000000000, 0.000000000000000000, -1.110223024625156787E-16 ) ) ;
#4 = CARTESIAN_POINT ( 'NONE',  ( -28.49999999999999289, 0.000000000000000000, -5.204170427930421283E-15 ) ) ;
#5 = DIRECTION ( 'NONE',  ( 0.7071067811865514585, 0.000000000000000000, 0.7071067811865436870 ) ) ;
#6 = DIRECTION ( 'NONE',  ( -0.7071067811865436870, 0.000000000000000000, 0.7071067811865513475 ) ) ;
#7 = APPLICATION_CONTEXT ( 'configuration controlled 3d designs of mechanical parts and assemblies' ) ;
#8 = ADVANCED_FACE ( 'NONE', ( #179 ), #242, .F. ) ;
#9 = CARTESIAN_POINT ( 'NONE',  ( 0.000000000000000000, 0.000000000000000000, 0.000000000000000000 ) ) ;
#10 = PERSON_AND_ORGANIZATION ( #150, #39 ) ;
#11 = AXIS2_PLACEMENT_3D ( 'NONE', #25, #154, #23 ) ;
#12 = DIRECTION ( 'NONE',  ( 1.110223024625156540E-16, 0.000000000000000000, 1.000000000000000000 ) ) ;
#13 = PERSON_AND_ORGANIZATION_ROLE ( 'creator' ) ;
#14 = CALENDAR_DATE ( 2024, 3, 8 ) ;
#15 = CC_DESIGN_DATE_AND_TIME_ASSIGNMENT ( #171, #167, ( #24 ) ) ;
#16 = COORDINATED_UNIVERSAL_TIME_OFFSET ( 1, 0, .AHEAD. ) ;
#17 = PERSON_AND_ORGANIZATION ( #150, #39 ) ;
#18 = VERTEX_POINT ( 'NONE', #43 ) ;
#19 = AXIS2_PLACEMENT_3D ( 'NONE', #30, #105, #189 ) ;
#20 = AXIS2_PLACEMENT_3D ( 'NONE', #137, #6, #118 ) ;
#21 = DIRECTION ( 'NONE',  ( 0.000000000000000000, 0.000000000000000000, 1.000000000000000000 ) ) ;
#22 = DIRECTION ( 'NONE',  ( 1.110223024625156540E-16, 0.000000000000000000, 1.000000000000000000 ) ) ;
#23 = DIRECTION ( 'NONE',  ( 0.000000000000000000, 0.000000000000000000, 1.000000000000000000 ) ) ;
#24 = SECURITY_CLASSIFICATION ( '', '', #92 ) ;
#25 = CARTESIAN_POINT ( 'NONE',  ( 0.000000000000000000, 0.000000000000000000, 0.000000000000000000 ) ) ;
#26 = VERTEX_POINT ( 'NONE', #42 ) ;
#27 = DESIGN_CONTEXT ( 'detailed design', #244, 'design' ) ;
#28 = ADVANCED_FACE ( 'NONE', ( #181 ), #185, .T. ) ;
#29 = DIRECTION ( 'NONE',  ( 1.110223024625156540E-16, 0.000000000000000000, 1.000000000000000000 ) ) ;
#30 = CARTESIAN_POINT ( 'NONE',  ( -20.15254326381671035, 0.000000000000000000, -20.15254326381649363 ) ) ;
#31 = PLANE ( 'NONE',  #70 ) ;
#32 = DATE_AND_TIME ( #213, #204 ) ;
#33 = EDGE_CURVE ( 'NONE', #234, #55, #149, .T. ) ;
#34 = CIRCLE ( 'NONE', #200, 41.95000000000000284 ) ;
#35 = CALENDAR_DATE ( 2024, 3, 8 ) ;
#36 = EDGE_LOOP ( 'NONE', ( #115, #216, #1, #93 ) ) ;
#37 = DATE_AND_TIME ( #133, #66 ) ;
#38 = ORIENTED_EDGE ( 'NONE', *, *, #160, .T. ) ;
#39 = ORGANIZATION ( 'UNSPECIFIED', 'UNSPECIFIED', '' ) ;
#40 = DIRECTION ( 'NONE',  ( 0.000000000000000000, 0.000000000000000000, 1.000000000000000000 ) ) ;
#41 = CIRCLE ( 'NONE', #20, 10.84999999999999787 ) ;
#42 = CARTESIAN_POINT ( 'NONE',  ( -41.95000000000000284, 0.000000000000000000, -3.710920459809585421E-15 ) ) ;
#43 = CARTESIAN_POINT ( 'NONE',  ( -29.66312947077582507, 0.000000000000000000, -29.66312947077551243 ) ) ;
#44 = APPROVAL ( #247, 'UNSPECIFIED' ) ;
#45 = TOROIDAL_SURFACE ( 'NONE', #79, 28.49999999999999645, 13.44999999999999929 ) ;
#46 = DIRECTION ( 'NONE',  ( -0.7071067811865436870, 0.000000000000000000, 0.7071067811865513475 ) ) ;
#47 = APPROVAL_PERSON_ORGANIZATION ( #17, #131, #57 ) ;
#48 = AXIS2_PLACEMENT_3D ( 'NONE', #156, #239, #218 ) ;
#49 = ORIENTED_EDGE ( 'NONE', *, *, #112, .F. ) ;
#50 =( LENGTH_UNIT ( ) NAMED_UNIT ( * ) SI_UNIT ( .MILLI., .METRE. ) );
#51 = CARTESIAN_POINT ( 'NONE',  ( -39.34999999999999432, 0.000000000000000000, 4.368727601899990355E-15 ) ) ;
#52 = DIRECTION ( 'NONE',  ( 1.000000000000000000, 0.000000000000000000, -1.110223024625156787E-16 ) ) ;
#53 = EDGE_CURVE ( 'NONE', #113, #230, #41, .T. ) ;
#54 = PERSON_AND_ORGANIZATION ( #150, #39 ) ;
#55 = VERTEX_POINT ( 'NONE', #198 ) ;
#56 = CIRCLE ( 'NONE', #224, 15.04999999999999716 ) ;
#57 = APPROVAL_ROLE ( '' ) ;
#58 = EDGE_LOOP ( 'NONE', ( #122, #128, #172, #132 ) ) ;
#59 = CARTESIAN_POINT ( 'NONE',  ( 0.000000000000000000, 0.000000000000000000, 0.000000000000000000 ) ) ;
#60 = CC_DESIGN_APPROVAL ( #44, ( #178 ) ) ;
#61 = EDGE_LOOP ( 'NONE', ( #121, #38 ) ) ;
#62 = CC_DESIGN_PERSON_AND_ORGANIZATION_ASSIGNMENT ( #229, #252, ( #178 ) ) ;
#63 = ORIENTED_EDGE ( 'NONE', *, *, #160, .F. ) ;
#64 = DIRECTION ( 'NONE',  ( 0.000000000000000000, 1.000000000000000000, 0.000000000000000000 ) ) ;
#65 = ORIENTED_EDGE ( 'NONE', *, *, #53, .T. ) ;
#66 = LOCAL_TIME ( 10, 45, 20.00000000000000000, #16 ) ;
#67 = COORDINATED_UNIVERSAL_TIME_OFFSET ( 1, 0, .AHEAD. ) ;
#68 = CARTESIAN_POINT ( 'NONE',  ( 0.000000000000000000, -1.328741777074878369E-15, 0.000000000000000000 ) ) ;
#69 = MECHANICAL_CONTEXT ( 'NONE', #7, 'mechanical' ) ;
#70 = AXIS2_PLACEMENT_3D ( 'NONE', #166, #206, #71 ) ;
#71 = DIRECTION ( 'NONE',  ( 0.7071067811865513475, 0.000000000000000000, 0.7071067811865436870 ) ) ;
#72 = CC_DESIGN_PERSON_AND_ORGANIZATION_ASSIGNMENT ( #54, #191, ( #24 ) ) ;
#73 = APPROVAL_ROLE ( '' ) ;
#74 = EDGE_CURVE ( 'NONE', #76, #26, #197, .T. ) ;
#75 = APPROVAL_STATUS ( 'not_yet_approved' ) ;
#76 = VERTEX_POINT ( 'NONE', #84 ) ;
#77 = APPROVAL_STATUS ( 'not_yet_approved' ) ;
#78 = ORIENTED_EDGE ( 'NONE', *, *, #33, .F. ) ;
#79 = AXIS2_PLACEMENT_3D ( 'NONE', #59, #134, #40 ) ;
#80 = AXIS2_PLACEMENT_3D ( 'NONE', #237, #199, #196 ) ;
#81 = EDGE_CURVE ( 'NONE', #18, #111, #220, .T. ) ;
#82 = EDGE_LOOP ( 'NONE', ( #217, #78 ) ) ;
#83 = CIRCLE ( 'NONE', #109, 17.64999999999999858 ) ;
#84 = CARTESIAN_POINT ( 'NONE',  ( -15.04999999999999538, 0.000000000000000000, -6.697420396051257146E-15 ) ) ;
#85 = ADVANCED_BREP_SHAPE_REPRESENTATION ( '3D_R1650_26.9x2.6_17351170', ( #253, #114 ), #228 ) ;
#86 = DIRECTION ( 'NONE',  ( 0.000000000000000000, 1.000000000000000000, 0.000000000000000000 ) ) ;
#87 =( NAMED_UNIT ( * ) SI_UNIT ( $, .STERADIAN. ) SOLID_ANGLE_UNIT ( ) );
#88 = DIRECTION ( 'NONE',  ( 0.000000000000000000, 0.000000000000000000, 1.000000000000000000 ) ) ;
#89 = APPLICATION_PROTOCOL_DEFINITION ( 'international standard', 'config_control_design', 1994, #244 ) ;
#90 = COORDINATED_UNIVERSAL_TIME_OFFSET ( 1, 0, .AHEAD. ) ;
#91 = SHAPE_DEFINITION_REPRESENTATION ( #249, #85 ) ;
#92 = SECURITY_CLASSIFICATION_LEVEL ( 'unclassified' ) ;
#93 = ORIENTED_EDGE ( 'NONE', *, *, #168, .F. ) ;
#94 = APPROVAL_PERSON_ORGANIZATION ( #104, #44, #73 ) ;
#95 = CARTESIAN_POINT ( 'NONE',  ( -28.49999999999999645, 0.000000000000000000, 3.164135620181695746E-15 ) ) ;
#96 = PRODUCT ( '3D_R1650_26.9x2.6_17351170', '3D_R1650_26.9x2.6_17351170', '', ( #69 ) ) ;
#97 = ORIENTED_EDGE ( 'NONE', *, *, #223, .T. ) ;
#98 = CARTESIAN_POINT ( 'NONE',  ( 0.000000000000000000, 0.000000000000000000, 0.000000000000000000 ) ) ;
#99 = CARTESIAN_POINT ( 'NONE',  ( -10.64195705685759030, -1.647149944853189991E-15, -10.64195705685748727 ) ) ;
#100 = DIRECTION ( 'NONE',  ( 1.110223024625156787E-16, 0.000000000000000000, 1.000000000000000000 ) ) ;
#101 = EDGE_CURVE ( 'NONE', #113, #234, #119, .T. ) ;
#102 =( NAMED_UNIT ( * ) PLANE_ANGLE_UNIT ( ) SI_UNIT ( $, .RADIAN. ) );
#103 = ADVANCED_FACE ( 'NONE', ( #219 ), #186, .F. ) ;
#104 = PERSON_AND_ORGANIZATION ( #150, #39 ) ;
#105 = DIRECTION ( 'NONE',  ( -0.7071067811865436870, 0.000000000000000000, 0.7071067811865513475 ) ) ;
#106 = PERSON_AND_ORGANIZATION_ROLE ( 'design_owner' ) ;
#107 = DATE_AND_TIME ( #35, #231 ) ;
#108 = EDGE_LOOP ( 'NONE', ( #170, #153, #194, #175 ) ) ;
#109 = AXIS2_PLACEMENT_3D ( 'NONE', #68, #245, #143 ) ;
#110 = APPROVAL_DATE_TIME ( #107, #131 ) ;
#111 = VERTEX_POINT ( 'NONE', #99 ) ;
#112 = EDGE_CURVE ( 'NONE', #111, #18, #246, .T. ) ;
#113 = VERTEX_POINT ( 'NONE', #158 ) ;
#114 = AXIS2_PLACEMENT_3D ( 'NONE', #9, #88, #241 ) ;
#115 = ORIENTED_EDGE ( 'NONE', *, *, #53, .F. ) ;
#116 = CLOSED_SHELL ( 'NONE', ( #103, #28, #124, #147, #139, #8 ) ) ;
#117 = DIRECTION ( 'NONE',  ( 1.000000000000000000, 0.000000000000000000, -1.110223024625156540E-16 ) ) ;
#118 = DIRECTION ( 'NONE',  ( 0.7071067811865514585, 0.000000000000000000, 0.7071067811865436870 ) ) ;
#119 = CIRCLE ( 'NONE', #11, 39.34999999999999432 ) ;
#120 = CC_DESIGN_SECURITY_CLASSIFICATION ( #24, ( #240 ) ) ;
#121 = ORIENTED_EDGE ( 'NONE', *, *, #74, .T. ) ;
#122 = ORIENTED_EDGE ( 'NONE', *, *, #101, .F. ) ;
#123 = DATE_AND_TIME ( #145, #183 ) ;
#124 = ADVANCED_FACE ( 'NONE', ( #201 ), #45, .T. ) ;
#125 = DIRECTION ( 'NONE',  ( 0.000000000000000000, 1.000000000000000000, 0.000000000000000000 ) ) ;
#126 = DIRECTION ( 'NONE',  ( 1.000000000000000000, 0.000000000000000000, -1.110223024625156787E-16 ) ) ;
#127 = AXIS2_PLACEMENT_3D ( 'NONE', #4, #22, #3 ) ;
#128 = ORIENTED_EDGE ( 'NONE', *, *, #235, .F. ) ;
#129 = APPROVAL_DATE_TIME ( #37, #251 ) ;
#130 = AXIS2_PLACEMENT_3D ( 'NONE', #225, #12, #161 ) ;
#131 = APPROVAL ( #77, 'UNSPECIFIED' ) ;
#132 = ORIENTED_EDGE ( 'NONE', *, *, #215, .T. ) ;
#133 = CALENDAR_DATE ( 2024, 3, 8 ) ;
#134 = DIRECTION ( 'NONE',  ( 0.000000000000000000, 1.000000000000000000, 0.000000000000000000 ) ) ;
#135 = EDGE_LOOP ( 'NONE', ( #195, #212, #97, #63 ) ) ;
#136 = DIRECTION ( 'NONE',  ( 1.110223024625156540E-16, 0.000000000000000000, 1.000000000000000000 ) ) ;
#137 = CARTESIAN_POINT ( 'NONE',  ( -20.15254326381671035, 0.000000000000000000, -20.15254326381649363 ) ) ;
#138 = CC_DESIGN_PERSON_AND_ORGANIZATION_ASSIGNMENT ( #169, #13, ( #240 ) ) ;
#139 = ADVANCED_FACE ( 'NONE', ( #236, #140 ), #31, .F. ) ;
#140 = FACE_OUTER_BOUND ( 'NONE', #155, .T. ) ;
#141 = DIRECTION ( 'NONE',  ( 0.000000000000000000, 0.000000000000000000, 1.000000000000000000 ) ) ;
#142 = CIRCLE ( 'NONE', #130, 10.84999999999999787 ) ;
#143 = DIRECTION ( 'NONE',  ( 0.000000000000000000, 0.000000000000000000, 1.000000000000000000 ) ) ;
#144 = PLANE ( 'NONE',  #192 ) ;
#145 = CALENDAR_DATE ( 2024, 3, 8 ) ;
#146 = CIRCLE ( 'NONE', #19, 10.84999999999999787 ) ;
#147 = ADVANCED_FACE ( 'NONE', ( #190, #221 ), #144, .T. ) ;
#148 = PERSON_AND_ORGANIZATION_ROLE ( 'design_supplier' ) ;
#149 = CIRCLE ( 'NONE', #210, 10.84999999999999787 ) ;
#150 = PERSON ( 'UNSPECIFIED', 'UNSPECIFIED', 'UNSPECIFIED', ('UNSPECIFIED'), ('UNSPECIFIED'), ('UNSPECIFIED') ) ;
#151 = EDGE_LOOP ( 'NONE', ( #202, #65 ) ) ;
#152 = CIRCLE ( 'NONE', #2, 13.44999999999999929 ) ;
#153 = ORIENTED_EDGE ( 'NONE', *, *, #226, .T. ) ;
#154 = DIRECTION ( 'NONE',  ( 0.000000000000000000, 1.000000000000000000, 0.000000000000000000 ) ) ;
#155 = EDGE_LOOP ( 'NONE', ( #49, #176 ) ) ;
#156 = CARTESIAN_POINT ( 'NONE',  ( -20.15254326381670680, 0.000000000000000000, -20.15254326381649719 ) ) ;
#157 = CC_DESIGN_PERSON_AND_ORGANIZATION_ASSIGNMENT ( #214, #148, ( #240 ) ) ;
#158 = CARTESIAN_POINT ( 'NONE',  ( -27.82465183969079447, 0.000000000000000000, -27.82465183969048894 ) ) ;
#159 = DIRECTION ( 'NONE',  ( 0.000000000000000000, 0.000000000000000000, 1.000000000000000000 ) ) ;
#160 = EDGE_CURVE ( 'NONE', #26, #76, #152, .T. ) ;
#161 = DIRECTION ( 'NONE',  ( 1.000000000000000000, 0.000000000000000000, -1.110223024625156540E-16 ) ) ;
#162 = APPLICATION_PROTOCOL_DEFINITION ( 'international standard', 'config_control_design', 1994, #7 ) ;
#163 = AXIS2_PLACEMENT_3D ( 'NONE', #180, #46, #5 ) ;
#164 = CC_DESIGN_APPROVAL ( #251, ( #24 ) ) ;
#165 = DIRECTION ( 'NONE',  ( 0.000000000000000000, 0.000000000000000000, 1.000000000000000000 ) ) ;
#166 = CARTESIAN_POINT ( 'NONE',  ( -20.15254326381670680, 0.000000000000000000, -20.15254326381649719 ) ) ;
#167 = DATE_TIME_ROLE ( 'classification_date' ) ;
#168 = EDGE_CURVE ( 'NONE', #230, #55, #83, .T. ) ;
#169 = PERSON_AND_ORGANIZATION ( #150, #39 ) ;
#170 = ORIENTED_EDGE ( 'NONE', *, *, #112, .T. ) ;
#171 = DATE_AND_TIME ( #14, #173 ) ;
#172 = ORIENTED_EDGE ( 'NONE', *, *, #168, .T. ) ;
#173 = LOCAL_TIME ( 10, 45, 20.00000000000000000, #90 ) ;
#174 = AXIS2_PLACEMENT_3D ( 'NONE', #238, #64, #21 ) ;
#175 = ORIENTED_EDGE ( 'NONE', *, *, #223, .F. ) ;
#176 = ORIENTED_EDGE ( 'NONE', *, *, #81, .F. ) ;
#177 = AXIS2_PLACEMENT_3D ( 'NONE', #98, #86, #159 ) ;
#178 = PRODUCT_DEFINITION ( 'UNKNOWN', '', #240, #27 ) ;
#179 = FACE_OUTER_BOUND ( 'NONE', #58, .T. ) ;
#180 = CARTESIAN_POINT ( 'NONE',  ( -20.15254326381670680, 0.000000000000000000, -20.15254326381649719 ) ) ;
#181 = FACE_OUTER_BOUND ( 'NONE', #108, .T. ) ;
#182 = UNCERTAINTY_MEASURE_WITH_UNIT (LENGTH_MEASURE( 1.000000000000000082E-05 ), #50, 'distance_accuracy_value', 'NONE');
#183 = LOCAL_TIME ( 10, 45, 20.00000000000000000, #67 ) ;
#184 = CARTESIAN_POINT ( 'NONE',  ( -28.49999999999999289, 0.000000000000000000, -5.204170427930421283E-15 ) ) ;
#185 = TOROIDAL_SURFACE ( 'NONE', #174, 28.49999999999999645, 13.44999999999999929 ) ;
#186 = TOROIDAL_SURFACE ( 'NONE', #177, 28.49999999999999645, 10.84999999999999964 ) ;
#187 = CC_DESIGN_PERSON_AND_ORGANIZATION_ASSIGNMENT ( #10, #106, ( #96 ) ) ;
#188 = CC_DESIGN_APPROVAL ( #131, ( #240 ) ) ;
#189 = DIRECTION ( 'NONE',  ( 0.7071067811865514585, 0.000000000000000000, 0.7071067811865436870 ) ) ;
#190 = FACE_BOUND ( 'NONE', #82, .T. ) ;
#191 = PERSON_AND_ORGANIZATION_ROLE ( 'classification_officer' ) ;
#192 = AXIS2_PLACEMENT_3D ( 'NONE', #184, #100, #126 ) ;
#193 = APPROVAL_ROLE ( '' ) ;
#194 = ORIENTED_EDGE ( 'NONE', *, *, #74, .F. ) ;
#195 = ORIENTED_EDGE ( 'NONE', *, *, #226, .F. ) ;
#196 = DIRECTION ( 'NONE',  ( 0.000000000000000000, 0.000000000000000000, 1.000000000000000000 ) ) ;
#197 = CIRCLE ( 'NONE', #127, 13.44999999999999929 ) ;
#198 = CARTESIAN_POINT ( 'NONE',  ( -17.64999999999999858, 0.000000000000000000, 1.959543638463401136E-15 ) ) ;
#199 = DIRECTION ( 'NONE',  ( 0.000000000000000000, 1.000000000000000000, 0.000000000000000000 ) ) ;
#200 = AXIS2_PLACEMENT_3D ( 'NONE', #222, #208, #165 ) ;
#201 = FACE_OUTER_BOUND ( 'NONE', #135, .T. ) ;
#202 = ORIENTED_EDGE ( 'NONE', *, *, #235, .T. ) ;
#203 = APPROVAL_DATE_TIME ( #123, #44 ) ;
#204 = LOCAL_TIME ( 10, 45, 20.00000000000000000, #211 ) ;
#205 = CARTESIAN_POINT ( 'NONE',  ( -12.48043468794262800, -1.328741777074878369E-15, -12.48043468794249655 ) ) ;
#206 = DIRECTION ( 'NONE',  ( -0.7071067811865436870, 0.000000000000000000, 0.7071067811865513475 ) ) ;
#207 = PRODUCT_RELATED_PRODUCT_CATEGORY ( 'detail', '', ( #96 ) ) ;
#208 = DIRECTION ( 'NONE',  ( 0.000000000000000000, 1.000000000000000000, 0.000000000000000000 ) ) ;
#209 = APPROVAL_PERSON_ORGANIZATION ( #248, #251, #193 ) ;
#210 = AXIS2_PLACEMENT_3D ( 'NONE', #95, #136, #117 ) ;
#211 = COORDINATED_UNIVERSAL_TIME_OFFSET ( 1, 0, .AHEAD. ) ;
#212 = ORIENTED_EDGE ( 'NONE', *, *, #81, .T. ) ;
#213 = CALENDAR_DATE ( 2024, 3, 8 ) ;
#214 = PERSON_AND_ORGANIZATION ( #150, #39 ) ;
#215 = EDGE_CURVE ( 'NONE', #55, #234, #142, .T. ) ;
#216 = ORIENTED_EDGE ( 'NONE', *, *, #101, .T. ) ;
#217 = ORIENTED_EDGE ( 'NONE', *, *, #215, .F. ) ;
#218 = DIRECTION ( 'NONE',  ( 0.7071067811865514585, 0.000000000000000000, 0.7071067811865436870 ) ) ;
#219 = FACE_OUTER_BOUND ( 'NONE', #36, .T. ) ;
#220 = CIRCLE ( 'NONE', #48, 13.44999999999999929 ) ;
#221 = FACE_OUTER_BOUND ( 'NONE', #61, .T. ) ;
#222 = CARTESIAN_POINT ( 'NONE',  ( 0.000000000000000000, 0.000000000000000000, 0.000000000000000000 ) ) ;
#223 = EDGE_CURVE ( 'NONE', #111, #76, #56, .T. ) ;
#224 = AXIS2_PLACEMENT_3D ( 'NONE', #227, #125, #141 ) ;
#225 = CARTESIAN_POINT ( 'NONE',  ( -28.49999999999999645, 0.000000000000000000, 3.164135620181695746E-15 ) ) ;
#226 = EDGE_CURVE ( 'NONE', #18, #26, #34, .T. ) ;
#227 = CARTESIAN_POINT ( 'NONE',  ( 0.000000000000000000, -1.647149944853189991E-15, 0.000000000000000000 ) ) ;
#228 =( GEOMETRIC_REPRESENTATION_CONTEXT ( 3 ) GLOBAL_UNCERTAINTY_ASSIGNED_CONTEXT ( ( #182 ) ) GLOBAL_UNIT_ASSIGNED_CONTEXT ( ( #50, #102, #87 ) ) REPRESENTATION_CONTEXT ( 'NONE', 'WORKASPACE' ) );
#229 = PERSON_AND_ORGANIZATION ( #150, #39 ) ;
#230 = VERTEX_POINT ( 'NONE', #205 ) ;
#231 = LOCAL_TIME ( 10, 45, 20.00000000000000000, #250 ) ;
#232 = CC_DESIGN_DATE_AND_TIME_ASSIGNMENT ( #32, #233, ( #178 ) ) ;
#233 = DATE_TIME_ROLE ( 'creation_date' ) ;
#234 = VERTEX_POINT ( 'NONE', #51 ) ;
#235 = EDGE_CURVE ( 'NONE', #230, #113, #146, .T. ) ;
#236 = FACE_BOUND ( 'NONE', #151, .T. ) ;
#237 = CARTESIAN_POINT ( 'NONE',  ( 0.000000000000000000, 0.000000000000000000, 0.000000000000000000 ) ) ;
#238 = CARTESIAN_POINT ( 'NONE',  ( 0.000000000000000000, 0.000000000000000000, 0.000000000000000000 ) ) ;
#239 = DIRECTION ( 'NONE',  ( -0.7071067811865436870, 0.000000000000000000, 0.7071067811865513475 ) ) ;
#240 = PRODUCT_DEFINITION_FORMATION_WITH_SPECIFIED_SOURCE ( 'ANY', '', #96, .NOT_KNOWN. ) ;
#241 = DIRECTION ( 'NONE',  ( 1.000000000000000000, 0.000000000000000000, 0.000000000000000000 ) ) ;
#242 = TOROIDAL_SURFACE ( 'NONE', #80, 28.49999999999999645, 10.84999999999999964 ) ;
#243 = CARTESIAN_POINT ( 'NONE',  ( -28.49999999999999289, 0.000000000000000000, -5.204170427930421283E-15 ) ) ;
#244 = APPLICATION_CONTEXT ( 'configuration controlled 3d designs of mechanical parts and assemblies' ) ;
#245 = DIRECTION ( 'NONE',  ( 0.000000000000000000, 1.000000000000000000, 0.000000000000000000 ) ) ;
#246 = CIRCLE ( 'NONE', #163, 13.44999999999999929 ) ;
#247 = APPROVAL_STATUS ( 'not_yet_approved' ) ;
#248 = PERSON_AND_ORGANIZATION ( #150, #39 ) ;
#249 = PRODUCT_DEFINITION_SHAPE ( 'NONE', 'NONE',  #178 ) ;
#250 = COORDINATED_UNIVERSAL_TIME_OFFSET ( 1, 0, .AHEAD. ) ;
#251 = APPROVAL ( #75, 'UNSPECIFIED' ) ;
#252 = PERSON_AND_ORGANIZATION_ROLE ( 'creator' ) ;
#253 = MANIFOLD_SOLID_BREP ( 'Wandung1', #116 ) ;
ENDSEC;
END-ISO-10303-21;
