ISO-10303-21;
HEADER;
FILE_DESCRIPTION (( 'STEP AP203' ),
    '1' );
FILE_NAME ('3D_R1651_42.4x3.2_17352250.STEP',
    '2024-08-05T06:54:46',
    ( '' ),
    ( '' ),
    'SwSTEP 2.0',
    'SolidWorks 2024',
    '' );
FILE_SCHEMA (( 'CONFIG_CONTROL_DESIGN' ));
ENDSEC;

DATA;
#1 = DIRECTION ( 'NONE',  ( 1.000000000000000000, 0.000000000000000000, 3.588188783216163682E-16 ) ) ;
#2 = CALENDAR_DATE ( 2024, 5, 8 ) ;
#3 = LOCAL_TIME ( 8, 54, 46.00000000000000000, #136 ) ;
#4 = CALENDAR_DATE ( 2024, 5, 8 ) ;
#5 = CARTESIAN_POINT ( 'NONE',  ( -30.00000000000000355, 0.000000000000000000, -1.076456634964849262E-14 ) ) ;
#6 = DIRECTION ( 'NONE',  ( 0.000000000000000000, 1.000000000000000000, 0.000000000000000000 ) ) ;
#7 = APPLICATION_CONTEXT ( 'configuration controlled 3d designs of mechanical parts and assemblies' ) ;
#8 = AXIS2_PLACEMENT_3D ( 'NONE', #224, #33, #241 ) ;
#9 = DIRECTION ( 'NONE',  ( 0.000000000000000000, 0.000000000000000000, 1.000000000000000000 ) ) ;
#10 = PRODUCT_RELATED_PRODUCT_CATEGORY ( 'detail', '', ( #235 ) ) ;
#11 = PERSON_AND_ORGANIZATION_ROLE ( 'design_owner' ) ;
#12 = PRODUCT_DEFINITION_FORMATION_WITH_SPECIFIED_SOURCE ( 'ANY', '', #235, .NOT_KNOWN. ) ;
#13 = APPROVAL_PERSON_ORGANIZATION ( #167, #75, #205 ) ;
#14 = FACE_BOUND ( 'NONE', #76, .T. ) ;
#15 = CIRCLE ( 'NONE', #233, 26.80000000000000071 ) ;
#16 = ORIENTED_EDGE ( 'NONE', *, *, #162, .F. ) ;
#17 = CC_DESIGN_DATE_AND_TIME_ASSIGNMENT ( #133, #238, ( #22 ) ) ;
#18 = EDGE_LOOP ( 'NONE', ( #57, #141 ) ) ;
#19 = LOCAL_TIME ( 8, 54, 46.00000000000000000, #240 ) ;
#20 = CARTESIAN_POINT ( 'NONE',  ( 0.000000000000000000, 0.000000000000000000, 0.000000000000000000 ) ) ;
#21 = APPROVAL_DATE_TIME ( #27, #75 ) ;
#22 = PRODUCT_DEFINITION ( 'UNKNOWN', '', #12, #216 ) ;
#23 = CIRCLE ( 'NONE', #161, 69.20000000000000284 ) ;
#24 = DIRECTION ( 'NONE',  ( 0.000000000000000000, 1.000000000000000000, 0.000000000000000000 ) ) ;
#25 = APPROVAL_DATE_TIME ( #139, #211 ) ;
#26 = CARTESIAN_POINT ( 'NONE',  ( -48.00000000000000000, 0.000000000000000000, -1.722330615943758567E-14 ) ) ;
#27 = DATE_AND_TIME ( #134, #132 ) ;
#28 = CARTESIAN_POINT ( 'NONE',  ( -66.00000000000000000, 0.000000000000000000, -2.368204596922668188E-14 ) ) ;
#29 = PERSON_AND_ORGANIZATION_ROLE ( 'creator' ) ;
#30 = DIRECTION ( 'NONE',  ( 0.000000000000000000, 1.000000000000000000, 0.000000000000000000 ) ) ;
#31 = CC_DESIGN_PERSON_AND_ORGANIZATION_ASSIGNMENT ( #201, #29, ( #12 ) ) ;
#32 = MECHANICAL_CONTEXT ( 'NONE', #106, 'mechanical' ) ;
#33 = DIRECTION ( 'NONE',  ( 0.000000000000000000, 1.000000000000000000, 0.000000000000000000 ) ) ;
#34 = CC_DESIGN_APPROVAL ( #59, ( #12 ) ) ;
#35 = ORIENTED_EDGE ( 'NONE', *, *, #213, .T. ) ;
#36 = AXIS2_PLACEMENT_3D ( 'NONE', #107, #44, #125 ) ;
#37 = CIRCLE ( 'NONE', #92, 21.19999999999999929 ) ;
#38 = CARTESIAN_POINT ( 'NONE',  ( -26.80000000000000071, 0.000000000000000000, -1.210496733442681134E-15 ) ) ;
#39 = DIRECTION ( 'NONE',  ( -3.588188783216163682E-16, 0.000000000000000000, 1.000000000000000000 ) ) ;
#40 = DATE_AND_TIME ( #129, #143 ) ;
#41 = AXIS2_PLACEMENT_3D ( 'NONE', #242, #113, #115 ) ;
#42 = DIRECTION ( 'NONE',  ( 0.000000000000000000, 1.000000000000000000, 0.000000000000000000 ) ) ;
#43 = APPROVAL_STATUS ( 'not_yet_approved' ) ;
#44 = DIRECTION ( 'NONE',  ( -1.000000000000000000, 0.000000000000000000, 2.811037930586189913E-15 ) ) ;
#45 = SHAPE_DEFINITION_REPRESENTATION ( #202, #168 ) ;
#46 = AXIS2_PLACEMENT_3D ( 'NONE', #82, #128, #180 ) ;
#47 = PERSON_AND_ORGANIZATION ( #135, #227 ) ;
#48 = ADVANCED_FACE ( 'NONE', ( #14, #253 ), #159, .T. ) ;
#49 = PERSON_AND_ORGANIZATION ( #135, #227 ) ;
#50 = COORDINATED_UNIVERSAL_TIME_OFFSET ( 1, 0, .AHEAD. ) ;
#51 = CIRCLE ( 'NONE', #8, 30.00000000000000355 ) ;
#52 = CARTESIAN_POINT ( 'NONE',  ( -2.029296740021410016E-13, 0.000000000000000000, -69.20000000000000284 ) ) ;
#53 = CARTESIAN_POINT ( 'NONE',  ( 0.000000000000000000, 0.000000000000000000, 0.000000000000000000 ) ) ;
#54 = CALENDAR_DATE ( 2024, 5, 8 ) ;
#55 = ORIENTED_EDGE ( 'NONE', *, *, #70, .F. ) ;
#56 = CC_DESIGN_APPROVAL ( #211, ( #22 ) ) ;
#57 = ORIENTED_EDGE ( 'NONE', *, *, #228, .T. ) ;
#58 = ORIENTED_EDGE ( 'NONE', *, *, #93, .F. ) ;
#59 = APPROVAL ( #43, 'UNSPECIFIED' ) ;
#60 = UNCERTAINTY_MEASURE_WITH_UNIT (LENGTH_MEASURE( 1.000000000000000082E-05 ), #138, 'distance_accuracy_value', 'NONE');
#61 = DIRECTION ( 'NONE',  ( 0.000000000000000000, 0.000000000000000000, 1.000000000000000000 ) ) ;
#62 = DIRECTION ( 'NONE',  ( -1.000000000000000000, 0.000000000000000000, 2.811037930586189913E-15 ) ) ;
#63 = DIRECTION ( 'NONE',  ( 1.000000000000000000, 0.000000000000000000, 3.588188783216163682E-16 ) ) ;
#64 = APPROVAL_STATUS ( 'not_yet_approved' ) ;
#65 = DIRECTION ( 'NONE',  ( 0.000000000000000000, 0.000000000000000000, 1.000000000000000000 ) ) ;
#66 = EDGE_CURVE ( 'NONE', #100, #102, #142, .T. ) ;
#67 = CARTESIAN_POINT ( 'NONE',  ( 0.000000000000000000, -2.596251214192388770E-15, 0.000000000000000000 ) ) ;
#68 = CC_DESIGN_SECURITY_CLASSIFICATION ( #181, ( #12 ) ) ;
#69 = PERSON_AND_ORGANIZATION ( #135, #227 ) ;
#70 = EDGE_CURVE ( 'NONE', #231, #230, #23, .T. ) ;
#71 = FACE_OUTER_BOUND ( 'NONE', #176, .T. ) ;
#72 =( NAMED_UNIT ( * ) PLANE_ANGLE_UNIT ( ) SI_UNIT ( $, .RADIAN. ) );
#73 = CARTESIAN_POINT ( 'NONE',  ( -8.374166574528654011E-14, 0.000000000000000000, -26.80000000000000071 ) ) ;
#74 = CIRCLE ( 'NONE', #158, 21.19999999999999929 ) ;
#75 = APPROVAL ( #64, 'UNSPECIFIED' ) ;
#76 = EDGE_LOOP ( 'NONE', ( #58, #196 ) ) ;
#77 = ORIENTED_EDGE ( 'NONE', *, *, #191, .F. ) ;
#78 = CC_DESIGN_DATE_AND_TIME_ASSIGNMENT ( #200, #83, ( #181 ) ) ;
#79 = EDGE_LOOP ( 'NONE', ( #123, #80 ) ) ;
#80 = ORIENTED_EDGE ( 'NONE', *, *, #66, .T. ) ;
#81 = APPROVAL_PERSON_ORGANIZATION ( #69, #211, #173 ) ;
#82 = CARTESIAN_POINT ( 'NONE',  ( -48.00000000000000000, 0.000000000000000000, -1.722330615943758567E-14 ) ) ;
#83 = DATE_TIME_ROLE ( 'classification_date' ) ;
#84 = DIRECTION ( 'NONE',  ( -3.588188783216163682E-16, 0.000000000000000000, 1.000000000000000000 ) ) ;
#85 = FACE_OUTER_BOUND ( 'NONE', #190, .T. ) ;
#86 = CARTESIAN_POINT ( 'NONE',  ( -1.433356698737137772E-13, 0.000000000000000000, -48.00000000000000000 ) ) ;
#87 = DIRECTION ( 'NONE',  ( 0.000000000000000000, 0.000000000000000000, 1.000000000000000000 ) ) ;
#88 = PERSON_AND_ORGANIZATION ( #135, #227 ) ;
#89 = APPLICATION_PROTOCOL_DEFINITION ( 'international standard', 'config_control_design', 1994, #106 ) ;
#90 = CLOSED_SHELL ( 'NONE', ( #221, #117, #156, #48, #194, #109 ) ) ;
#91 = CARTESIAN_POINT ( 'NONE',  ( -69.20000000000000284, 0.000000000000000000, -1.642441717427921629E-14 ) ) ;
#92 = AXIS2_PLACEMENT_3D ( 'NONE', #185, #152, #210 ) ;
#93 = EDGE_CURVE ( 'NONE', #247, #193, #131, .T. ) ;
#94 = AXIS2_PLACEMENT_3D ( 'NONE', #165, #236, #199 ) ;
#95 = ORIENTED_EDGE ( 'NONE', *, *, #93, .T. ) ;
#96 = TOROIDAL_SURFACE ( 'NONE', #237, 48.00000000000000000, 21.19999999999999929 ) ;
#97 = ORIENTED_EDGE ( 'NONE', *, *, #99, .T. ) ;
#98 = AXIS2_PLACEMENT_3D ( 'NONE', #187, #30, #245 ) ;
#99 = EDGE_CURVE ( 'NONE', #193, #247, #188, .T. ) ;
#100 = VERTEX_POINT ( 'NONE', #234 ) ;
#101 = EDGE_LOOP ( 'NONE', ( #160, #77 ) ) ;
#102 = VERTEX_POINT ( 'NONE', #219 ) ;
#103 = DIRECTION ( 'NONE',  ( 0.000000000000000000, 0.000000000000000000, 1.000000000000000000 ) ) ;
#104 = CIRCLE ( 'NONE', #153, 21.19999999999999929 ) ;
#105 = DIRECTION ( 'NONE',  ( 0.000000000000000000, 0.000000000000000000, 1.000000000000000000 ) ) ;
#106 = APPLICATION_CONTEXT ( 'configuration controlled 3d designs of mechanical parts and assemblies' ) ;
#107 = CARTESIAN_POINT ( 'NONE',  ( -1.349298206681371095E-13, 0.000000000000000000, -48.00000000000000000 ) ) ;
#108 = PERSON_AND_ORGANIZATION ( #135, #227 ) ;
#109 = ADVANCED_FACE ( 'NONE', ( #85 ), #154, .F. ) ;
#110 = CARTESIAN_POINT ( 'NONE',  ( 0.000000000000000000, 0.000000000000000000, 0.000000000000000000 ) ) ;
#111 = CARTESIAN_POINT ( 'NONE',  ( 0.000000000000000000, 0.000000000000000000, 0.000000000000000000 ) ) ;
#112 = APPROVAL_ROLE ( '' ) ;
#113 = DIRECTION ( 'NONE',  ( -1.000000000000000000, 0.000000000000000000, 2.811037930586189913E-15 ) ) ;
#114 = DIRECTION ( 'NONE',  ( 0.000000000000000000, 1.000000000000000000, 0.000000000000000000 ) ) ;
#115 = DIRECTION ( 'NONE',  ( 2.811037930586189913E-15, 0.000000000000000000, 1.000000000000000000 ) ) ;
#116 = MANIFOLD_SOLID_BREP ( 'Wandung1', #90 ) ;
#117 = ADVANCED_FACE ( 'NONE', ( #178 ), #96, .T. ) ;
#118 = CARTESIAN_POINT ( 'NONE',  ( 0.000000000000000000, 0.000000000000000000, 0.000000000000000000 ) ) ;
#119 = AXIS2_PLACEMENT_3D ( 'NONE', #20, #126, #103 ) ;
#120 = ORIENTED_EDGE ( 'NONE', *, *, #172, .T. ) ;
#121 = VERTEX_POINT ( 'NONE', #38 ) ;
#122 =( GEOMETRIC_REPRESENTATION_CONTEXT ( 3 ) GLOBAL_UNCERTAINTY_ASSIGNED_CONTEXT ( ( #60 ) ) GLOBAL_UNIT_ASSIGNED_CONTEXT ( ( #138, #72, #157 ) ) REPRESENTATION_CONTEXT ( 'NONE', 'WORKASPACE' ) );
#123 = ORIENTED_EDGE ( 'NONE', *, *, #145, .T. ) ;
#124 = CC_DESIGN_PERSON_AND_ORGANIZATION_ASSIGNMENT ( #108, #220, ( #12 ) ) ;
#125 = DIRECTION ( 'NONE',  ( 2.811037930586189125E-15, 0.000000000000000000, 1.000000000000000000 ) ) ;
#126 = DIRECTION ( 'NONE',  ( 0.000000000000000000, 1.000000000000000000, 0.000000000000000000 ) ) ;
#127 = COORDINATED_UNIVERSAL_TIME_OFFSET ( 1, 0, .AHEAD. ) ;
#128 = DIRECTION ( 'NONE',  ( -3.588188783216163682E-16, 0.000000000000000000, 1.000000000000000000 ) ) ;
#129 = CALENDAR_DATE ( 2024, 5, 8 ) ;
#130 = CC_DESIGN_PERSON_AND_ORGANIZATION_ASSIGNMENT ( #49, #11, ( #235 ) ) ;
#131 = CIRCLE ( 'NONE', #46, 18.00000000000000000 ) ;
#132 = LOCAL_TIME ( 8, 54, 46.00000000000000000, #50 ) ;
#133 = DATE_AND_TIME ( #4, #19 ) ;
#134 = CALENDAR_DATE ( 2024, 5, 8 ) ;
#135 = PERSON ( 'UNSPECIFIED', 'UNSPECIFIED', 'UNSPECIFIED', ('UNSPECIFIED'), ('UNSPECIFIED'), ('UNSPECIFIED') ) ;
#136 = COORDINATED_UNIVERSAL_TIME_OFFSET ( 1, 0, .AHEAD. ) ;
#137 = LOCAL_TIME ( 8, 54, 46.00000000000000000, #127 ) ;
#138 =( LENGTH_UNIT ( ) NAMED_UNIT ( * ) SI_UNIT ( .MILLI., .METRE. ) );
#139 = DATE_AND_TIME ( #54, #3 ) ;
#140 = CARTESIAN_POINT ( 'NONE',  ( -48.00000000000000000, 0.000000000000000000, -8.817456953860948022E-15 ) ) ;
#141 = ORIENTED_EDGE ( 'NONE', *, *, #162, .T. ) ;
#142 = CIRCLE ( 'NONE', #212, 18.00000000000000000 ) ;
#143 = LOCAL_TIME ( 8, 54, 46.00000000000000000, #146 ) ;
#144 = ORIENTED_EDGE ( 'NONE', *, *, #228, .F. ) ;
#145 = EDGE_CURVE ( 'NONE', #102, #100, #225, .T. ) ;
#146 = COORDINATED_UNIVERSAL_TIME_OFFSET ( 1, 0, .AHEAD. ) ;
#147 = FACE_OUTER_BOUND ( 'NONE', #215, .T. ) ;
#148 = PERSON_AND_ORGANIZATION_ROLE ( 'creator' ) ;
#149 = APPROVAL_PERSON_ORGANIZATION ( #88, #59, #112 ) ;
#150 = PLANE ( 'NONE',  #41 ) ;
#151 = APPROVAL_STATUS ( 'not_yet_approved' ) ;
#152 = DIRECTION ( 'NONE',  ( -3.588188783216163682E-16, 0.000000000000000000, 1.000000000000000000 ) ) ;
#153 = AXIS2_PLACEMENT_3D ( 'NONE', #86, #243, #208 ) ;
#154 = TOROIDAL_SURFACE ( 'NONE', #207, 48.00000000000000000, 18.00000000000000000 ) ;
#155 = TOROIDAL_SURFACE ( 'NONE', #244, 48.00000000000000000, 18.00000000000000000 ) ;
#156 = ADVANCED_FACE ( 'NONE', ( #147 ), #179, .T. ) ;
#157 =( NAMED_UNIT ( * ) SI_UNIT ( $, .STERADIAN. ) SOLID_ANGLE_UNIT ( ) );
#158 = AXIS2_PLACEMENT_3D ( 'NONE', #198, #39, #1 ) ;
#159 = PLANE ( 'NONE',  #250 ) ;
#160 = ORIENTED_EDGE ( 'NONE', *, *, #172, .F. ) ;
#161 = AXIS2_PLACEMENT_3D ( 'NONE', #111, #42, #61 ) ;
#162 = EDGE_CURVE ( 'NONE', #230, #121, #74, .T. ) ;
#163 = AXIS2_PLACEMENT_3D ( 'NONE', #53, #209, #186 ) ;
#164 = DIRECTION ( 'NONE',  ( 0.000000000000000000, 1.000000000000000000, 0.000000000000000000 ) ) ;
#165 = CARTESIAN_POINT ( 'NONE',  ( -1.433356698737137772E-13, 0.000000000000000000, -48.00000000000000000 ) ) ;
#166 = DIRECTION ( 'NONE',  ( 2.811037930586189125E-15, 0.000000000000000000, 1.000000000000000000 ) ) ;
#167 = PERSON_AND_ORGANIZATION ( #135, #227 ) ;
#168 = ADVANCED_BREP_SHAPE_REPRESENTATION ( '3D_R1651_42.4x3.2_17352250', ( #116, #163 ), #122 ) ;
#169 = CARTESIAN_POINT ( 'NONE',  ( 0.000000000000000000, 0.000000000000000000, 0.000000000000000000 ) ) ;
#170 = PERSON_AND_ORGANIZATION_ROLE ( 'classification_officer' ) ;
#171 = CC_DESIGN_PERSON_AND_ORGANIZATION_ASSIGNMENT ( #218, #148, ( #22 ) ) ;
#172 = EDGE_CURVE ( 'NONE', #252, #231, #249, .T. ) ;
#173 = APPROVAL_ROLE ( '' ) ;
#174 = ORIENTED_EDGE ( 'NONE', *, *, #70, .T. ) ;
#175 = ORIENTED_EDGE ( 'NONE', *, *, #239, .T. ) ;
#176 = EDGE_LOOP ( 'NONE', ( #229, #35, #97, #197 ) ) ;
#177 = CC_DESIGN_APPROVAL ( #75, ( #181 ) ) ;
#178 = FACE_OUTER_BOUND ( 'NONE', #195, .T. ) ;
#179 = TOROIDAL_SURFACE ( 'NONE', #119, 48.00000000000000000, 21.19999999999999929 ) ;
#180 = DIRECTION ( 'NONE',  ( 1.000000000000000000, 0.000000000000000000, 3.588188783216163189E-16 ) ) ;
#181 = SECURITY_CLASSIFICATION ( '', '', #223 ) ;
#182 = DIRECTION ( 'NONE',  ( 1.000000000000000000, 0.000000000000000000, 3.588188783216163189E-16 ) ) ;
#183 = APPROVAL_DATE_TIME ( #40, #59 ) ;
#184 = EDGE_CURVE ( 'NONE', #102, #247, #51, .T. ) ;
#185 = CARTESIAN_POINT ( 'NONE',  ( -48.00000000000000000, 0.000000000000000000, -8.817456953860948022E-15 ) ) ;
#186 = DIRECTION ( 'NONE',  ( 1.000000000000000000, 0.000000000000000000, 0.000000000000000000 ) ) ;
#187 = CARTESIAN_POINT ( 'NONE',  ( 0.000000000000000000, 0.000000000000000000, 0.000000000000000000 ) ) ;
#188 = CIRCLE ( 'NONE', #222, 18.00000000000000000 ) ;
#189 = FACE_BOUND ( 'NONE', #79, .T. ) ;
#190 = EDGE_LOOP ( 'NONE', ( #248, #232, #251, #95 ) ) ;
#191 = EDGE_CURVE ( 'NONE', #231, #252, #104, .T. ) ;
#192 = ORIENTED_EDGE ( 'NONE', *, *, #239, .F. ) ;
#193 = VERTEX_POINT ( 'NONE', #28 ) ;
#194 = ADVANCED_FACE ( 'NONE', ( #189, #226 ), #150, .F. ) ;
#195 = EDGE_LOOP ( 'NONE', ( #120, #174, #144, #192 ) ) ;
#196 = ORIENTED_EDGE ( 'NONE', *, *, #99, .F. ) ;
#197 = ORIENTED_EDGE ( 'NONE', *, *, #184, .F. ) ;
#198 = CARTESIAN_POINT ( 'NONE',  ( -48.00000000000000000, 0.000000000000000000, -8.817456953860948022E-15 ) ) ;
#199 = DIRECTION ( 'NONE',  ( 2.811037930586189913E-15, 0.000000000000000000, 1.000000000000000000 ) ) ;
#200 = DATE_AND_TIME ( #2, #137 ) ;
#201 = PERSON_AND_ORGANIZATION ( #135, #227 ) ;
#202 = PRODUCT_DEFINITION_SHAPE ( 'NONE', 'NONE',  #22 ) ;
#203 = CARTESIAN_POINT ( 'NONE',  ( -1.349298206681371095E-13, 0.000000000000000000, -48.00000000000000000 ) ) ;
#204 = CIRCLE ( 'NONE', #98, 66.00000000000000000 ) ;
#205 = APPROVAL_ROLE ( '' ) ;
#206 = APPLICATION_PROTOCOL_DEFINITION ( 'international standard', 'config_control_design', 1994, #7 ) ;
#207 = AXIS2_PLACEMENT_3D ( 'NONE', #169, #164, #105 ) ;
#208 = DIRECTION ( 'NONE',  ( 2.811037930586189913E-15, 0.000000000000000000, 1.000000000000000000 ) ) ;
#209 = DIRECTION ( 'NONE',  ( 0.000000000000000000, 0.000000000000000000, 1.000000000000000000 ) ) ;
#210 = DIRECTION ( 'NONE',  ( 1.000000000000000000, 0.000000000000000000, 3.588188783216163682E-16 ) ) ;
#211 = APPROVAL ( #151, 'UNSPECIFIED' ) ;
#212 = AXIS2_PLACEMENT_3D ( 'NONE', #203, #62, #166 ) ;
#213 = EDGE_CURVE ( 'NONE', #100, #193, #204, .T. ) ;
#214 = ORIENTED_EDGE ( 'NONE', *, *, #191, .T. ) ;
#215 = EDGE_LOOP ( 'NONE', ( #55, #214, #175, #16 ) ) ;
#216 = DESIGN_CONTEXT ( 'detailed design', #7, 'design' ) ;
#217 = DIRECTION ( 'NONE',  ( -3.588188783216163682E-16, 0.000000000000000000, 1.000000000000000000 ) ) ;
#218 = PERSON_AND_ORGANIZATION ( #135, #227 ) ;
#219 = CARTESIAN_POINT ( 'NONE',  ( -8.433113791758570924E-14, 0.000000000000000000, -30.00000000000000355 ) ) ;
#220 = PERSON_AND_ORGANIZATION_ROLE ( 'design_supplier' ) ;
#221 = ADVANCED_FACE ( 'NONE', ( #71 ), #155, .F. ) ;
#222 = AXIS2_PLACEMENT_3D ( 'NONE', #26, #84, #182 ) ;
#223 = SECURITY_CLASSIFICATION_LEVEL ( 'unclassified' ) ;
#224 = CARTESIAN_POINT ( 'NONE',  ( 0.000000000000000000, -2.204364238465235428E-15, 0.000000000000000000 ) ) ;
#225 = CIRCLE ( 'NONE', #36, 18.00000000000000000 ) ;
#226 = FACE_OUTER_BOUND ( 'NONE', #101, .T. ) ;
#227 = ORGANIZATION ( 'UNSPECIFIED', 'UNSPECIFIED', '' ) ;
#228 = EDGE_CURVE ( 'NONE', #121, #230, #37, .T. ) ;
#229 = ORIENTED_EDGE ( 'NONE', *, *, #66, .F. ) ;
#230 = VERTEX_POINT ( 'NONE', #91 ) ;
#231 = VERTEX_POINT ( 'NONE', #52 ) ;
#232 = ORIENTED_EDGE ( 'NONE', *, *, #145, .F. ) ;
#233 = AXIS2_PLACEMENT_3D ( 'NONE', #67, #114, #87 ) ;
#234 = CARTESIAN_POINT ( 'NONE',  ( -1.855285034186885351E-13, 0.000000000000000000, -66.00000000000000000 ) ) ;
#235 = PRODUCT ( '3D_R1651_42.4x3.2_17352250', '3D_R1651_42.4x3.2_17352250', '', ( #32 ) ) ;
#236 = DIRECTION ( 'NONE',  ( -1.000000000000000000, 0.000000000000000000, 2.811037930586189913E-15 ) ) ;
#237 = AXIS2_PLACEMENT_3D ( 'NONE', #110, #24, #65 ) ;
#238 = DATE_TIME_ROLE ( 'creation_date' ) ;
#239 = EDGE_CURVE ( 'NONE', #252, #121, #15, .T. ) ;
#240 = COORDINATED_UNIVERSAL_TIME_OFFSET ( 1, 0, .AHEAD. ) ;
#241 = DIRECTION ( 'NONE',  ( 0.000000000000000000, 0.000000000000000000, 1.000000000000000000 ) ) ;
#242 = CARTESIAN_POINT ( 'NONE',  ( -1.433356698737137772E-13, 0.000000000000000000, -48.00000000000000000 ) ) ;
#243 = DIRECTION ( 'NONE',  ( -1.000000000000000000, 0.000000000000000000, 2.811037930586189913E-15 ) ) ;
#244 = AXIS2_PLACEMENT_3D ( 'NONE', #118, #6, #9 ) ;
#245 = DIRECTION ( 'NONE',  ( 0.000000000000000000, 0.000000000000000000, 1.000000000000000000 ) ) ;
#246 = CC_DESIGN_PERSON_AND_ORGANIZATION_ASSIGNMENT ( #47, #170, ( #181 ) ) ;
#247 = VERTEX_POINT ( 'NONE', #5 ) ;
#248 = ORIENTED_EDGE ( 'NONE', *, *, #213, .F. ) ;
#249 = CIRCLE ( 'NONE', #94, 21.19999999999999929 ) ;
#250 = AXIS2_PLACEMENT_3D ( 'NONE', #140, #217, #63 ) ;
#251 = ORIENTED_EDGE ( 'NONE', *, *, #184, .T. ) ;
#252 = VERTEX_POINT ( 'NONE', #73 ) ;
#253 = FACE_OUTER_BOUND ( 'NONE', #18, .T. ) ;
ENDSEC;
END-ISO-10303-21;
