ISO-10303-21;
HEADER;
FILE_DESCRIPTION (( 'STEP AP203' ),
    '1' );
FILE_NAME ('3D_R169-K_26-21_17325161.STEP',
    '2024-07-11T10:17:17',
    ( '' ),
    ( '' ),
    'SwSTEP 2.0',
    'SolidWorks 2024',
    '' );
FILE_SCHEMA (( 'CONFIG_CONTROL_DESIGN' ));
ENDSEC;

DATA;
#1 = COORDINATED_UNIVERSAL_TIME_OFFSET ( 1, 0, .AHEAD. ) ;
#2 = SHAPE_DEFINITION_REPRESENTATION ( #22, #17 ) ;
#3 = CC_DESIGN_APPROVAL ( #20, ( #164 ) ) ;
#4 = CC_DESIGN_PERSON_AND_ORGANIZATION_ASSIGNMENT ( #247, #23, ( #60 ) ) ;
#5 = ORIENTED_EDGE ( 'NONE', *, *, #104, .T. ) ;
#6 = ORIENTED_EDGE ( 'NONE', *, *, #47, .T. ) ;
#7 = MANIFOLD_SOLID_BREP ( 'Wandung2', #68 ) ;
#8 = ORIENTED_EDGE ( 'NONE', *, *, #45, .T. ) ;
#9 = AXIS2_PLACEMENT_3D ( 'NONE', #168, #239, #208 ) ;
#10 = AXIS2_PLACEMENT_3D ( 'NONE', #142, #38, #61 ) ;
#11 = VECTOR ( 'NONE', #117, 999.9999999999998863 ) ;
#12 = CARTESIAN_POINT ( 'NONE',  ( 20.00000000000000000, 0.000000000000000000, 0.000000000000000000 ) ) ;
#13 = CARTESIAN_POINT ( 'NONE',  ( 20.00000000000000000, 1.304248841091931261E-15, -10.65000000000000036 ) ) ;
#14 = LOCAL_TIME ( 12, 17, 17.00000000000000000, #186 ) ;
#15 = DIRECTION ( 'NONE',  ( -0.9903417466743302811, 1.697946390177404483E-17, -0.1386478445344062616 ) ) ;
#16 = ORIENTED_EDGE ( 'NONE', *, *, #96, .T. ) ;
#17 = ADVANCED_BREP_SHAPE_REPRESENTATION ( '3D_R169-K_26-21_17325161', ( #7, #249 ), #217 ) ;
#18 = EDGE_LOOP ( 'NONE', ( #69, #193 ) ) ;
#19 = DIRECTION ( 'NONE',  ( 0.000000000000000000, 0.000000000000000000, -1.000000000000000000 ) ) ;
#20 = APPROVAL ( #110, 'UNSPECIFIED' ) ;
#21 = CARTESIAN_POINT ( 'NONE',  ( 20.00000000000000000, 0.000000000000000000, 0.000000000000000000 ) ) ;
#22 = PRODUCT_DEFINITION_SHAPE ( 'NONE', 'NONE',  #228 ) ;
#23 = PERSON_AND_ORGANIZATION_ROLE ( 'design_owner' ) ;
#24 = PERSON_AND_ORGANIZATION ( #227, #131 ) ;
#25 = APPROVAL_ROLE ( '' ) ;
#26 = VERTEX_POINT ( 'NONE', #95 ) ;
#27 = DATE_AND_TIME ( #200, #170 ) ;
#28 = ORIENTED_EDGE ( 'NONE', *, *, #125, .T. ) ;
#29 = DATE_AND_TIME ( #88, #118 ) ;
#30 = EDGE_LOOP ( 'NONE', ( #33, #28, #153, #184 ) ) ;
#31 = CIRCLE ( 'NONE', #137, 13.44999999999999929 ) ;
#32 = AXIS2_PLACEMENT_3D ( 'NONE', #197, #39, #210 ) ;
#33 = ORIENTED_EDGE ( 'NONE', *, *, #89, .F. ) ;
#34 = CARTESIAN_POINT ( 'NONE',  ( 19.72270431093118859, 1.061685071066587671E-15, -8.669316506651338017 ) ) ;
#35 = PRODUCT_RELATED_PRODUCT_CATEGORY ( 'detail', '', ( #60 ) ) ;
#36 = CARTESIAN_POINT ( 'NONE',  ( 20.00000000000000000, 0.000000000000000000, 10.65000000000000036 ) ) ;
#37 = DIRECTION ( 'NONE',  ( 0.000000000000000000, 0.000000000000000000, -1.000000000000000000 ) ) ;
#38 = DIRECTION ( 'NONE',  ( -1.000000000000000000, -0.000000000000000000, -0.000000000000000000 ) ) ;
#39 = DIRECTION ( 'NONE',  ( -1.000000000000000000, -0.000000000000000000, -0.000000000000000000 ) ) ;
#40 = CIRCLE ( 'NONE', #183, 8.630495110181703566 ) ;
#41 = APPROVAL_ROLE ( '' ) ;
#42 =( NAMED_UNIT ( * ) SI_UNIT ( $, .STERADIAN. ) SOLID_ANGLE_UNIT ( ) );
#43 = CIRCLE ( 'NONE', #189, 10.65000000000000036 ) ;
#44 = COORDINATED_UNIVERSAL_TIME_OFFSET ( 1, 0, .AHEAD. ) ;
#45 = EDGE_CURVE ( 'NONE', #109, #237, #85, .T. ) ;
#46 = APPROVAL_DATE_TIME ( #230, #74 ) ;
#47 = EDGE_CURVE ( 'NONE', #203, #156, #77, .T. ) ;
#48 = COORDINATED_UNIVERSAL_TIME_OFFSET ( 1, 0, .AHEAD. ) ;
#49 = DESIGN_CONTEXT ( 'detailed design', #185, 'design' ) ;
#50 = ORIENTED_EDGE ( 'NONE', *, *, #89, .T. ) ;
#51 = ORIENTED_EDGE ( 'NONE', *, *, #166, .T. ) ;
#52 = APPROVAL_PERSON_ORGANIZATION ( #144, #201, #41 ) ;
#53 = EDGE_CURVE ( 'NONE', #136, #26, #248, .T. ) ;
#54 = LINE ( 'NONE', #75, #127 ) ;
#55 = LINE ( 'NONE', #13, #91 ) ;
#56 = CARTESIAN_POINT ( 'NONE',  ( 0.000000000000000000, 1.399831924935349652E-15, -11.43049511018170428 ) ) ;
#57 = ADVANCED_FACE ( 'NONE', ( #99, #115 ), #97, .F. ) ;
#58 = CARTESIAN_POINT ( 'NONE',  ( 0.000000000000000000, 0.000000000000000000, 0.000000000000000000 ) ) ;
#59 = APPLICATION_PROTOCOL_DEFINITION ( 'international standard', 'config_control_design', 1994, #128 ) ;
#60 = PRODUCT ( '3D_R169-K_26-21_17325161', '3D_R169-K_26-21_17325161', '', ( #246 ) ) ;
#61 = DIRECTION ( 'NONE',  ( 0.000000000000000000, 0.000000000000000000, 1.000000000000000000 ) ) ;
#62 = DIRECTION ( 'NONE',  ( 0.000000000000000000, 0.000000000000000000, 1.000000000000000000 ) ) ;
#63 = CARTESIAN_POINT ( 'NONE',  ( 20.00000000000000000, 0.000000000000000000, 0.000000000000000000 ) ) ;
#64 = CC_DESIGN_DATE_AND_TIME_ASSIGNMENT ( #29, #108, ( #228 ) ) ;
#65 = VECTOR ( 'NONE', #15, 999.9999999999998863 ) ;
#66 = ORIENTED_EDGE ( 'NONE', *, *, #45, .F. ) ;
#67 = APPROVAL_STATUS ( 'not_yet_approved' ) ;
#68 = CLOSED_SHELL ( 'NONE', ( #214, #238, #100, #57, #218, #163 ) ) ;
#69 = ORIENTED_EDGE ( 'NONE', *, *, #174, .F. ) ;
#70 = APPROVAL_PERSON_ORGANIZATION ( #236, #20, #25 ) ;
#71 = ORIENTED_EDGE ( 'NONE', *, *, #53, .F. ) ;
#72 = CARTESIAN_POINT ( 'NONE',  ( 0.000000000000000000, 0.000000000000000000, 0.000000000000000000 ) ) ;
#73 = APPROVAL_PERSON_ORGANIZATION ( #107, #74, #150 ) ;
#74 = APPROVAL ( #67, 'UNSPECIFIED' ) ;
#75 = CARTESIAN_POINT ( 'NONE',  ( 19.72270431093118859, 0.000000000000000000, 8.669316506651338017 ) ) ;
#76 = UNCERTAINTY_MEASURE_WITH_UNIT (LENGTH_MEASURE( 1.000000000000000082E-05 ), #198, 'distance_accuracy_value', 'NONE');
#77 = LINE ( 'NONE', #34, #65 ) ;
#78 = FACE_BOUND ( 'NONE', #18, .T. ) ;
#79 = DIRECTION ( 'NONE',  ( 0.000000000000000000, 0.000000000000000000, -1.000000000000000000 ) ) ;
#80 = CIRCLE ( 'NONE', #112, 8.630495110181703566 ) ;
#81 = AXIS2_PLACEMENT_3D ( 'NONE', #160, #176, #123 ) ;
#82 = FACE_OUTER_BOUND ( 'NONE', #149, .T. ) ;
#83 = EDGE_CURVE ( 'NONE', #26, #136, #31, .T. ) ;
#84 = APPLICATION_PROTOCOL_DEFINITION ( 'international standard', 'config_control_design', 1994, #185 ) ;
#85 = CIRCLE ( 'NONE', #9, 10.65000000000000036 ) ;
#86 = CC_DESIGN_APPROVAL ( #201, ( #228 ) ) ;
#87 = PERSON_AND_ORGANIZATION_ROLE ( 'creator' ) ;
#88 = CALENDAR_DATE ( 2024, 11, 7 ) ;
#89 = EDGE_CURVE ( 'NONE', #237, #109, #43, .T. ) ;
#90 = DATE_AND_TIME ( #234, #14 ) ;
#91 = VECTOR ( 'NONE', #223, 999.9999999999998863 ) ;
#92 = PERSON_AND_ORGANIZATION_ROLE ( 'creator' ) ;
#93 = ORIENTED_EDGE ( 'NONE', *, *, #151, .T. ) ;
#94 = ORIENTED_EDGE ( 'NONE', *, *, #104, .F. ) ;
#95 = CARTESIAN_POINT ( 'NONE',  ( 0.000000000000000000, 2.470724917279785085E-15, -13.44999999999999929 ) ) ;
#96 = EDGE_CURVE ( 'NONE', #203, #224, #80, .T. ) ;
#97 = PLANE ( 'NONE',  #130 ) ;
#98 = CC_DESIGN_APPROVAL ( #74, ( #135 ) ) ;
#99 = FACE_BOUND ( 'NONE', #119, .T. ) ;
#100 = ADVANCED_FACE ( 'NONE', ( #78, #134 ), #222, .T. ) ;
#101 = CARTESIAN_POINT ( 'NONE',  ( 20.00000000000000000, 0.000000000000000000, 0.000000000000000000 ) ) ;
#102 = ORIENTED_EDGE ( 'NONE', *, *, #53, .T. ) ;
#103 = CIRCLE ( 'NONE', #138, 11.43049511018170428 ) ;
#104 = EDGE_CURVE ( 'NONE', #156, #171, #103, .T. ) ;
#105 = COORDINATED_UNIVERSAL_TIME_OFFSET ( 1, 0, .AHEAD. ) ;
#106 = FACE_OUTER_BOUND ( 'NONE', #111, .T. ) ;
#107 = PERSON_AND_ORGANIZATION ( #227, #131 ) ;
#108 = DATE_TIME_ROLE ( 'creation_date' ) ;
#109 = VERTEX_POINT ( 'NONE', #192 ) ;
#110 = APPROVAL_STATUS ( 'not_yet_approved' ) ;
#111 = EDGE_LOOP ( 'NONE', ( #165, #16, #152, #94 ) ) ;
#112 = AXIS2_PLACEMENT_3D ( 'NONE', #12, #242, #241 ) ;
#113 = DIRECTION ( 'NONE',  ( 1.000000000000000000, 0.000000000000000000, 0.000000000000000000 ) ) ;
#114 = CONICAL_SURFACE ( 'NONE', #10, 8.669316506651338017, 0.1390959414820713280 ) ;
#115 = FACE_OUTER_BOUND ( 'NONE', #207, .T. ) ;
#116 = DIRECTION ( 'NONE',  ( -0.9903417466743302811, 0.000000000000000000, 0.1386478445344062616 ) ) ;
#117 = DIRECTION ( 'NONE',  ( -0.9903417466743302811, 0.000000000000000000, 0.1386478445344062616 ) ) ;
#118 = LOCAL_TIME ( 12, 17, 17.00000000000000000, #1 ) ;
#119 = EDGE_LOOP ( 'NONE', ( #51, #5 ) ) ;
#120 = DIRECTION ( 'NONE',  ( 1.000000000000000000, 0.000000000000000000, 0.000000000000000000 ) ) ;
#121 = DIRECTION ( 'NONE',  ( 0.000000000000000000, 0.000000000000000000, -1.000000000000000000 ) ) ;
#122 = CC_DESIGN_DATE_AND_TIME_ASSIGNMENT ( #90, #148, ( #135 ) ) ;
#123 = DIRECTION ( 'NONE',  ( 0.000000000000000000, 0.000000000000000000, 1.000000000000000000 ) ) ;
#124 = CALENDAR_DATE ( 2024, 11, 7 ) ;
#125 = EDGE_CURVE ( 'NONE', #237, #26, #55, .T. ) ;
#126 = APPROVAL_DATE_TIME ( #199, #201 ) ;
#127 = VECTOR ( 'NONE', #116, 999.9999999999998863 ) ;
#128 = APPLICATION_CONTEXT ( 'configuration controlled 3d designs of mechanical parts and assemblies' ) ;
#129 = CALENDAR_DATE ( 2024, 11, 7 ) ;
#130 = AXIS2_PLACEMENT_3D ( 'NONE', #195, #243, #79 ) ;
#131 = ORGANIZATION ( 'UNSPECIFIED', 'UNSPECIFIED', '' ) ;
#132 = DIRECTION ( 'NONE',  ( 1.000000000000000000, 0.000000000000000000, 0.000000000000000000 ) ) ;
#133 = LINE ( 'NONE', #36, #11 ) ;
#134 = FACE_OUTER_BOUND ( 'NONE', #233, .T. ) ;
#135 = SECURITY_CLASSIFICATION ( '', '', #216 ) ;
#136 = VERTEX_POINT ( 'NONE', #240 ) ;
#137 = AXIS2_PLACEMENT_3D ( 'NONE', #58, #154, #37 ) ;
#138 = AXIS2_PLACEMENT_3D ( 'NONE', #169, #205, #155 ) ;
#139 = ORIENTED_EDGE ( 'NONE', *, *, #145, .F. ) ;
#140 = CC_DESIGN_PERSON_AND_ORGANIZATION_ASSIGNMENT ( #24, #232, ( #164 ) ) ;
#141 = PERSON_AND_ORGANIZATION ( #227, #131 ) ;
#142 = CARTESIAN_POINT ( 'NONE',  ( 19.72270431093118859, 0.000000000000000000, 0.000000000000000000 ) ) ;
#143 = CONICAL_SURFACE ( 'NONE', #32, 8.669316506651338017, 0.1390959414820713280 ) ;
#144 = PERSON_AND_ORGANIZATION ( #227, #131 ) ;
#145 = EDGE_CURVE ( 'NONE', #224, #171, #54, .T. ) ;
#146 = CARTESIAN_POINT ( 'NONE',  ( 20.00000000000000000, 6.521244205459656303E-16, -10.65000000000000036 ) ) ;
#147 = DIRECTION ( 'NONE',  ( 1.000000000000000000, 0.000000000000000000, 0.000000000000000000 ) ) ;
#148 = DATE_TIME_ROLE ( 'classification_date' ) ;
#149 = EDGE_LOOP ( 'NONE', ( #221, #66, #93, #102 ) ) ;
#150 = APPROVAL_ROLE ( '' ) ;
#151 = EDGE_CURVE ( 'NONE', #109, #136, #133, .T. ) ;
#152 = ORIENTED_EDGE ( 'NONE', *, *, #145, .T. ) ;
#153 = ORIENTED_EDGE ( 'NONE', *, *, #83, .T. ) ;
#154 = DIRECTION ( 'NONE',  ( 1.000000000000000000, 0.000000000000000000, 0.000000000000000000 ) ) ;
#155 = DIRECTION ( 'NONE',  ( 0.000000000000000000, 0.000000000000000000, -1.000000000000000000 ) ) ;
#156 = VERTEX_POINT ( 'NONE', #56 ) ;
#157 = CC_DESIGN_PERSON_AND_ORGANIZATION_ASSIGNMENT ( #141, #87, ( #228 ) ) ;
#158 = CIRCLE ( 'NONE', #220, 11.43049511018170428 ) ;
#159 = CARTESIAN_POINT ( 'NONE',  ( 0.000000000000000000, 0.000000000000000000, 0.000000000000000000 ) ) ;
#160 = CARTESIAN_POINT ( 'NONE',  ( 20.00000000000000000, 0.000000000000000000, 0.000000000000000000 ) ) ;
#161 = FACE_OUTER_BOUND ( 'NONE', #173, .T. ) ;
#162 = PERSON_AND_ORGANIZATION_ROLE ( 'classification_officer' ) ;
#163 = ADVANCED_FACE ( 'NONE', ( #106 ), #114, .F. ) ;
#164 = PRODUCT_DEFINITION_FORMATION_WITH_SPECIFIED_SOURCE ( 'ANY', '', #60, .NOT_KNOWN. ) ;
#165 = ORIENTED_EDGE ( 'NONE', *, *, #47, .F. ) ;
#166 = EDGE_CURVE ( 'NONE', #171, #156, #158, .T. ) ;
#167 = ORIENTED_EDGE ( 'NONE', *, *, #166, .F. ) ;
#168 = CARTESIAN_POINT ( 'NONE',  ( 20.00000000000000000, 0.000000000000000000, 0.000000000000000000 ) ) ;
#169 = CARTESIAN_POINT ( 'NONE',  ( 0.000000000000000000, 0.000000000000000000, 0.000000000000000000 ) ) ;
#170 = LOCAL_TIME ( 12, 17, 17.00000000000000000, #44 ) ;
#171 = VERTEX_POINT ( 'NONE', #177 ) ;
#172 = DIRECTION ( 'NONE',  ( 0.000000000000000000, 0.000000000000000000, -1.000000000000000000 ) ) ;
#173 = EDGE_LOOP ( 'NONE', ( #187, #6, #167, #139 ) ) ;
#174 = EDGE_CURVE ( 'NONE', #224, #203, #40, .T. ) ;
#175 = LOCAL_TIME ( 12, 17, 17.00000000000000000, #48 ) ;
#176 = DIRECTION ( 'NONE',  ( -1.000000000000000000, -0.000000000000000000, -0.000000000000000000 ) ) ;
#177 = CARTESIAN_POINT ( 'NONE',  ( 0.000000000000000000, 0.000000000000000000, 11.43049511018170428 ) ) ;
#178 = FACE_OUTER_BOUND ( 'NONE', #30, .T. ) ;
#179 = AXIS2_PLACEMENT_3D ( 'NONE', #72, #194, #219 ) ;
#180 = LOCAL_TIME ( 12, 17, 17.00000000000000000, #105 ) ;
#181 = CARTESIAN_POINT ( 'NONE',  ( 20.00000000000000000, 1.228381373054720287E-15, -8.630495110181703566 ) ) ;
#182 = CC_DESIGN_PERSON_AND_ORGANIZATION_ASSIGNMENT ( #188, #92, ( #164 ) ) ;
#183 = AXIS2_PLACEMENT_3D ( 'NONE', #63, #147, #121 ) ;
#184 = ORIENTED_EDGE ( 'NONE', *, *, #151, .F. ) ;
#185 = APPLICATION_CONTEXT ( 'configuration controlled 3d designs of mechanical parts and assemblies' ) ;
#186 = COORDINATED_UNIVERSAL_TIME_OFFSET ( 1, 0, .AHEAD. ) ;
#187 = ORIENTED_EDGE ( 'NONE', *, *, #174, .T. ) ;
#188 = PERSON_AND_ORGANIZATION ( #227, #131 ) ;
#189 = AXIS2_PLACEMENT_3D ( 'NONE', #209, #113, #191 ) ;
#190 = CONICAL_SURFACE ( 'NONE', #81, 10.65000000000000036, 0.1390959414820713280 ) ;
#191 = DIRECTION ( 'NONE',  ( 0.000000000000000000, 0.000000000000000000, -1.000000000000000000 ) ) ;
#192 = CARTESIAN_POINT ( 'NONE',  ( 20.00000000000000000, 6.521244205459656303E-16, 10.65000000000000036 ) ) ;
#193 = ORIENTED_EDGE ( 'NONE', *, *, #96, .F. ) ;
#194 = DIRECTION ( 'NONE',  ( 1.000000000000000000, 0.000000000000000000, 0.000000000000000000 ) ) ;
#195 = CARTESIAN_POINT ( 'NONE',  ( 0.000000000000000000, 0.000000000000000000, 0.000000000000000000 ) ) ;
#196 =( NAMED_UNIT ( * ) PLANE_ANGLE_UNIT ( ) SI_UNIT ( $, .RADIAN. ) );
#197 = CARTESIAN_POINT ( 'NONE',  ( 19.72270431093118859, 0.000000000000000000, 0.000000000000000000 ) ) ;
#198 =( LENGTH_UNIT ( ) NAMED_UNIT ( * ) SI_UNIT ( .MILLI., .METRE. ) );
#199 = DATE_AND_TIME ( #124, #180 ) ;
#200 = CALENDAR_DATE ( 2024, 11, 7 ) ;
#201 = APPROVAL ( #212, 'UNSPECIFIED' ) ;
#202 = APPROVAL_DATE_TIME ( #27, #20 ) ;
#203 = VERTEX_POINT ( 'NONE', #181 ) ;
#204 = AXIS2_PLACEMENT_3D ( 'NONE', #101, #132, #172 ) ;
#205 = DIRECTION ( 'NONE',  ( 1.000000000000000000, 0.000000000000000000, 0.000000000000000000 ) ) ;
#206 = ORIENTED_EDGE ( 'NONE', *, *, #83, .F. ) ;
#207 = EDGE_LOOP ( 'NONE', ( #71, #206 ) ) ;
#208 = DIRECTION ( 'NONE',  ( 0.000000000000000000, 0.000000000000000000, -1.000000000000000000 ) ) ;
#209 = CARTESIAN_POINT ( 'NONE',  ( 20.00000000000000000, 0.000000000000000000, 0.000000000000000000 ) ) ;
#210 = DIRECTION ( 'NONE',  ( 0.000000000000000000, 0.000000000000000000, 1.000000000000000000 ) ) ;
#211 = CARTESIAN_POINT ( 'NONE',  ( 0.000000000000000000, 0.000000000000000000, 0.000000000000000000 ) ) ;
#212 = APPROVAL_STATUS ( 'not_yet_approved' ) ;
#213 = CC_DESIGN_SECURITY_CLASSIFICATION ( #135, ( #164 ) ) ;
#214 = ADVANCED_FACE ( 'NONE', ( #161 ), #143, .F. ) ;
#215 = PERSON_AND_ORGANIZATION ( #227, #131 ) ;
#216 = SECURITY_CLASSIFICATION_LEVEL ( 'unclassified' ) ;
#217 =( GEOMETRIC_REPRESENTATION_CONTEXT ( 3 ) GLOBAL_UNCERTAINTY_ASSIGNED_CONTEXT ( ( #76 ) ) GLOBAL_UNIT_ASSIGNED_CONTEXT ( ( #198, #196, #42 ) ) REPRESENTATION_CONTEXT ( 'NONE', 'WORKASPACE' ) );
#218 = ADVANCED_FACE ( 'NONE', ( #82 ), #190, .T. ) ;
#219 = DIRECTION ( 'NONE',  ( 0.000000000000000000, 0.000000000000000000, -1.000000000000000000 ) ) ;
#220 = AXIS2_PLACEMENT_3D ( 'NONE', #211, #120, #19 ) ;
#221 = ORIENTED_EDGE ( 'NONE', *, *, #125, .F. ) ;
#222 = PLANE ( 'NONE',  #204 ) ;
#223 = DIRECTION ( 'NONE',  ( -0.9903417466743302811, 1.697946390177404483E-17, -0.1386478445344062616 ) ) ;
#224 = VERTEX_POINT ( 'NONE', #244 ) ;
#225 = DIRECTION ( 'NONE',  ( 0.000000000000000000, 0.000000000000000000, 1.000000000000000000 ) ) ;
#226 = DIRECTION ( 'NONE',  ( 1.000000000000000000, 0.000000000000000000, 0.000000000000000000 ) ) ;
#227 = PERSON ( 'UNSPECIFIED', 'UNSPECIFIED', 'UNSPECIFIED', ('UNSPECIFIED'), ('UNSPECIFIED'), ('UNSPECIFIED') ) ;
#228 = PRODUCT_DEFINITION ( 'UNKNOWN', '', #164, #49 ) ;
#229 = DIRECTION ( 'NONE',  ( -1.000000000000000000, -0.000000000000000000, -0.000000000000000000 ) ) ;
#230 = DATE_AND_TIME ( #129, #175 ) ;
#231 = AXIS2_PLACEMENT_3D ( 'NONE', #21, #229, #62 ) ;
#232 = PERSON_AND_ORGANIZATION_ROLE ( 'design_supplier' ) ;
#233 = EDGE_LOOP ( 'NONE', ( #8, #50 ) ) ;
#234 = CALENDAR_DATE ( 2024, 11, 7 ) ;
#235 = CONICAL_SURFACE ( 'NONE', #231, 10.65000000000000036, 0.1390959414820713280 ) ;
#236 = PERSON_AND_ORGANIZATION ( #227, #131 ) ;
#237 = VERTEX_POINT ( 'NONE', #146 ) ;
#238 = ADVANCED_FACE ( 'NONE', ( #178 ), #235, .T. ) ;
#239 = DIRECTION ( 'NONE',  ( 1.000000000000000000, 0.000000000000000000, 0.000000000000000000 ) ) ;
#240 = CARTESIAN_POINT ( 'NONE',  ( 0.000000000000000000, -8.235749724265949955E-16, 13.44999999999999929 ) ) ;
#241 = DIRECTION ( 'NONE',  ( 0.000000000000000000, 0.000000000000000000, -1.000000000000000000 ) ) ;
#242 = DIRECTION ( 'NONE',  ( 1.000000000000000000, 0.000000000000000000, 0.000000000000000000 ) ) ;
#243 = DIRECTION ( 'NONE',  ( 1.000000000000000000, 0.000000000000000000, 0.000000000000000000 ) ) ;
#244 = CARTESIAN_POINT ( 'NONE',  ( 20.00000000000000000, 0.000000000000000000, 8.630495110181703566 ) ) ;
#245 = CC_DESIGN_PERSON_AND_ORGANIZATION_ASSIGNMENT ( #215, #162, ( #135 ) ) ;
#246 = MECHANICAL_CONTEXT ( 'NONE', #128, 'mechanical' ) ;
#247 = PERSON_AND_ORGANIZATION ( #227, #131 ) ;
#248 = CIRCLE ( 'NONE', #179, 13.44999999999999929 ) ;
#249 = AXIS2_PLACEMENT_3D ( 'NONE', #159, #225, #226 ) ;
ENDSEC;
END-ISO-10303-21;
