ISO-10303-21;
HEADER;
FILE_DESCRIPTION (( 'STEP AP203' ),
    '1' );
FILE_NAME ('11-0216-05_outokumpu.step',
    '2015-08-11T14:13:33',
    ( '' ),
    ( '' ),
    'SwSTEP 2.0',
    'SolidWorks 2008',
    '' );
FILE_SCHEMA (( 'CONFIG_CONTROL_DESIGN' ));
ENDSEC;

DATA;
#1 = PRODUCT_DEFINITION_SHAPE ( 'NONE', 'NONE',  #62 ) ;
#2 = PRODUCT_RELATED_PRODUCT_CATEGORY ( 'detail', '', ( #63 ) ) ;
#3 = UNCERTAINTY_MEASURE_WITH_UNIT (LENGTH_MEASURE( 1.000000000000000100E-005 ), #33, 'distance_accuracy_value', 'NONE');
#4 = CARTESIAN_POINT ( 'NONE',  ( -16.25000000000000000, 1.989985324961363000E-015, -13.00000000000000500 ) ) ;
#5 = DATE_AND_TIME ( #6, #7 ) ;
#6 = CALENDAR_DATE ( 2015, 11, 8 ) ;
#7 = LOCAL_TIME ( 16, 13, 33.00000000000000000, #8 ) ;
#8 = COORDINATED_UNIVERSAL_TIME_OFFSET ( 1, 0, .AHEAD. ) ;
#9 = CC_DESIGN_PERSON_AND_ORGANIZATION_ASSIGNMENT ( #11, #10, ( #62 ) ) ;
#10 = PERSON_AND_ORGANIZATION_ROLE ( 'creator' ) ;
#11 = PERSON_AND_ORGANIZATION ( #31, #30 ) ;
#12 = CC_DESIGN_SECURITY_CLASSIFICATION ( #39, ( #82 ) ) ;
#13 = CC_DESIGN_APPROVAL ( #21, ( #39 ) ) ;
#14 = APPROVAL_DATE_TIME ( #15, #21 ) ;
#15 = DATE_AND_TIME ( #16, #17 ) ;
#16 = CALENDAR_DATE ( 2015, 11, 8 ) ;
#17 = LOCAL_TIME ( 16, 13, 33.00000000000000000, #18 ) ;
#18 = COORDINATED_UNIVERSAL_TIME_OFFSET ( 1, 0, .AHEAD. ) ;
#19 = APPROVAL_PERSON_ORGANIZATION ( #23, #21, #20 ) ;
#20 = APPROVAL_ROLE ( '' ) ;
#21 = APPROVAL ( #22, 'UNSPECIFIED' ) ;
#22 = APPROVAL_STATUS ( 'not_yet_approved' ) ;
#23 = PERSON_AND_ORGANIZATION ( #31, #30 ) ;
#24 = CC_DESIGN_DATE_AND_TIME_ASSIGNMENT ( #26, #25, ( #39 ) ) ;
#25 = DATE_TIME_ROLE ( 'classification_date' ) ;
#26 = DATE_AND_TIME ( #27, #28 ) ;
#27 = CALENDAR_DATE ( 2015, 11, 8 ) ;
#28 = LOCAL_TIME ( 16, 13, 33.00000000000000000, #29 ) ;
#29 = COORDINATED_UNIVERSAL_TIME_OFFSET ( 1, 0, .AHEAD. ) ;
#30 = ORGANIZATION ( 'UNSPECIFIED', 'UNSPECIFIED', '' ) ;
#31 = PERSON ( 'UNSPECIFIED', 'UNSPECIFIED', 'UNSPECIFIED', ('UNSPECIFIED'), ('UNSPECIFIED'), ('UNSPECIFIED') ) ;
#32 =( NAMED_UNIT ( * ) PLANE_ANGLE_UNIT ( ) SI_UNIT ( $, .RADIAN. ) );
#33 =( LENGTH_UNIT ( ) NAMED_UNIT ( * ) SI_UNIT ( .MILLI., .METRE. ) );
#34 = PERSON_AND_ORGANIZATION_ROLE ( 'design_owner' ) ;
#35 = PERSON_AND_ORGANIZATION ( #31, #30 ) ;
#36 = CC_DESIGN_PERSON_AND_ORGANIZATION_ASSIGNMENT ( #38, #37, ( #39 ) ) ;
#37 = PERSON_AND_ORGANIZATION_ROLE ( 'classification_officer' ) ;
#38 = PERSON_AND_ORGANIZATION ( #31, #30 ) ;
#39 = SECURITY_CLASSIFICATION ( '', '', #40 ) ;
#40 = SECURITY_CLASSIFICATION_LEVEL ( 'unclassified' ) ;
#41 = CC_DESIGN_PERSON_AND_ORGANIZATION_ASSIGNMENT ( #43, #42, ( #82 ) ) ;
#42 = PERSON_AND_ORGANIZATION_ROLE ( 'design_supplier' ) ;
#43 = PERSON_AND_ORGANIZATION ( #31, #30 ) ;
#44 = CC_DESIGN_PERSON_AND_ORGANIZATION_ASSIGNMENT ( #46, #45, ( #82 ) ) ;
#45 = PERSON_AND_ORGANIZATION_ROLE ( 'creator' ) ;
#46 = PERSON_AND_ORGANIZATION ( #31, #30 ) ;
#47 = CC_DESIGN_APPROVAL ( #79, ( #82 ) ) ;
#48 = SHAPE_DEFINITION_REPRESENTATION ( #1, #49 ) ;
#49 = ADVANCED_BREP_SHAPE_REPRESENTATION ( '11-0216-05_outokumpu', ( #179, #66 ), #69 ) ;
#50 = DIRECTION ( 'NONE',  ( 0.0000000000000000000, 0.0000000000000000000, 1.000000000000000000 ) ) ;
#51 = CC_DESIGN_APPROVAL ( #59, ( #62 ) ) ;
#52 = APPROVAL_DATE_TIME ( #53, #59 ) ;
#53 = DATE_AND_TIME ( #54, #55 ) ;
#54 = CALENDAR_DATE ( 2015, 11, 8 ) ;
#55 = LOCAL_TIME ( 16, 13, 33.00000000000000000, #56 ) ;
#56 = COORDINATED_UNIVERSAL_TIME_OFFSET ( 1, 0, .AHEAD. ) ;
#57 = APPROVAL_PERSON_ORGANIZATION ( #61, #59, #58 ) ;
#58 = APPROVAL_ROLE ( '' ) ;
#59 = APPROVAL ( #60, 'UNSPECIFIED' ) ;
#60 = APPROVAL_STATUS ( 'not_yet_approved' ) ;
#61 = PERSON_AND_ORGANIZATION ( #31, #30 ) ;
#62 = PRODUCT_DEFINITION ( 'UNKNOWN', '', #82, #85 ) ;
#63 = PRODUCT ( '11-0216-05_outokumpu', '11-0216-05_outokumpu', '', ( #64 ) ) ;
#64 = MECHANICAL_CONTEXT ( 'NONE', #71, 'mechanical' ) ;
#65 = APPLICATION_PROTOCOL_DEFINITION ( 'international standard', 'config_control_design', 1994, #71 ) ;
#66 = AXIS2_PLACEMENT_3D ( 'NONE', #67, #50, #68 ) ;
#67 = CARTESIAN_POINT ( 'NONE',  ( 0.0000000000000000000, 0.0000000000000000000, 0.0000000000000000000 ) ) ;
#68 = DIRECTION ( 'NONE',  ( 1.000000000000000000, 0.0000000000000000000, 0.0000000000000000000 ) ) ;
#69 =( GEOMETRIC_REPRESENTATION_CONTEXT ( 3 ) GLOBAL_UNCERTAINTY_ASSIGNED_CONTEXT ( ( #3 ) ) GLOBAL_UNIT_ASSIGNED_CONTEXT ( ( #33, #32, #70 ) ) REPRESENTATION_CONTEXT ( 'NONE', 'WORKASPACE' ) );
#70 =( NAMED_UNIT ( * ) SI_UNIT ( $, .STERADIAN. ) SOLID_ANGLE_UNIT ( ) );
#71 = APPLICATION_CONTEXT ( 'configuration controlled 3d designs of mechanical parts and assemblies' ) ;
#72 = APPROVAL_DATE_TIME ( #73, #79 ) ;
#73 = DATE_AND_TIME ( #74, #75 ) ;
#74 = CALENDAR_DATE ( 2015, 11, 8 ) ;
#75 = LOCAL_TIME ( 16, 13, 33.00000000000000000, #76 ) ;
#76 = COORDINATED_UNIVERSAL_TIME_OFFSET ( 1, 0, .AHEAD. ) ;
#77 = APPROVAL_PERSON_ORGANIZATION ( #81, #79, #78 ) ;
#78 = APPROVAL_ROLE ( '' ) ;
#79 = APPROVAL ( #80, 'UNSPECIFIED' ) ;
#80 = APPROVAL_STATUS ( 'not_yet_approved' ) ;
#81 = PERSON_AND_ORGANIZATION ( #31, #30 ) ;
#82 = PRODUCT_DEFINITION_FORMATION_WITH_SPECIFIED_SOURCE ( 'ANY', '', #63, .NOT_KNOWN. ) ;
#83 = CC_DESIGN_DATE_AND_TIME_ASSIGNMENT ( #5, #84, ( #62 ) ) ;
#84 = DATE_TIME_ROLE ( 'creation_date' ) ;
#85 = DESIGN_CONTEXT ( 'detailed design', #87, 'design' ) ;
#86 = APPLICATION_PROTOCOL_DEFINITION ( 'international standard', 'config_control_design', 1994, #87 ) ;
#87 = APPLICATION_CONTEXT ( 'configuration controlled 3d designs of mechanical parts and assemblies' ) ;
#88 = CC_DESIGN_PERSON_AND_ORGANIZATION_ASSIGNMENT ( #35, #34, ( #63 ) ) ;
#89 = ORIENTED_EDGE ( 'NONE', *, *, #131, .F. ) ;
#90 = ORIENTED_EDGE ( 'NONE', *, *, #128, .F. ) ;
#91 = EDGE_LOOP ( 'NONE', ( #89, #90, #111, #110, #112 ) ) ;
#92 = ADVANCED_FACE ( 'NONE', ( #312 ), #313, .F. ) ;
#93 = ORIENTED_EDGE ( 'NONE', *, *, #156, .F. ) ;
#94 = ORIENTED_EDGE ( 'NONE', *, *, #188, .T. ) ;
#95 = ORIENTED_EDGE ( 'NONE', *, *, #192, .F. ) ;
#96 = ORIENTED_EDGE ( 'NONE', *, *, #143, .T. ) ;
#97 = EDGE_LOOP ( 'NONE', ( #95, #96, #94, #93 ) ) ;
#98 = ORIENTED_EDGE ( 'NONE', *, *, #158, .F. ) ;
#99 = ORIENTED_EDGE ( 'NONE', *, *, #168, .T. ) ;
#100 = ADVANCED_FACE ( 'NONE', ( #230 ), #343, .T. ) ;
#101 = ORIENTED_EDGE ( 'NONE', *, *, #134, .F. ) ;
#102 = ORIENTED_EDGE ( 'NONE', *, *, #190, .T. ) ;
#103 = EDGE_CURVE ( 'NONE', #135, #132, #269, .T. ) ;
#104 = ORIENTED_EDGE ( 'NONE', *, *, #103, .F. ) ;
#105 = CLOSED_SHELL ( 'NONE', ( #180, #172, #141, #193, #119, #152, #159, #100, #92, #113 ) ) ;
#106 = ORIENTED_EDGE ( 'NONE', *, *, #150, .T. ) ;
#107 = ORIENTED_EDGE ( 'NONE', *, *, #124, .T. ) ;
#108 = EDGE_LOOP ( 'NONE', ( #109, #106, #107, #99, #98 ) ) ;
#109 = ORIENTED_EDGE ( 'NONE', *, *, #162, .F. ) ;
#110 = ORIENTED_EDGE ( 'NONE', *, *, #137, .T. ) ;
#111 = ORIENTED_EDGE ( 'NONE', *, *, #117, .F. ) ;
#112 = ORIENTED_EDGE ( 'NONE', *, *, #103, .T. ) ;
#113 = ADVANCED_FACE ( 'NONE', ( #270 ), #274, .F. ) ;
#114 = ORIENTED_EDGE ( 'NONE', *, *, #122, .F. ) ;
#115 = ORIENTED_EDGE ( 'NONE', *, *, #120, .F. ) ;
#116 = ORIENTED_EDGE ( 'NONE', *, *, #117, .T. ) ;
#117 = EDGE_CURVE ( 'NONE', #138, #194, #369, .T. ) ;
#118 = ORIENTED_EDGE ( 'NONE', *, *, #120, .T. ) ;
#119 = ADVANCED_FACE ( 'NONE', ( #370 ), #237, .F. ) ;
#120 = EDGE_CURVE ( 'NONE', #194, #125, #233, .T. ) ;
#121 = ORIENTED_EDGE ( 'NONE', *, *, #140, .T. ) ;
#122 = EDGE_CURVE ( 'NONE', #177, #183, #388, .T. ) ;
#123 = ORIENTED_EDGE ( 'NONE', *, *, #124, .F. ) ;
#124 = EDGE_CURVE ( 'NONE', #125, #169, #384, .T. ) ;
#125 = VERTEX_POINT ( 'NONE', #379 ) ;
#126 = ORIENTED_EDGE ( 'NONE', *, *, #171, .F. ) ;
#127 = ORIENTED_EDGE ( 'NONE', *, *, #128, .T. ) ;
#128 = EDGE_CURVE ( 'NONE', #194, #176, #378, .T. ) ;
#129 = VERTEX_POINT ( 'NONE', #373 ) ;
#130 = ORIENTED_EDGE ( 'NONE', *, *, #188, .F. ) ;
#131 = EDGE_CURVE ( 'NONE', #176, #132, #266, .T. ) ;
#132 = VERTEX_POINT ( 'NONE', #262 ) ;
#133 = ORIENTED_EDGE ( 'NONE', *, *, #134, .T. ) ;
#134 = EDGE_CURVE ( 'NONE', #132, #135, #261, .T. ) ;
#135 = VERTEX_POINT ( 'NONE', #256 ) ;
#136 = ORIENTED_EDGE ( 'NONE', *, *, #137, .F. ) ;
#137 = EDGE_CURVE ( 'NONE', #138, #135, #255, .T. ) ;
#138 = VERTEX_POINT ( 'NONE', #251 ) ;
#139 = ORIENTED_EDGE ( 'NONE', *, *, #140, .F. ) ;
#140 = EDGE_CURVE ( 'NONE', #177, #138, #250, .T. ) ;
#141 = ADVANCED_FACE ( 'NONE', ( #245 ), #244, .T. ) ;
#142 = EDGE_LOOP ( 'NONE', ( #199, #200, #189, #130 ) ) ;
#143 = EDGE_CURVE ( 'NONE', #198, #196, #243, .T. ) ;
#144 = ORIENTED_EDGE ( 'NONE', *, *, #165, .T. ) ;
#145 = EDGE_LOOP ( 'NONE', ( #144, #160 ) ) ;
#146 = ORIENTED_EDGE ( 'NONE', *, *, #143, .F. ) ;
#147 = ORIENTED_EDGE ( 'NONE', *, *, #197, .F. ) ;
#148 = ORIENTED_EDGE ( 'NONE', *, *, #150, .F. ) ;
#149 = EDGE_LOOP ( 'NONE', ( #147, #146 ) ) ;
#150 = EDGE_CURVE ( 'NONE', #184, #125, #339, .T. ) ;
#151 = ORIENTED_EDGE ( 'NONE', *, *, #182, .F. ) ;
#152 = ADVANCED_FACE ( 'NONE', ( #334, #333 ), #332, .F. ) ;
#153 = EDGE_LOOP ( 'NONE', ( #114, #121, #116, #118, #148, #151 ) ) ;
#154 = EDGE_LOOP ( 'NONE', ( #102, #155 ) ) ;
#155 = ORIENTED_EDGE ( 'NONE', *, *, #156, .T. ) ;
#156 = EDGE_CURVE ( 'NONE', #187, #129, #330, .T. ) ;
#157 = EDGE_LOOP ( 'NONE', ( #104, #101 ) ) ;
#158 = EDGE_CURVE ( 'NONE', #163, #166, #322, .T. ) ;
#159 = ADVANCED_FACE ( 'NONE', ( #317, #316 ), #314, .F. ) ;
#160 = ORIENTED_EDGE ( 'NONE', *, *, #158, .T. ) ;
#161 = ORIENTED_EDGE ( 'NONE', *, *, #162, .T. ) ;
#162 = EDGE_CURVE ( 'NONE', #184, #163, #307, .T. ) ;
#163 = VERTEX_POINT ( 'NONE', #303 ) ;
#164 = ORIENTED_EDGE ( 'NONE', *, *, #165, .F. ) ;
#165 = EDGE_CURVE ( 'NONE', #166, #163, #302, .T. ) ;
#166 = VERTEX_POINT ( 'NONE', #297 ) ;
#167 = ORIENTED_EDGE ( 'NONE', *, *, #168, .F. ) ;
#168 = EDGE_CURVE ( 'NONE', #169, #166, #296, .T. ) ;
#169 = VERTEX_POINT ( 'NONE', #292 ) ;
#170 = ORIENTED_EDGE ( 'NONE', *, *, #171, .T. ) ;
#171 = EDGE_CURVE ( 'NONE', #169, #183, #291, .T. ) ;
#172 = ADVANCED_FACE ( 'NONE', ( #286 ), #285, .F. ) ;
#173 = EDGE_LOOP ( 'NONE', ( #174, #185, #133, #136, #139 ) ) ;
#174 = ORIENTED_EDGE ( 'NONE', *, *, #175, .F. ) ;
#175 = EDGE_CURVE ( 'NONE', #176, #177, #283, .T. ) ;
#176 = VERTEX_POINT ( 'NONE', #348 ) ;
#177 = VERTEX_POINT ( 'NONE', #347 ) ;
#178 = EDGE_LOOP ( 'NONE', ( #181, #161, #164, #167, #170 ) ) ;
#179 = MANIFOLD_SOLID_BREP ( 'NONE', #105 ) ;
#180 = ADVANCED_FACE ( 'NONE', ( #346 ), #344, .F. ) ;
#181 = ORIENTED_EDGE ( 'NONE', *, *, #182, .T. ) ;
#182 = EDGE_CURVE ( 'NONE', #183, #184, #359, .T. ) ;
#183 = VERTEX_POINT ( 'NONE', #354 ) ;
#184 = VERTEX_POINT ( 'NONE', #353 ) ;
#185 = ORIENTED_EDGE ( 'NONE', *, *, #131, .T. ) ;
#186 = EDGE_LOOP ( 'NONE', ( #127, #191, #195, #126, #123, #115 ) ) ;
#187 = VERTEX_POINT ( 'NONE', #352 ) ;
#188 = EDGE_CURVE ( 'NONE', #196, #129, #218, .T. ) ;
#189 = ORIENTED_EDGE ( 'NONE', *, *, #190, .F. ) ;
#190 = EDGE_CURVE ( 'NONE', #129, #187, #214, .T. ) ;
#191 = ORIENTED_EDGE ( 'NONE', *, *, #175, .T. ) ;
#192 = EDGE_CURVE ( 'NONE', #198, #187, #209, .T. ) ;
#193 = ADVANCED_FACE ( 'NONE', ( #203 ), #205, .F. ) ;
#194 = VERTEX_POINT ( 'NONE', #228 ) ;
#195 = ORIENTED_EDGE ( 'NONE', *, *, #122, .T. ) ;
#196 = VERTEX_POINT ( 'NONE', #226 ) ;
#197 = EDGE_CURVE ( 'NONE', #196, #198, #225, .T. ) ;
#198 = VERTEX_POINT ( 'NONE', #4 ) ;
#199 = ORIENTED_EDGE ( 'NONE', *, *, #197, .T. ) ;
#200 = ORIENTED_EDGE ( 'NONE', *, *, #192, .T. ) ;
#201 = DIRECTION ( 'NONE',  ( -0.0000000000000000000, 3.045619747394266200E-016, -1.000000000000000000 ) ) ;
#202 = CARTESIAN_POINT ( 'NONE',  ( 0.0000000000000000000, 4.898587196589463100E-016, -13.00000000000005200 ) ) ;
#203 = FACE_OUTER_BOUND ( 'NONE', #186, .T. ) ;
#204 = AXIS2_PLACEMENT_3D ( 'NONE', #202, #201, #227 ) ;
#205 = CYLINDRICAL_SURFACE ( 'NONE', #204, 13.22050000000000300 ) ;
#206 = DIRECTION ( 'NONE',  ( -0.0000000000000000000, -0.0000000000000000000, 1.000000000000000000 ) ) ;
#207 = VECTOR ( 'NONE', #206, 1000.000000000000000 ) ;
#208 = CARTESIAN_POINT ( 'NONE',  ( -16.25000000000000000, 1.989985324961363000E-015, -4.336808689942017700E-016 ) ) ;
#209 = LINE ( 'NONE', #208, #207 ) ;
#210 = DIRECTION ( 'NONE',  ( 1.000000000000000000, 0.0000000000000000000, 0.0000000000000000000 ) ) ;
#211 = DIRECTION ( 'NONE',  ( -0.0000000000000000000, -0.0000000000000000000, 1.000000000000000000 ) ) ;
#212 = CARTESIAN_POINT ( 'NONE',  ( 0.0000000000000000000, 0.0000000000000000000, 0.0000000000000000000 ) ) ;
#213 = AXIS2_PLACEMENT_3D ( 'NONE', #212, #211, #210 ) ;
#214 = CIRCLE ( 'NONE', #213, 16.25000000000000000 ) ;
#215 = DIRECTION ( 'NONE',  ( -0.0000000000000000000, -0.0000000000000000000, 1.000000000000000000 ) ) ;
#216 = VECTOR ( 'NONE', #215, 1000.000000000000000 ) ;
#217 = CARTESIAN_POINT ( 'NONE',  ( 16.25000000000000000, 0.0000000000000000000, -4.336808689942017700E-016 ) ) ;
#218 = LINE ( 'NONE', #217, #216 ) ;
#219 = DIRECTION ( 'NONE',  ( -0.0000000000000000000, -0.0000000000000000000, 1.000000000000000000 ) ) ;
#220 = CARTESIAN_POINT ( 'NONE',  ( 0.0000000000000000000, 0.0000000000000000000, -0.4616700330655557600 ) ) ;
#221 = DIRECTION ( 'NONE',  ( 1.000000000000000000, 0.0000000000000000000, 0.0000000000000000000 ) ) ;
#222 = DIRECTION ( 'NONE',  ( -0.0000000000000000000, -0.0000000000000000000, 1.000000000000000000 ) ) ;
#223 = CARTESIAN_POINT ( 'NONE',  ( 0.0000000000000000000, 0.0000000000000000000, -13.00000000000000500 ) ) ;
#224 = AXIS2_PLACEMENT_3D ( 'NONE', #223, #222, #221 ) ;
#225 = CIRCLE ( 'NONE', #224, 16.25000000000000000 ) ;
#226 = CARTESIAN_POINT ( 'NONE',  ( 16.25000000000000000, 0.0000000000000000000, -13.00000000000000500 ) ) ;
#227 = DIRECTION ( 'NONE',  ( 0.0000000000000000000, 1.000000000000000000, 2.624293295982461900E-016 ) ) ;
#228 = CARTESIAN_POINT ( 'NONE',  ( 0.0000000000000000000, 13.22049999999999900, -0.4616700330655557600 ) ) ;
#229 = DIRECTION ( 'NONE',  ( 1.000000000000000000, 0.0000000000000000000, 0.0000000000000000000 ) ) ;
#230 = FACE_OUTER_BOUND ( 'NONE', #97, .T. ) ;
#231 = VECTOR ( 'NONE', #389, 1000.000000000000000 ) ;
#232 = CARTESIAN_POINT ( 'NONE',  ( 0.0000000000000000000, 13.22050000000000300, -13.00000000000004800 ) ) ;
#233 = LINE ( 'NONE', #232, #231 ) ;
#234 = DIRECTION ( 'NONE',  ( 0.0000000000000000000, 1.000000000000000000, 2.624293295982461900E-016 ) ) ;
#235 = DIRECTION ( 'NONE',  ( -0.0000000000000000000, 3.045619747394266200E-016, -1.000000000000000000 ) ) ;
#236 = AXIS2_PLACEMENT_3D ( 'NONE', #364, #235, #234 ) ;
#237 = CYLINDRICAL_SURFACE ( 'NONE', #236, 13.22050000000000300 ) ;
#238 = AXIS2_PLACEMENT_3D ( 'NONE', #342, #341, #340 ) ;
#239 = DIRECTION ( 'NONE',  ( 1.000000000000000000, 0.0000000000000000000, 0.0000000000000000000 ) ) ;
#240 = DIRECTION ( 'NONE',  ( -0.0000000000000000000, -0.0000000000000000000, 1.000000000000000000 ) ) ;
#241 = CARTESIAN_POINT ( 'NONE',  ( 0.0000000000000000000, 0.0000000000000000000, -4.336808689942017700E-016 ) ) ;
#242 = AXIS2_PLACEMENT_3D ( 'NONE', #241, #240, #239 ) ;
#243 = CIRCLE ( 'NONE', #238, 16.25000000000000000 ) ;
#244 = CYLINDRICAL_SURFACE ( 'NONE', #242, 16.25000000000000000 ) ;
#245 = FACE_OUTER_BOUND ( 'NONE', #142, .T. ) ;
#246 = DIRECTION ( 'NONE',  ( 1.000000000000000000, 0.0000000000000000000, 0.0000000000000000000 ) ) ;
#247 = DIRECTION ( 'NONE',  ( -0.0000000000000000000, -0.0000000000000000000, 1.000000000000000000 ) ) ;
#248 = CARTESIAN_POINT ( 'NONE',  ( 0.0000000000000000000, 0.0000000000000000000, -0.4616700330655557600 ) ) ;
#249 = AXIS2_PLACEMENT_3D ( 'NONE', #248, #247, #246 ) ;
#250 = CIRCLE ( 'NONE', #249, 13.22049999999999900 ) ;
#251 = CARTESIAN_POINT ( 'NONE',  ( 13.22049999999999900, 0.0000000000000000000, -0.4616700330655557600 ) ) ;
#252 = DIRECTION ( 'NONE',  ( 0.7071067811865492400, 0.0000000000000000000, 0.7071067811865458000 ) ) ;
#253 = VECTOR ( 'NONE', #252, 1000.000000000000000 ) ;
#254 = CARTESIAN_POINT ( 'NONE',  ( 13.22049999999999900, 0.0000000000000000000, -0.4616700330655557600 ) ) ;
#255 = LINE ( 'NONE', #254, #253 ) ;
#256 = CARTESIAN_POINT ( 'NONE',  ( 13.68217003306555800, 0.0000000000000000000, -3.304181524652116200E-019 ) ) ;
#257 = DIRECTION ( 'NONE',  ( 1.000000000000000000, 0.0000000000000000000, 0.0000000000000000000 ) ) ;
#258 = DIRECTION ( 'NONE',  ( -0.0000000000000000000, -0.0000000000000000000, 1.000000000000000000 ) ) ;
#259 = CARTESIAN_POINT ( 'NONE',  ( 0.0000000000000000000, 0.0000000000000000000, -3.304181524652116200E-019 ) ) ;
#260 = AXIS2_PLACEMENT_3D ( 'NONE', #259, #258, #257 ) ;
#261 = CIRCLE ( 'NONE', #260, 13.68217003306555800 ) ;
#262 = CARTESIAN_POINT ( 'NONE',  ( -13.68217003306555800, 1.675527235657020900E-015, -3.304181524652116200E-019 ) ) ;
#263 = DIRECTION ( 'NONE',  ( -0.7071067811865492400, 8.659274570719376400E-017, 0.7071067811865458000 ) ) ;
#264 = VECTOR ( 'NONE', #263, 1000.000000000000000 ) ;
#265 = CARTESIAN_POINT ( 'NONE',  ( -13.22049999999999900, 1.618990830070873800E-015, -0.4616700330655557600 ) ) ;
#266 = LINE ( 'NONE', #265, #264 ) ;
#267 = DIRECTION ( 'NONE',  ( -0.0000000000000000000, -0.0000000000000000000, 1.000000000000000000 ) ) ;
#268 = AXIS2_PLACEMENT_3D ( 'NONE', #278, #267, #276 ) ;
#269 = CIRCLE ( 'NONE', #268, 13.68217003306555800 ) ;
#270 = FACE_OUTER_BOUND ( 'NONE', #108, .T. ) ;
#271 = DIRECTION ( 'NONE',  ( -1.000000000000000000, 0.0000000000000000000, 0.0000000000000000000 ) ) ;
#272 = DIRECTION ( 'NONE',  ( 0.0000000000000000000, 0.0000000000000000000, -1.000000000000000000 ) ) ;
#273 = AXIS2_PLACEMENT_3D ( 'NONE', #275, #272, #271 ) ;
#274 = CONICAL_SURFACE ( 'NONE', #273, 13.68217003306566700, 0.7853981633974538300 ) ;
#275 = CARTESIAN_POINT ( 'NONE',  ( 0.0000000000000000000, 0.0000000000000000000, -13.00000000000000500 ) ) ;
#276 = DIRECTION ( 'NONE',  ( 1.000000000000000000, 0.0000000000000000000, 0.0000000000000000000 ) ) ;
#277 = CARTESIAN_POINT ( 'NONE',  ( 0.0000000000000000000, 0.0000000000000000000, -4.336808689942017700E-016 ) ) ;
#278 = CARTESIAN_POINT ( 'NONE',  ( 0.0000000000000000000, 0.0000000000000000000, -3.304181524652116200E-019 ) ) ;
#279 = DIRECTION ( 'NONE',  ( 1.000000000000000000, 0.0000000000000000000, 0.0000000000000000000 ) ) ;
#280 = DIRECTION ( 'NONE',  ( -0.0000000000000000000, -0.0000000000000000000, 1.000000000000000000 ) ) ;
#281 = CARTESIAN_POINT ( 'NONE',  ( 0.0000000000000000000, 0.0000000000000000000, -0.4616700330655557600 ) ) ;
#282 = AXIS2_PLACEMENT_3D ( 'NONE', #281, #280, #279 ) ;
#283 = CIRCLE ( 'NONE', #351, 13.22049999999999900 ) ;
#284 = CARTESIAN_POINT ( 'NONE',  ( 0.0000000000000000000, 0.0000000000000000000, -0.4616700330655557600 ) ) ;
#285 = CONICAL_SURFACE ( 'NONE', #282, 13.22049999999999900, 0.7853981633974507200 ) ;
#286 = FACE_OUTER_BOUND ( 'NONE', #173, .T. ) ;
#287 = DIRECTION ( 'NONE',  ( 1.000000000000000000, 0.0000000000000000000, 0.0000000000000000000 ) ) ;
#288 = DIRECTION ( 'NONE',  ( -0.0000000000000000000, -0.0000000000000000000, 1.000000000000000000 ) ) ;
#289 = CARTESIAN_POINT ( 'NONE',  ( 0.0000000000000000000, 0.0000000000000000000, -12.53832996693434300 ) ) ;
#290 = AXIS2_PLACEMENT_3D ( 'NONE', #289, #288, #287 ) ;
#291 = CIRCLE ( 'NONE', #290, 13.22049999999999900 ) ;
#292 = CARTESIAN_POINT ( 'NONE',  ( -13.22049999999999900, 0.0000000000000000000, -12.53832996693434300 ) ) ;
#293 = DIRECTION ( 'NONE',  ( -0.7071067811865514600, 0.0000000000000000000, -0.7071067811865435800 ) ) ;
#294 = VECTOR ( 'NONE', #293, 1000.000000000000000 ) ;
#295 = CARTESIAN_POINT ( 'NONE',  ( -13.68217003306566700, 0.0000000000000000000, -13.00000000000000500 ) ) ;
#296 = LINE ( 'NONE', #295, #294 ) ;
#297 = CARTESIAN_POINT ( 'NONE',  ( -13.68217003306566700, 0.0000000000000000000, -13.00000000000000500 ) ) ;
#298 = DIRECTION ( 'NONE',  ( 1.000000000000000000, 0.0000000000000000000, 0.0000000000000000000 ) ) ;
#299 = DIRECTION ( 'NONE',  ( -0.0000000000000000000, -0.0000000000000000000, 1.000000000000000000 ) ) ;
#300 = CARTESIAN_POINT ( 'NONE',  ( 0.0000000000000000000, 0.0000000000000000000, -13.00000000000000500 ) ) ;
#301 = AXIS2_PLACEMENT_3D ( 'NONE', #300, #299, #298 ) ;
#302 = CIRCLE ( 'NONE', #301, 13.68217003306566700 ) ;
#303 = CARTESIAN_POINT ( 'NONE',  ( 13.68217003306566700, 1.675527235657034100E-015, -13.00000000000000500 ) ) ;
#304 = DIRECTION ( 'NONE',  ( 0.7071067811865514600, 8.659274570719403500E-017, -0.7071067811865435800 ) ) ;
#305 = VECTOR ( 'NONE', #304, 1000.000000000000000 ) ;
#306 = CARTESIAN_POINT ( 'NONE',  ( 13.68217003306566700, 1.675527235657034100E-015, -13.00000000000000500 ) ) ;
#307 = LINE ( 'NONE', #306, #305 ) ;
#308 = DIRECTION ( 'NONE',  ( -1.000000000000000000, 0.0000000000000000000, -0.0000000000000000000 ) ) ;
#309 = DIRECTION ( 'NONE',  ( 0.0000000000000000000, 0.0000000000000000000, -1.000000000000000000 ) ) ;
#310 = CARTESIAN_POINT ( 'NONE',  ( 0.0000000000000000000, 16.25000000000000000, -2.168404344971008900E-016 ) ) ;
#311 = AXIS2_PLACEMENT_3D ( 'NONE', #220, #219, #229 ) ;
#312 = FACE_OUTER_BOUND ( 'NONE', #91, .T. ) ;
#313 = CONICAL_SURFACE ( 'NONE', #311, 13.22049999999999900, 0.7853981633974507200 ) ;
#314 = PLANE ( 'NONE',  #315 ) ;
#315 = AXIS2_PLACEMENT_3D ( 'NONE', #310, #309, #308 ) ;
#316 = FACE_BOUND ( 'NONE', #157, .T. ) ;
#317 = FACE_OUTER_BOUND ( 'NONE', #154, .T. ) ;
#318 = DIRECTION ( 'NONE',  ( 1.000000000000000000, 0.0000000000000000000, 0.0000000000000000000 ) ) ;
#319 = DIRECTION ( 'NONE',  ( -0.0000000000000000000, -0.0000000000000000000, 1.000000000000000000 ) ) ;
#320 = CARTESIAN_POINT ( 'NONE',  ( 0.0000000000000000000, 0.0000000000000000000, -13.00000000000000500 ) ) ;
#321 = AXIS2_PLACEMENT_3D ( 'NONE', #320, #319, #318 ) ;
#322 = CIRCLE ( 'NONE', #321, 13.68217003306566700 ) ;
#323 = DIRECTION ( 'NONE',  ( 1.000000000000000000, 0.0000000000000000000, 0.0000000000000000000 ) ) ;
#324 = DIRECTION ( 'NONE',  ( -0.0000000000000000000, -0.0000000000000000000, 1.000000000000000000 ) ) ;
#325 = CARTESIAN_POINT ( 'NONE',  ( 0.0000000000000000000, 0.0000000000000000000, 0.0000000000000000000 ) ) ;
#326 = AXIS2_PLACEMENT_3D ( 'NONE', #325, #324, #323 ) ;
#327 = DIRECTION ( 'NONE',  ( 1.000000000000000000, 0.0000000000000000000, 0.0000000000000000000 ) ) ;
#328 = DIRECTION ( 'NONE',  ( 0.0000000000000000000, -0.0000000000000000000, 1.000000000000000000 ) ) ;
#329 = AXIS2_PLACEMENT_3D ( 'NONE', #331, #328, #327 ) ;
#330 = CIRCLE ( 'NONE', #326, 16.25000000000000000 ) ;
#331 = CARTESIAN_POINT ( 'NONE',  ( 0.0000000000000000000, 16.25000000000000000, -13.00000000000000400 ) ) ;
#332 = PLANE ( 'NONE',  #329 ) ;
#333 = FACE_BOUND ( 'NONE', #145, .T. ) ;
#334 = FACE_OUTER_BOUND ( 'NONE', #149, .T. ) ;
#335 = DIRECTION ( 'NONE',  ( 1.000000000000000000, 0.0000000000000000000, 0.0000000000000000000 ) ) ;
#336 = DIRECTION ( 'NONE',  ( -0.0000000000000000000, -0.0000000000000000000, 1.000000000000000000 ) ) ;
#337 = CARTESIAN_POINT ( 'NONE',  ( 0.0000000000000000000, 0.0000000000000000000, -12.53832996693434300 ) ) ;
#338 = AXIS2_PLACEMENT_3D ( 'NONE', #337, #336, #335 ) ;
#339 = CIRCLE ( 'NONE', #338, 13.22049999999999900 ) ;
#340 = DIRECTION ( 'NONE',  ( 1.000000000000000000, 0.0000000000000000000, 0.0000000000000000000 ) ) ;
#341 = DIRECTION ( 'NONE',  ( -0.0000000000000000000, -0.0000000000000000000, 1.000000000000000000 ) ) ;
#342 = CARTESIAN_POINT ( 'NONE',  ( 0.0000000000000000000, 0.0000000000000000000, -13.00000000000000500 ) ) ;
#343 = CYLINDRICAL_SURFACE ( 'NONE', #363, 16.25000000000000000 ) ;
#344 = CONICAL_SURFACE ( 'NONE', #362, 13.68217003306566700, 0.7853981633974538300 ) ;
#345 = CARTESIAN_POINT ( 'NONE',  ( 0.0000000000000000000, 0.0000000000000000000, -13.00000000000000500 ) ) ;
#346 = FACE_OUTER_BOUND ( 'NONE', #178, .T. ) ;
#347 = CARTESIAN_POINT ( 'NONE',  ( 1.618990830070874000E-015, -13.22049999999999900, -0.4616700330655557600 ) ) ;
#348 = CARTESIAN_POINT ( 'NONE',  ( -13.22049999999999900, 1.647259032863947300E-015, -0.4616700330655557600 ) ) ;
#349 = DIRECTION ( 'NONE',  ( 1.000000000000000000, 0.0000000000000000000, 0.0000000000000000000 ) ) ;
#350 = DIRECTION ( 'NONE',  ( -0.0000000000000000000, -0.0000000000000000000, 1.000000000000000000 ) ) ;
#351 = AXIS2_PLACEMENT_3D ( 'NONE', #284, #350, #349 ) ;
#352 = CARTESIAN_POINT ( 'NONE',  ( -16.25000000000000000, 1.989985324961363000E-015, 0.0000000000000000000 ) ) ;
#353 = CARTESIAN_POINT ( 'NONE',  ( 13.22049999999999900, 1.647259032863953800E-015, -12.53832996693434300 ) ) ;
#354 = CARTESIAN_POINT ( 'NONE',  ( 1.618990830070874000E-015, -13.22049999999999900, -12.53832996693434300 ) ) ;
#355 = DIRECTION ( 'NONE',  ( 1.000000000000000000, 0.0000000000000000000, 0.0000000000000000000 ) ) ;
#356 = DIRECTION ( 'NONE',  ( -0.0000000000000000000, -0.0000000000000000000, 1.000000000000000000 ) ) ;
#357 = CARTESIAN_POINT ( 'NONE',  ( 0.0000000000000000000, 0.0000000000000000000, -12.53832996693434300 ) ) ;
#358 = AXIS2_PLACEMENT_3D ( 'NONE', #357, #356, #355 ) ;
#359 = CIRCLE ( 'NONE', #358, 13.22049999999999900 ) ;
#360 = DIRECTION ( 'NONE',  ( -1.000000000000000000, 0.0000000000000000000, 0.0000000000000000000 ) ) ;
#361 = DIRECTION ( 'NONE',  ( 0.0000000000000000000, 0.0000000000000000000, -1.000000000000000000 ) ) ;
#362 = AXIS2_PLACEMENT_3D ( 'NONE', #345, #361, #360 ) ;
#363 = AXIS2_PLACEMENT_3D ( 'NONE', #277, #372, #371 ) ;
#364 = CARTESIAN_POINT ( 'NONE',  ( 0.0000000000000000000, 4.898587196589463100E-016, -13.00000000000005200 ) ) ;
#365 = DIRECTION ( 'NONE',  ( 1.000000000000000000, 0.0000000000000000000, 0.0000000000000000000 ) ) ;
#366 = DIRECTION ( 'NONE',  ( -0.0000000000000000000, -0.0000000000000000000, 1.000000000000000000 ) ) ;
#367 = CARTESIAN_POINT ( 'NONE',  ( 0.0000000000000000000, 0.0000000000000000000, -0.4616700330655557600 ) ) ;
#368 = AXIS2_PLACEMENT_3D ( 'NONE', #367, #366, #365 ) ;
#369 = CIRCLE ( 'NONE', #368, 13.22049999999999900 ) ;
#370 = FACE_OUTER_BOUND ( 'NONE', #153, .T. ) ;
#371 = DIRECTION ( 'NONE',  ( 1.000000000000000000, 0.0000000000000000000, 0.0000000000000000000 ) ) ;
#372 = DIRECTION ( 'NONE',  ( -0.0000000000000000000, -0.0000000000000000000, 1.000000000000000000 ) ) ;
#373 = CARTESIAN_POINT ( 'NONE',  ( 16.25000000000000000, 0.0000000000000000000, 0.0000000000000000000 ) ) ;
#374 = DIRECTION ( 'NONE',  ( 1.000000000000000000, 0.0000000000000000000, 0.0000000000000000000 ) ) ;
#375 = DIRECTION ( 'NONE',  ( -0.0000000000000000000, -0.0000000000000000000, 1.000000000000000000 ) ) ;
#376 = CARTESIAN_POINT ( 'NONE',  ( 0.0000000000000000000, 0.0000000000000000000, -0.4616700330655557600 ) ) ;
#377 = AXIS2_PLACEMENT_3D ( 'NONE', #376, #375, #374 ) ;
#378 = CIRCLE ( 'NONE', #377, 13.22049999999999900 ) ;
#379 = CARTESIAN_POINT ( 'NONE',  ( 0.0000000000000000000, 13.22049999999999900, -12.53832996693434300 ) ) ;
#380 = DIRECTION ( 'NONE',  ( 1.000000000000000000, 0.0000000000000000000, 0.0000000000000000000 ) ) ;
#381 = DIRECTION ( 'NONE',  ( -0.0000000000000000000, -0.0000000000000000000, 1.000000000000000000 ) ) ;
#382 = CARTESIAN_POINT ( 'NONE',  ( 0.0000000000000000000, 0.0000000000000000000, -12.53832996693434300 ) ) ;
#383 = AXIS2_PLACEMENT_3D ( 'NONE', #382, #381, #380 ) ;
#384 = CIRCLE ( 'NONE', #383, 13.22049999999999900 ) ;
#385 = DIRECTION ( 'NONE',  ( -0.0000000000000000000, 3.045619747394266200E-016, -1.000000000000000000 ) ) ;
#386 = VECTOR ( 'NONE', #385, 1000.000000000000000 ) ;
#387 = CARTESIAN_POINT ( 'NONE',  ( 1.618990830070874200E-015, -13.22050000000000300, -13.00000000000005500 ) ) ;
#388 = LINE ( 'NONE', #387, #386 ) ;
#389 = DIRECTION ( 'NONE',  ( -0.0000000000000000000, 3.045619747394266200E-016, -1.000000000000000000 ) ) ;
ENDSEC;
END-ISO-10303-21;
