ISO-10303-21;
HEADER;
FILE_DESCRIPTION (( 'STEP AP203' ),
    '1' );
FILE_NAME ('19-0408-73_outokumpu.step',
    '2015-08-11T09:37:31',
    ( '' ),
    ( '' ),
    'SwSTEP 2.0',
    'SolidWorks 2008',
    '' );
FILE_SCHEMA (( 'CONFIG_CONTROL_DESIGN' ));
ENDSEC;

DATA;
#1 = EDGE_CURVE ( 'NONE', #38, #42, #140, .T. ) ;
#2 = ORIENTED_EDGE ( 'NONE', *, *, #1, .T. ) ;
#3 = ORIENTED_EDGE ( 'NONE', *, *, #65, .F. ) ;
#4 = ADVANCED_FACE ( 'NONE', ( #139 ), #175, .F. ) ;
#5 = ADVANCED_FACE ( 'NONE', ( #177 ), #185, .F. ) ;
#6 = EDGE_LOOP ( 'NONE', ( #3, #2, #115, #78 ) ) ;
#7 = EDGE_CURVE ( 'NONE', #48, #14, #180, .T. ) ;
#8 = ORIENTED_EDGE ( 'NONE', *, *, #7, .F. ) ;
#9 = VERTEX_POINT ( 'NONE', #181 ) ;
#10 = VERTEX_POINT ( 'NONE', #147 ) ;
#11 = ORIENTED_EDGE ( 'NONE', *, *, #12, .F. ) ;
#12 = EDGE_CURVE ( 'NONE', #10, #9, #145, .T. ) ;
#13 = EDGE_LOOP ( 'NONE', ( #11, #19, #18, #22, #25 ) ) ;
#14 = VERTEX_POINT ( 'NONE', #146 ) ;
#15 = EDGE_CURVE ( 'NONE', #39, #67, #161, .T. ) ;
#16 = ORIENTED_EDGE ( 'NONE', *, *, #17, .T. ) ;
#17 = EDGE_CURVE ( 'NONE', #48, #28, #156, .T. ) ;
#18 = ORIENTED_EDGE ( 'NONE', *, *, #30, .F. ) ;
#19 = ORIENTED_EDGE ( 'NONE', *, *, #20, .T. ) ;
#20 = EDGE_CURVE ( 'NONE', #10, #55, #157, .T. ) ;
#21 = EDGE_CURVE ( 'NONE', #23, #44, #174, .T. ) ;
#22 = ORIENTED_EDGE ( 'NONE', *, *, #21, .F. ) ;
#23 = VERTEX_POINT ( 'NONE', #169 ) ;
#24 = EDGE_LOOP ( 'NONE', ( #16, #49, #31, #8 ) ) ;
#25 = ORIENTED_EDGE ( 'NONE', *, *, #26, .F. ) ;
#26 = EDGE_CURVE ( 'NONE', #9, #23, #167, .T. ) ;
#27 = ADVANCED_FACE ( 'NONE', ( #162 ), #133, .T. ) ;
#28 = VERTEX_POINT ( 'NONE', #136 ) ;
#29 = EDGE_CURVE ( 'NONE', #28, #33, #132, .T. ) ;
#30 = EDGE_CURVE ( 'NONE', #44, #55, #127, .T. ) ;
#31 = ORIENTED_EDGE ( 'NONE', *, *, #32, .F. ) ;
#32 = EDGE_CURVE ( 'NONE', #14, #33, #242, .T. ) ;
#33 = VERTEX_POINT ( 'NONE', #250 ) ;
#34 = EDGE_LOOP ( 'NONE', ( #57, #59, #60, #51, #58 ) ) ;
#35 = PERSON ( 'UNSPECIFIED', 'UNSPECIFIED', 'UNSPECIFIED', ('UNSPECIFIED'), ('UNSPECIFIED'), ('UNSPECIFIED') ) ;
#36 = PRODUCT ( '19-0408-73_outokumpu', '19-0408-73_outokumpu', '', ( #37 ) ) ;
#37 = MECHANICAL_CONTEXT ( 'NONE', #214, 'mechanical' ) ;
#38 = VERTEX_POINT ( 'NONE', #264 ) ;
#39 = VERTEX_POINT ( 'NONE', #263 ) ;
#40 = ORIENTED_EDGE ( 'NONE', *, *, #45, .T. ) ;
#41 = ORIENTED_EDGE ( 'NONE', *, *, #65, .T. ) ;
#42 = VERTEX_POINT ( 'NONE', #328 ) ;
#43 = EDGE_CURVE ( 'NONE', #44, #42, #327, .T. ) ;
#44 = VERTEX_POINT ( 'NONE', #239 ) ;
#45 = EDGE_CURVE ( 'NONE', #39, #62, #216, .T. ) ;
#46 = MANIFOLD_SOLID_BREP ( 'NONE', #125 ) ;
#47 = ADVANCED_FACE ( 'NONE', ( #289 ), #288, .F. ) ;
#48 = VERTEX_POINT ( 'NONE', #325 ) ;
#49 = ORIENTED_EDGE ( 'NONE', *, *, #29, .T. ) ;
#50 = EDGE_CURVE ( 'NONE', #42, #67, #246, .T. ) ;
#51 = ORIENTED_EDGE ( 'NONE', *, *, #43, .F. ) ;
#52 = ADVANCED_FACE ( 'NONE', ( #247 ), #284, .F. ) ;
#53 = VERTEX_POINT ( 'NONE', #285 ) ;
#54 = EDGE_CURVE ( 'NONE', #55, #53, #262, .T. ) ;
#55 = VERTEX_POINT ( 'NONE', #220 ) ;
#56 = EDGE_LOOP ( 'NONE', ( #69, #98 ) ) ;
#57 = ORIENTED_EDGE ( 'NONE', *, *, #54, .T. ) ;
#58 = ORIENTED_EDGE ( 'NONE', *, *, #30, .T. ) ;
#59 = ORIENTED_EDGE ( 'NONE', *, *, #66, .T. ) ;
#60 = ORIENTED_EDGE ( 'NONE', *, *, #50, .F. ) ;
#61 = ORIENTED_EDGE ( 'NONE', *, *, #21, .T. ) ;
#62 = VERTEX_POINT ( 'NONE', #219 ) ;
#63 = VERTEX_POINT ( 'NONE', #218 ) ;
#64 = EDGE_LOOP ( 'NONE', ( #41, #40, #71, #73 ) ) ;
#65 = EDGE_CURVE ( 'NONE', #38, #39, #332, .T. ) ;
#66 = EDGE_CURVE ( 'NONE', #53, #67, #333, .T. ) ;
#67 = VERTEX_POINT ( 'NONE', #271 ) ;
#68 = EDGE_CURVE ( 'NONE', #38, #63, #270, .T. ) ;
#69 = ORIENTED_EDGE ( 'NONE', *, *, #17, .F. ) ;
#70 = ADVANCED_FACE ( 'NONE', ( #230, #229 ), #228, .F. ) ;
#71 = ORIENTED_EDGE ( 'NONE', *, *, #72, .F. ) ;
#72 = EDGE_CURVE ( 'NONE', #63, #62, #236, .T. ) ;
#73 = ORIENTED_EDGE ( 'NONE', *, *, #68, .F. ) ;
#74 = ADVANCED_FACE ( 'NONE', ( #237, #347 ), #346, .F. ) ;
#75 = ORIENTED_EDGE ( 'NONE', *, *, #87, .T. ) ;
#76 = ORIENTED_EDGE ( 'NONE', *, *, #54, .F. ) ;
#77 = EDGE_CURVE ( 'NONE', #67, #42, #344, .T. ) ;
#78 = ORIENTED_EDGE ( 'NONE', *, *, #15, .F. ) ;
#79 = ORIENTED_EDGE ( 'NONE', *, *, #72, .T. ) ;
#80 = ORIENTED_EDGE ( 'NONE', *, *, #77, .T. ) ;
#81 = EDGE_LOOP ( 'NONE', ( #106, #107, #116, #117 ) ) ;
#82 = EDGE_CURVE ( 'NONE', #28, #48, #336, .T. ) ;
#83 = EDGE_CURVE ( 'NONE', #33, #14, #322, .T. ) ;
#84 = EDGE_LOOP ( 'NONE', ( #85, #96 ) ) ;
#85 = ORIENTED_EDGE ( 'NONE', *, *, #32, .T. ) ;
#86 = EDGE_CURVE ( 'NONE', #39, #38, #317, .T. ) ;
#87 = EDGE_CURVE ( 'NONE', #9, #10, #312, .T. ) ;
#88 = ORIENTED_EDGE ( 'NONE', *, *, #26, .T. ) ;
#89 = EDGE_LOOP ( 'NONE', ( #111, #112, #88, #114, #76 ) ) ;
#90 = EDGE_CURVE ( 'NONE', #62, #63, #307, .T. ) ;
#91 = EDGE_LOOP ( 'NONE', ( #108, #109, #110, #80 ) ) ;
#92 = ORIENTED_EDGE ( 'NONE', *, *, #90, .T. ) ;
#93 = EDGE_LOOP ( 'NONE', ( #94, #95, #61, #100, #119 ) ) ;
#94 = ORIENTED_EDGE ( 'NONE', *, *, #66, .F. ) ;
#95 = ORIENTED_EDGE ( 'NONE', *, *, #99, .T. ) ;
#96 = ORIENTED_EDGE ( 'NONE', *, *, #83, .T. ) ;
#97 = ADVANCED_FACE ( 'NONE', ( #302 ), #301, .F. ) ;
#98 = ORIENTED_EDGE ( 'NONE', *, *, #82, .F. ) ;
#99 = EDGE_CURVE ( 'NONE', #53, #23, #280, .T. ) ;
#100 = ORIENTED_EDGE ( 'NONE', *, *, #43, .T. ) ;
#101 = ADVANCED_FACE ( 'NONE', ( #276 ), #207, .F. ) ;
#102 = ADVANCED_FACE ( 'NONE', ( #208 ), #203, .F. ) ;
#103 = ADVANCED_FACE ( 'NONE', ( #202 ), #197, .T. ) ;
#104 = EDGE_LOOP ( 'NONE', ( #79, #92 ) ) ;
#105 = ORIENTED_EDGE ( 'NONE', *, *, #12, .T. ) ;
#106 = ORIENTED_EDGE ( 'NONE', *, *, #29, .F. ) ;
#107 = ORIENTED_EDGE ( 'NONE', *, *, #82, .T. ) ;
#108 = ORIENTED_EDGE ( 'NONE', *, *, #1, .F. ) ;
#109 = ORIENTED_EDGE ( 'NONE', *, *, #86, .F. ) ;
#110 = ORIENTED_EDGE ( 'NONE', *, *, #15, .T. ) ;
#111 = ORIENTED_EDGE ( 'NONE', *, *, #20, .F. ) ;
#112 = ORIENTED_EDGE ( 'NONE', *, *, #87, .F. ) ;
#113 = ADVANCED_FACE ( 'NONE', ( #196 ), #195, .F. ) ;
#114 = ORIENTED_EDGE ( 'NONE', *, *, #99, .F. ) ;
#115 = ORIENTED_EDGE ( 'NONE', *, *, #50, .T. ) ;
#116 = ORIENTED_EDGE ( 'NONE', *, *, #7, .T. ) ;
#117 = ORIENTED_EDGE ( 'NONE', *, *, #83, .F. ) ;
#118 = EDGE_LOOP ( 'NONE', ( #75, #105 ) ) ;
#119 = ORIENTED_EDGE ( 'NONE', *, *, #77, .F. ) ;
#120 = ORIENTED_EDGE ( 'NONE', *, *, #86, .T. ) ;
#121 = EDGE_LOOP ( 'NONE', ( #123, #120, #122, #124 ) ) ;
#122 = ORIENTED_EDGE ( 'NONE', *, *, #68, .T. ) ;
#123 = ORIENTED_EDGE ( 'NONE', *, *, #45, .F. ) ;
#124 = ORIENTED_EDGE ( 'NONE', *, *, #90, .F. ) ;
#125 = CLOSED_SHELL ( 'NONE', ( #47, #52, #27, #5, #4, #70, #102, #113, #103, #74, #97, #101 ) ) ;
#126 = DIRECTION ( 'NONE',  ( -0.0000000000000000000, -0.0000000000000000000, 1.000000000000000000 ) ) ;
#127 = CIRCLE ( 'NONE', #163, 7.474999999999985400 ) ;
#128 = DIRECTION ( 'NONE',  ( -0.0000000000000000000, -0.0000000000000000000, 1.000000000000000000 ) ) ;
#129 = CARTESIAN_POINT ( 'NONE',  ( 0.0000000000000000000, 0.0000000000000000000, -4.336808689942017700E-016 ) ) ;
#130 = VECTOR ( 'NONE', #128, 1000.000000000000000 ) ;
#131 = CARTESIAN_POINT ( 'NONE',  ( -10.75000000000000000, 1.316451830359055400E-015, -4.336808689942017700E-016 ) ) ;
#132 = LINE ( 'NONE', #131, #130 ) ;
#133 = CYLINDRICAL_SURFACE ( 'NONE', #134, 10.75000000000000000 ) ;
#134 = AXIS2_PLACEMENT_3D ( 'NONE', #129, #126, #135 ) ;
#135 = DIRECTION ( 'NONE',  ( 1.000000000000000000, 0.0000000000000000000, 0.0000000000000000000 ) ) ;
#136 = CARTESIAN_POINT ( 'NONE',  ( -10.75000000000000000, 1.316451830359055400E-015, -80.00000000000000000 ) ) ;
#137 = CARTESIAN_POINT ( 'NONE',  ( 0.0000000000000000000, 0.0000000000000000000, -4.336808689942017700E-016 ) ) ;
#138 = AXIS2_PLACEMENT_3D ( 'NONE', #137, #187, #186 ) ;
#139 = FACE_OUTER_BOUND ( 'NONE', #6, .T. ) ;
#140 = LINE ( 'NONE', #188, #190 ) ;
#141 = DIRECTION ( 'NONE',  ( 0.0000000000000000000, 1.000000000000000000, -2.556168068605762800E-018 ) ) ;
#142 = DIRECTION ( 'NONE',  ( -0.0000000000000000000, -2.556168068605763200E-018, -1.000000000000000000 ) ) ;
#143 = CARTESIAN_POINT ( 'NONE',  ( 0.0000000000000000000, -3.469446951953615000E-015, 0.0000000000000000000 ) ) ;
#144 = AXIS2_PLACEMENT_3D ( 'NONE', #143, #142, #141 ) ;
#145 = CIRCLE ( 'NONE', #144, 7.474999999999989000 ) ;
#146 = CARTESIAN_POINT ( 'NONE',  ( 10.75000000000000000, 0.0000000000000000000, 0.0000000000000000000 ) ) ;
#147 = CARTESIAN_POINT ( 'NONE',  ( 9.153932494822262900E-016, -7.474999999999991700, 1.910735631282805200E-017 ) ) ;
#148 = DIRECTION ( 'NONE',  ( -0.0000000000000000000, -0.0000000000000000000, 1.000000000000000000 ) ) ;
#149 = DIRECTION ( 'NONE',  ( -0.0000000000000000000, -2.556168068605763200E-018, -1.000000000000000000 ) ) ;
#150 = VECTOR ( 'NONE', #149, 1000.000000000000000 ) ;
#151 = CARTESIAN_POINT ( 'NONE',  ( 9.153932494822268800E-016, -7.475000000000002300, -80.00000000000004300 ) ) ;
#152 = DIRECTION ( 'NONE',  ( 1.000000000000000000, 0.0000000000000000000, 0.0000000000000000000 ) ) ;
#153 = DIRECTION ( 'NONE',  ( -0.0000000000000000000, -0.0000000000000000000, 1.000000000000000000 ) ) ;
#154 = CARTESIAN_POINT ( 'NONE',  ( 0.0000000000000000000, 0.0000000000000000000, -80.00000000000000000 ) ) ;
#155 = AXIS2_PLACEMENT_3D ( 'NONE', #154, #153, #152 ) ;
#156 = CIRCLE ( 'NONE', #155, 10.75000000000000000 ) ;
#157 = LINE ( 'NONE', #151, #150 ) ;
#158 = DIRECTION ( 'NONE',  ( -0.0000000000000000000, -0.0000000000000000000, 1.000000000000000000 ) ) ;
#159 = VECTOR ( 'NONE', #158, 1000.000000000000000 ) ;
#160 = CARTESIAN_POINT ( 'NONE',  ( 8.330999999999997700, 0.0000000000000000000, -4.336808689942017700E-016 ) ) ;
#161 = LINE ( 'NONE', #160, #159 ) ;
#162 = FACE_OUTER_BOUND ( 'NONE', #24, .T. ) ;
#163 = AXIS2_PLACEMENT_3D ( 'NONE', #168, #329, #215 ) ;
#164 = DIRECTION ( 'NONE',  ( -0.0000000000000000000, -2.556168068605763200E-018, -1.000000000000000000 ) ) ;
#165 = VECTOR ( 'NONE', #164, 1000.000000000000000 ) ;
#166 = CARTESIAN_POINT ( 'NONE',  ( 0.0000000000000000000, 7.474999999999995200, -80.00000000000004300 ) ) ;
#167 = LINE ( 'NONE', #166, #165 ) ;
#168 = CARTESIAN_POINT ( 'NONE',  ( 0.0000000000000000000, 0.0000000000000000000, -68.00000000000000000 ) ) ;
#169 = CARTESIAN_POINT ( 'NONE',  ( 0.0000000000000000000, 7.474999999999985400, -68.00000000000000000 ) ) ;
#170 = DIRECTION ( 'NONE',  ( 1.000000000000000000, 0.0000000000000000000, 0.0000000000000000000 ) ) ;
#171 = DIRECTION ( 'NONE',  ( -0.0000000000000000000, -0.0000000000000000000, 1.000000000000000000 ) ) ;
#172 = CARTESIAN_POINT ( 'NONE',  ( 0.0000000000000000000, 0.0000000000000000000, -68.00000000000000000 ) ) ;
#173 = AXIS2_PLACEMENT_3D ( 'NONE', #172, #171, #170 ) ;
#174 = CIRCLE ( 'NONE', #173, 7.474999999999985400 ) ;
#175 = CYLINDRICAL_SURFACE ( 'NONE', #138, 8.330999999999997700 ) ;
#176 = DIRECTION ( 'NONE',  ( -0.0000000000000000000, -2.556168068605763200E-018, -1.000000000000000000 ) ) ;
#177 = FACE_OUTER_BOUND ( 'NONE', #13, .T. ) ;
#178 = VECTOR ( 'NONE', #148, 1000.000000000000000 ) ;
#179 = CARTESIAN_POINT ( 'NONE',  ( 10.75000000000000000, 0.0000000000000000000, -4.336808689942017700E-016 ) ) ;
#180 = LINE ( 'NONE', #179, #178 ) ;
#181 = CARTESIAN_POINT ( 'NONE',  ( 0.0000000000000000000, 7.474999999999985400, -1.910735631282804900E-017 ) ) ;
#182 = DIRECTION ( 'NONE',  ( 0.0000000000000000000, 1.000000000000000000, 0.0000000000000000000 ) ) ;
#183 = AXIS2_PLACEMENT_3D ( 'NONE', #184, #176, #182 ) ;
#184 = CARTESIAN_POINT ( 'NONE',  ( 0.0000000000000000000, -3.673940397442076500E-015, -80.00000000000004300 ) ) ;
#185 = CYLINDRICAL_SURFACE ( 'NONE', #183, 7.474999999999998800 ) ;
#186 = DIRECTION ( 'NONE',  ( 1.000000000000000000, 0.0000000000000000000, 0.0000000000000000000 ) ) ;
#187 = DIRECTION ( 'NONE',  ( -0.0000000000000000000, -0.0000000000000000000, 1.000000000000000000 ) ) ;
#188 = CARTESIAN_POINT ( 'NONE',  ( -8.330999999999997700, 1.020219553369422300E-015, -4.336808689942017700E-016 ) ) ;
#189 = DIRECTION ( 'NONE',  ( -0.0000000000000000000, -0.0000000000000000000, 1.000000000000000000 ) ) ;
#190 = VECTOR ( 'NONE', #189, 1000.000000000000000 ) ;
#191 = DIRECTION ( 'NONE',  ( 1.000000000000000000, 0.0000000000000000000, 0.0000000000000000000 ) ) ;
#192 = DIRECTION ( 'NONE',  ( -0.0000000000000000000, -0.0000000000000000000, 1.000000000000000000 ) ) ;
#193 = CARTESIAN_POINT ( 'NONE',  ( 0.0000000000000000000, 0.0000000000000000000, -4.336808689942017700E-016 ) ) ;
#194 = AXIS2_PLACEMENT_3D ( 'NONE', #193, #192, #191 ) ;
#195 = CYLINDRICAL_SURFACE ( 'NONE', #260, 7.474999999999998800 ) ;
#196 = FACE_OUTER_BOUND ( 'NONE', #89, .T. ) ;
#197 = CYLINDRICAL_SURFACE ( 'NONE', #194, 10.75000000000000000 ) ;
#198 = DIRECTION ( 'NONE',  ( 1.000000000000000000, 0.0000000000000000000, 0.0000000000000000000 ) ) ;
#199 = DIRECTION ( 'NONE',  ( -0.0000000000000000000, -0.0000000000000000000, 1.000000000000000000 ) ) ;
#200 = CARTESIAN_POINT ( 'NONE',  ( 0.0000000000000000000, 0.0000000000000000000, -4.336808689942017700E-016 ) ) ;
#201 = AXIS2_PLACEMENT_3D ( 'NONE', #200, #199, #198 ) ;
#202 = FACE_OUTER_BOUND ( 'NONE', #81, .T. ) ;
#203 = CYLINDRICAL_SURFACE ( 'NONE', #201, 8.330999999999997700 ) ;
#204 = DIRECTION ( 'NONE',  ( -1.000000000000000000, 0.0000000000000000000, 0.0000000000000000000 ) ) ;
#205 = DIRECTION ( 'NONE',  ( 0.0000000000000000000, 0.0000000000000000000, -1.000000000000000000 ) ) ;
#206 = AXIS2_PLACEMENT_3D ( 'NONE', #209, #205, #204 ) ;
#207 = CONICAL_SURFACE ( 'NONE', #206, 8.621924930635707100, 0.7853981633974542700 ) ;
#208 = FACE_OUTER_BOUND ( 'NONE', #91, .T. ) ;
#209 = CARTESIAN_POINT ( 'NONE',  ( 0.0000000000000000000, 0.0000000000000000000, -80.00000000000001400 ) ) ;
#210 = DIRECTION ( 'NONE',  ( 1.000000000000000000, 0.0000000000000000000, 0.0000000000000000000 ) ) ;
#211 = DIRECTION ( 'NONE',  ( 1.000000000000000000, 0.0000000000000000000, 0.0000000000000000000 ) ) ;
#212 = DIRECTION ( 'NONE',  ( 0.0000000000000000000, 0.0000000000000000000, 1.000000000000000000 ) ) ;
#213 = CARTESIAN_POINT ( 'NONE',  ( 0.0000000000000000000, 0.0000000000000000000, 0.0000000000000000000 ) ) ;
#214 = APPLICATION_CONTEXT ( 'configuration controlled 3d designs of mechanical parts and assemblies' ) ;
#215 = DIRECTION ( 'NONE',  ( 1.000000000000000000, 0.0000000000000000000, 0.0000000000000000000 ) ) ;
#216 = LINE ( 'NONE', #292, #291 ) ;
#217 = APPLICATION_PROTOCOL_DEFINITION ( 'international standard', 'config_control_design', 1994, #214 ) ;
#218 = CARTESIAN_POINT ( 'NONE',  ( -8.621924930635707100, 0.0000000000000000000, -80.00000000000001400 ) ) ;
#219 = CARTESIAN_POINT ( 'NONE',  ( 8.621924930635707100, 1.055846405223604600E-015, -80.00000000000001400 ) ) ;
#220 = CARTESIAN_POINT ( 'NONE',  ( 9.153932494822259000E-016, -7.474999999999985400, -68.00000000000000000 ) ) ;
#221 = DIRECTION ( 'NONE',  ( 1.000000000000000000, 0.0000000000000000000, 0.0000000000000000000 ) ) ;
#222 = DIRECTION ( 'NONE',  ( -0.0000000000000000000, -0.0000000000000000000, 1.000000000000000000 ) ) ;
#223 = CARTESIAN_POINT ( 'NONE',  ( 0.0000000000000000000, 0.0000000000000000000, -68.00000000000000000 ) ) ;
#224 = AXIS2_PLACEMENT_3D ( 'NONE', #223, #222, #221 ) ;
#225 = DIRECTION ( 'NONE',  ( 0.0000000000000000000, -0.0000000000000000000, 1.000000000000000000 ) ) ;
#226 = AXIS2_PLACEMENT_3D ( 'NONE', #227, #225, #238 ) ;
#227 = CARTESIAN_POINT ( 'NONE',  ( 0.0000000000000000000, 10.75000000000000000, -80.00000000000000000 ) ) ;
#228 = PLANE ( 'NONE',  #226 ) ;
#229 = FACE_BOUND ( 'NONE', #104, .T. ) ;
#230 = FACE_OUTER_BOUND ( 'NONE', #56, .T. ) ;
#231 = AXIS2_PLACEMENT_3D ( 'NONE', #249, #266, #265 ) ;
#232 = DIRECTION ( 'NONE',  ( 1.000000000000000000, 0.0000000000000000000, 0.0000000000000000000 ) ) ;
#233 = DIRECTION ( 'NONE',  ( -0.0000000000000000000, -0.0000000000000000000, 1.000000000000000000 ) ) ;
#234 = CARTESIAN_POINT ( 'NONE',  ( 0.0000000000000000000, 0.0000000000000000000, -80.00000000000001400 ) ) ;
#235 = AXIS2_PLACEMENT_3D ( 'NONE', #234, #233, #232 ) ;
#236 = CIRCLE ( 'NONE', #235, 8.621924930635707100 ) ;
#237 = FACE_BOUND ( 'NONE', #118, .T. ) ;
#238 = DIRECTION ( 'NONE',  ( 1.000000000000000000, 0.0000000000000000000, 0.0000000000000000000 ) ) ;
#239 = CARTESIAN_POINT ( 'NONE',  ( -7.474999999999985400, 0.0000000000000000000, -68.00000000000000000 ) ) ;
#240 = DIRECTION ( 'NONE',  ( -0.7881360308231405400, 0.0000000000000000000, -0.6155010941650271800 ) ) ;
#241 = VECTOR ( 'NONE', #240, 1000.000000000000000 ) ;
#242 = CIRCLE ( 'NONE', #231, 10.75000000000000000 ) ;
#243 = DIRECTION ( 'NONE',  ( -0.0000000000000000000, -0.0000000000000000000, 1.000000000000000000 ) ) ;
#244 = CARTESIAN_POINT ( 'NONE',  ( 0.0000000000000000000, 0.0000000000000000000, -68.66850000000000900 ) ) ;
#245 = AXIS2_PLACEMENT_3D ( 'NONE', #244, #243, #287 ) ;
#246 = CIRCLE ( 'NONE', #245, 8.330999999999997700 ) ;
#247 = FACE_OUTER_BOUND ( 'NONE', #34, .T. ) ;
#248 = DIRECTION ( 'NONE',  ( -1.000000000000000000, 0.0000000000000000000, 0.0000000000000000000 ) ) ;
#249 = CARTESIAN_POINT ( 'NONE',  ( 0.0000000000000000000, 0.0000000000000000000, 0.0000000000000000000 ) ) ;
#250 = CARTESIAN_POINT ( 'NONE',  ( -10.75000000000000000, 1.316451830359055400E-015, 0.0000000000000000000 ) ) ;
#251 = ADVANCED_BREP_SHAPE_REPRESENTATION ( '19-0408-73_outokumpu', ( #46, #261 ), #252 ) ;
#252 =( GEOMETRIC_REPRESENTATION_CONTEXT ( 3 ) GLOBAL_UNCERTAINTY_ASSIGNED_CONTEXT ( ( #253 ) ) GLOBAL_UNIT_ASSIGNED_CONTEXT ( ( #256, #255, #254 ) ) REPRESENTATION_CONTEXT ( 'NONE', 'WORKASPACE' ) );
#253 = UNCERTAINTY_MEASURE_WITH_UNIT (LENGTH_MEASURE( 1.000000000000000100E-005 ), #256, 'distance_accuracy_value', 'NONE');
#254 =( NAMED_UNIT ( * ) SI_UNIT ( $, .STERADIAN. ) SOLID_ANGLE_UNIT ( ) );
#255 =( NAMED_UNIT ( * ) PLANE_ANGLE_UNIT ( ) SI_UNIT ( $, .RADIAN. ) );
#256 =( LENGTH_UNIT ( ) NAMED_UNIT ( * ) SI_UNIT ( .MILLI., .METRE. ) );
#257 = DIRECTION ( 'NONE',  ( 0.0000000000000000000, 1.000000000000000000, 0.0000000000000000000 ) ) ;
#258 = DIRECTION ( 'NONE',  ( -0.0000000000000000000, -2.556168068605763200E-018, -1.000000000000000000 ) ) ;
#259 = CARTESIAN_POINT ( 'NONE',  ( 0.0000000000000000000, -3.673940397442076500E-015, -80.00000000000004300 ) ) ;
#260 = AXIS2_PLACEMENT_3D ( 'NONE', #259, #258, #257 ) ;
#261 = AXIS2_PLACEMENT_3D ( 'NONE', #213, #212, #211 ) ;
#262 = CIRCLE ( 'NONE', #224, 7.474999999999985400 ) ;
#263 = CARTESIAN_POINT ( 'NONE',  ( 8.330999999999997700, 0.0000000000000000000, -79.70907506936430300 ) ) ;
#264 = CARTESIAN_POINT ( 'NONE',  ( -8.330999999999997700, 1.020219553369422300E-015, -79.70907506936430300 ) ) ;
#265 = DIRECTION ( 'NONE',  ( 1.000000000000000000, 0.0000000000000000000, 0.0000000000000000000 ) ) ;
#266 = DIRECTION ( 'NONE',  ( -0.0000000000000000000, -0.0000000000000000000, 1.000000000000000000 ) ) ;
#267 = DIRECTION ( 'NONE',  ( -0.7071067811865517900, 0.0000000000000000000, -0.7071067811865433500 ) ) ;
#268 = VECTOR ( 'NONE', #267, 1000.000000000000000 ) ;
#269 = CARTESIAN_POINT ( 'NONE',  ( -8.621924930635707100, 0.0000000000000000000, -80.00000000000001400 ) ) ;
#270 = LINE ( 'NONE', #269, #268 ) ;
#271 = CARTESIAN_POINT ( 'NONE',  ( 8.330999999999997700, 0.0000000000000000000, -68.66850000000000900 ) ) ;
#272 = DIRECTION ( 'NONE',  ( 0.7881360308231405400, 9.651563910223668400E-017, -0.6155010941650271800 ) ) ;
#273 = DIRECTION ( 'NONE',  ( -0.0000000000000000000, -0.0000000000000000000, 1.000000000000000000 ) ) ;
#274 = CARTESIAN_POINT ( 'NONE',  ( 0.0000000000000000000, 0.0000000000000000000, -68.00000000000000000 ) ) ;
#275 = AXIS2_PLACEMENT_3D ( 'NONE', #274, #273, #210 ) ;
#276 = FACE_OUTER_BOUND ( 'NONE', #121, .T. ) ;
#277 = DIRECTION ( 'NONE',  ( -1.000000000000000000, 0.0000000000000000000, 0.0000000000000000000 ) ) ;
#278 = DIRECTION ( 'NONE',  ( 0.0000000000000000000, 0.0000000000000000000, -1.000000000000000000 ) ) ;
#279 = CARTESIAN_POINT ( 'NONE',  ( 0.0000000000000000000, 0.0000000000000000000, -68.66850000000000900 ) ) ;
#280 = CIRCLE ( 'NONE', #275, 7.474999999999985400 ) ;
#281 = DIRECTION ( 'NONE',  ( -1.000000000000000000, 0.0000000000000000000, 0.0000000000000000000 ) ) ;
#282 = DIRECTION ( 'NONE',  ( 0.0000000000000000000, 0.0000000000000000000, -1.000000000000000000 ) ) ;
#283 = AXIS2_PLACEMENT_3D ( 'NONE', #286, #282, #281 ) ;
#284 = CONICAL_SURFACE ( 'NONE', #283, 8.330999999999997700, 0.9077747214735943900 ) ;
#285 = CARTESIAN_POINT ( 'NONE',  ( 7.474999999999985400, 9.678064014258237800E-016, -68.00000000000000000 ) ) ;
#286 = CARTESIAN_POINT ( 'NONE',  ( 0.0000000000000000000, 0.0000000000000000000, -68.66850000000000900 ) ) ;
#287 = DIRECTION ( 'NONE',  ( 1.000000000000000000, 0.0000000000000000000, 0.0000000000000000000 ) ) ;
#288 = CONICAL_SURFACE ( 'NONE', #295, 8.621924930635707100, 0.7853981633974542700 ) ;
#289 = FACE_OUTER_BOUND ( 'NONE', #64, .T. ) ;
#290 = DIRECTION ( 'NONE',  ( 0.7071067811865517900, 8.659274570719408400E-017, -0.7071067811865433500 ) ) ;
#291 = VECTOR ( 'NONE', #290, 1000.000000000000000 ) ;
#292 = CARTESIAN_POINT ( 'NONE',  ( 8.621924930635707100, 1.055846405223604600E-015, -80.00000000000001400 ) ) ;
#293 = DIRECTION ( 'NONE',  ( 0.0000000000000000000, 0.0000000000000000000, -1.000000000000000000 ) ) ;
#294 = CARTESIAN_POINT ( 'NONE',  ( 0.0000000000000000000, 0.0000000000000000000, -80.00000000000001400 ) ) ;
#295 = AXIS2_PLACEMENT_3D ( 'NONE', #294, #293, #248 ) ;
#296 = VECTOR ( 'NONE', #272, 1000.000000000000000 ) ;
#297 = CARTESIAN_POINT ( 'NONE',  ( 8.330999999999997700, 1.020219553369422300E-015, -68.66850000000000900 ) ) ;
#298 = DIRECTION ( 'NONE',  ( 1.000000000000000000, 0.0000000000000000000, 0.0000000000000000000 ) ) ;
#299 = DIRECTION ( 'NONE',  ( -0.0000000000000000000, -0.0000000000000000000, 1.000000000000000000 ) ) ;
#300 = AXIS2_PLACEMENT_3D ( 'NONE', #279, #278, #277 ) ;
#301 = CONICAL_SURFACE ( 'NONE', #300, 8.330999999999997700, 0.9077747214735943900 ) ;
#302 = FACE_OUTER_BOUND ( 'NONE', #93, .T. ) ;
#303 = DIRECTION ( 'NONE',  ( 1.000000000000000000, 0.0000000000000000000, 0.0000000000000000000 ) ) ;
#304 = DIRECTION ( 'NONE',  ( -0.0000000000000000000, -0.0000000000000000000, 1.000000000000000000 ) ) ;
#305 = CARTESIAN_POINT ( 'NONE',  ( 0.0000000000000000000, 0.0000000000000000000, -80.00000000000001400 ) ) ;
#306 = AXIS2_PLACEMENT_3D ( 'NONE', #305, #304, #303 ) ;
#307 = CIRCLE ( 'NONE', #306, 8.621924930635707100 ) ;
#308 = DIRECTION ( 'NONE',  ( 0.0000000000000000000, 1.000000000000000000, -2.556168068605762800E-018 ) ) ;
#309 = DIRECTION ( 'NONE',  ( -0.0000000000000000000, -2.556168068605763200E-018, -1.000000000000000000 ) ) ;
#310 = CARTESIAN_POINT ( 'NONE',  ( 0.0000000000000000000, -3.469446951953615000E-015, 0.0000000000000000000 ) ) ;
#311 = AXIS2_PLACEMENT_3D ( 'NONE', #310, #309, #308 ) ;
#312 = CIRCLE ( 'NONE', #311, 7.474999999999989000 ) ;
#313 = DIRECTION ( 'NONE',  ( 1.000000000000000000, 0.0000000000000000000, 0.0000000000000000000 ) ) ;
#314 = DIRECTION ( 'NONE',  ( -0.0000000000000000000, -0.0000000000000000000, 1.000000000000000000 ) ) ;
#315 = CARTESIAN_POINT ( 'NONE',  ( 0.0000000000000000000, 0.0000000000000000000, -79.70907506936430300 ) ) ;
#316 = AXIS2_PLACEMENT_3D ( 'NONE', #315, #314, #313 ) ;
#317 = CIRCLE ( 'NONE', #316, 8.330999999999997700 ) ;
#318 = DIRECTION ( 'NONE',  ( 1.000000000000000000, 0.0000000000000000000, 0.0000000000000000000 ) ) ;
#319 = DIRECTION ( 'NONE',  ( -0.0000000000000000000, -0.0000000000000000000, 1.000000000000000000 ) ) ;
#320 = CARTESIAN_POINT ( 'NONE',  ( 0.0000000000000000000, 0.0000000000000000000, 0.0000000000000000000 ) ) ;
#321 = AXIS2_PLACEMENT_3D ( 'NONE', #320, #319, #318 ) ;
#322 = CIRCLE ( 'NONE', #321, 10.75000000000000000 ) ;
#323 = DIRECTION ( 'NONE',  ( 1.000000000000000000, 0.0000000000000000000, 0.0000000000000000000 ) ) ;
#324 = DIRECTION ( 'NONE',  ( -0.0000000000000000000, -0.0000000000000000000, 1.000000000000000000 ) ) ;
#325 = CARTESIAN_POINT ( 'NONE',  ( 10.75000000000000000, 0.0000000000000000000, -80.00000000000000000 ) ) ;
#326 = CARTESIAN_POINT ( 'NONE',  ( -8.330999999999997700, 0.0000000000000000000, -68.66850000000000900 ) ) ;
#327 = LINE ( 'NONE', #326, #241 ) ;
#328 = CARTESIAN_POINT ( 'NONE',  ( -8.330999999999997700, 1.020219553369422300E-015, -68.66850000000000900 ) ) ;
#329 = DIRECTION ( 'NONE',  ( -0.0000000000000000000, -0.0000000000000000000, 1.000000000000000000 ) ) ;
#330 = CARTESIAN_POINT ( 'NONE',  ( 0.0000000000000000000, 0.0000000000000000000, -79.70907506936430300 ) ) ;
#331 = AXIS2_PLACEMENT_3D ( 'NONE', #330, #299, #298 ) ;
#332 = CIRCLE ( 'NONE', #331, 8.330999999999997700 ) ;
#333 = LINE ( 'NONE', #297, #296 ) ;
#334 = CARTESIAN_POINT ( 'NONE',  ( 0.0000000000000000000, 0.0000000000000000000, -80.00000000000000000 ) ) ;
#335 = AXIS2_PLACEMENT_3D ( 'NONE', #334, #324, #323 ) ;
#336 = CIRCLE ( 'NONE', #335, 10.75000000000000000 ) ;
#337 = DIRECTION ( 'NONE',  ( 1.000000000000000000, 0.0000000000000000000, 0.0000000000000000000 ) ) ;
#338 = DIRECTION ( 'NONE',  ( -0.0000000000000000000, -0.0000000000000000000, 1.000000000000000000 ) ) ;
#339 = CARTESIAN_POINT ( 'NONE',  ( 0.0000000000000000000, 0.0000000000000000000, -68.66850000000000900 ) ) ;
#340 = AXIS2_PLACEMENT_3D ( 'NONE', #339, #338, #337 ) ;
#341 = DIRECTION ( 'NONE',  ( -1.000000000000000000, 0.0000000000000000000, -0.0000000000000000000 ) ) ;
#342 = DIRECTION ( 'NONE',  ( 0.0000000000000000000, 0.0000000000000000000, -1.000000000000000000 ) ) ;
#343 = AXIS2_PLACEMENT_3D ( 'NONE', #345, #342, #341 ) ;
#344 = CIRCLE ( 'NONE', #340, 8.330999999999997700 ) ;
#345 = CARTESIAN_POINT ( 'NONE',  ( 0.0000000000000000000, 10.75000000000000000, -2.168404344971008900E-016 ) ) ;
#346 = PLANE ( 'NONE',  #343 ) ;
#347 = FACE_OUTER_BOUND ( 'NONE', #84, .T. ) ;
#348 = DATE_AND_TIME ( #349, #350 ) ;
#349 = CALENDAR_DATE ( 2015, 11, 8 ) ;
#350 = LOCAL_TIME ( 11, 37, 31.00000000000000000, #386 ) ;
#351 = APPROVAL_STATUS ( 'not_yet_approved' ) ;
#352 = DATE_AND_TIME ( #415, #416 ) ;
#353 = CC_DESIGN_PERSON_AND_ORGANIZATION_ASSIGNMENT ( #390, #389, ( #373 ) ) ;
#354 = PRODUCT_DEFINITION_FORMATION_WITH_SPECIFIED_SOURCE ( 'ANY', '', #36, .NOT_KNOWN. ) ;
#355 = CC_DESIGN_DATE_AND_TIME_ASSIGNMENT ( #352, #356, ( #373 ) ) ;
#356 = DATE_TIME_ROLE ( 'creation_date' ) ;
#357 = LOCAL_TIME ( 11, 37, 31.00000000000000000, #358 ) ;
#358 = COORDINATED_UNIVERSAL_TIME_OFFSET ( 1, 0, .AHEAD. ) ;
#359 = CC_DESIGN_PERSON_AND_ORGANIZATION_ASSIGNMENT ( #361, #360, ( #364 ) ) ;
#360 = PERSON_AND_ORGANIZATION_ROLE ( 'classification_officer' ) ;
#361 = PERSON_AND_ORGANIZATION ( #35, #400 ) ;
#362 = APPLICATION_PROTOCOL_DEFINITION ( 'international standard', 'config_control_design', 1994, #385 ) ;
#363 = PERSON_AND_ORGANIZATION_ROLE ( 'design_owner' ) ;
#364 = SECURITY_CLASSIFICATION ( '', '', #365 ) ;
#365 = SECURITY_CLASSIFICATION_LEVEL ( 'unclassified' ) ;
#366 = CC_DESIGN_PERSON_AND_ORGANIZATION_ASSIGNMENT ( #368, #367, ( #354 ) ) ;
#367 = PERSON_AND_ORGANIZATION_ROLE ( 'design_supplier' ) ;
#368 = PERSON_AND_ORGANIZATION ( #35, #400 ) ;
#369 = CC_DESIGN_PERSON_AND_ORGANIZATION_ASSIGNMENT ( #409, #370, ( #354 ) ) ;
#370 = PERSON_AND_ORGANIZATION_ROLE ( 'creator' ) ;
#371 = PERSON_AND_ORGANIZATION ( #35, #400 ) ;
#372 = DESIGN_CONTEXT ( 'detailed design', #385, 'design' ) ;
#373 = PRODUCT_DEFINITION ( 'UNKNOWN', '', #354, #372 ) ;
#374 = PERSON_AND_ORGANIZATION ( #35, #400 ) ;
#375 = APPROVAL_PERSON_ORGANIZATION ( #379, #377, #376 ) ;
#376 = APPROVAL_ROLE ( '' ) ;
#377 = APPROVAL ( #378, 'UNSPECIFIED' ) ;
#378 = APPROVAL_STATUS ( 'not_yet_approved' ) ;
#379 = PERSON_AND_ORGANIZATION ( #35, #400 ) ;
#380 = CC_DESIGN_DATE_AND_TIME_ASSIGNMENT ( #382, #381, ( #364 ) ) ;
#381 = DATE_TIME_ROLE ( 'classification_date' ) ;
#382 = DATE_AND_TIME ( #383, #357 ) ;
#383 = CALENDAR_DATE ( 2015, 11, 8 ) ;
#384 = APPROVAL_ROLE ( '' ) ;
#385 = APPLICATION_CONTEXT ( 'configuration controlled 3d designs of mechanical parts and assemblies' ) ;
#386 = COORDINATED_UNIVERSAL_TIME_OFFSET ( 1, 0, .AHEAD. ) ;
#387 = APPROVAL_PERSON_ORGANIZATION ( #371, #388, #384 ) ;
#388 = APPROVAL ( #351, 'UNSPECIFIED' ) ;
#389 = PERSON_AND_ORGANIZATION_ROLE ( 'creator' ) ;
#390 = PERSON_AND_ORGANIZATION ( #35, #400 ) ;
#391 = CC_DESIGN_APPROVAL ( #388, ( #373 ) ) ;
#392 = APPROVAL_DATE_TIME ( #348, #388 ) ;
#393 = LOCAL_TIME ( 11, 37, 31.00000000000000000, #394 ) ;
#394 = COORDINATED_UNIVERSAL_TIME_OFFSET ( 1, 0, .AHEAD. ) ;
#395 = APPROVAL_PERSON_ORGANIZATION ( #399, #397, #396 ) ;
#396 = APPROVAL_ROLE ( '' ) ;
#397 = APPROVAL ( #398, 'UNSPECIFIED' ) ;
#398 = APPROVAL_STATUS ( 'not_yet_approved' ) ;
#399 = PERSON_AND_ORGANIZATION ( #35, #400 ) ;
#400 = ORGANIZATION ( 'UNSPECIFIED', 'UNSPECIFIED', '' ) ;
#401 = PRODUCT_RELATED_PRODUCT_CATEGORY ( 'detail', '', ( #36 ) ) ;
#402 = CC_DESIGN_SECURITY_CLASSIFICATION ( #364, ( #354 ) ) ;
#403 = CC_DESIGN_APPROVAL ( #377, ( #364 ) ) ;
#404 = APPROVAL_DATE_TIME ( #405, #377 ) ;
#405 = DATE_AND_TIME ( #406, #407 ) ;
#406 = CALENDAR_DATE ( 2015, 11, 8 ) ;
#407 = LOCAL_TIME ( 11, 37, 31.00000000000000000, #408 ) ;
#408 = COORDINATED_UNIVERSAL_TIME_OFFSET ( 1, 0, .AHEAD. ) ;
#409 = PERSON_AND_ORGANIZATION ( #35, #400 ) ;
#410 = CC_DESIGN_APPROVAL ( #397, ( #354 ) ) ;
#411 = APPROVAL_DATE_TIME ( #412, #397 ) ;
#412 = DATE_AND_TIME ( #413, #393 ) ;
#413 = CALENDAR_DATE ( 2015, 11, 8 ) ;
#414 = CC_DESIGN_PERSON_AND_ORGANIZATION_ASSIGNMENT ( #374, #363, ( #36 ) ) ;
#415 = CALENDAR_DATE ( 2015, 11, 8 ) ;
#416 = LOCAL_TIME ( 11, 37, 31.00000000000000000, #417 ) ;
#417 = COORDINATED_UNIVERSAL_TIME_OFFSET ( 1, 0, .AHEAD. ) ;
#418 = SHAPE_DEFINITION_REPRESENTATION ( #419, #251 ) ;
#419 = PRODUCT_DEFINITION_SHAPE ( 'NONE', 'NONE',  #373 ) ;
ENDSEC;
END-ISO-10303-21;
