ISO-10303-21;
HEADER;
FILE_DESCRIPTION (( 'STEP AP203' ),
    '1' );
FILE_NAME ('3D_M-7012G_DN40_174731035.STEP',
    '2024-10-04T13:20:08',
    ( '' ),
    ( '' ),
    'SwSTEP 2.0',
    'SolidWorks 2024',
    '' );
FILE_SCHEMA (( 'CONFIG_CONTROL_DESIGN' ));
ENDSEC;

DATA;
#1 = DATE_TIME_ROLE ( 'classification_date' ) ;
#2 = AXIS2_PLACEMENT_3D ( 'NONE', #11, #153, #133 ) ;
#3 = ORIENTED_EDGE ( 'NONE', *, *, #6, .T. ) ;
#4 = DIRECTION ( 'NONE',  ( -0.000000000000000000, -1.000000000000000000, -0.000000000000000000 ) ) ;
#5 = ADVANCED_FACE ( 'NONE', ( #80 ), #66, .F. ) ;
#6 = EDGE_CURVE ( 'NONE', #82, #52, #105, .T. ) ;
#7 = ORIENTED_EDGE ( 'NONE', *, *, #78, .T. ) ;
#8 = ORIENTED_EDGE ( 'NONE', *, *, #61, .T. ) ;
#9 = CARTESIAN_POINT ( 'NONE',  ( 0.000000000000000000, 85.00000000000000000, -25.00000000000000000 ) ) ;
#10 = APPROVAL_ROLE ( '' ) ;
#11 = CARTESIAN_POINT ( 'NONE',  ( 0.000000000000000000, 0.000000000000000000, 0.000000000000000000 ) ) ;
#12 = AXIS2_PLACEMENT_3D ( 'NONE', #115, #58, #39 ) ;
#13 =( NAMED_UNIT ( * ) PLANE_ANGLE_UNIT ( ) SI_UNIT ( $, .RADIAN. ) );
#14 = DIRECTION ( 'NONE',  ( 0.000000000000000000, 1.000000000000000000, 0.000000000000000000 ) ) ;
#15 = CIRCLE ( 'NONE', #246, 20.00000000000000000 ) ;
#16 = CALENDAR_DATE ( 2024, 4, 10 ) ;
#17 = DIRECTION ( 'NONE',  ( 0.000000000000000000, -0.000000000000000000, 1.000000000000000000 ) ) ;
#18 = CC_DESIGN_PERSON_AND_ORGANIZATION_ASSIGNMENT ( #71, #224, ( #104 ) ) ;
#19 = PERSON_AND_ORGANIZATION_ROLE ( 'classification_officer' ) ;
#20 = DIRECTION ( 'NONE',  ( 0.000000000000000000, 1.000000000000000000, 0.000000000000000000 ) ) ;
#21 = VECTOR ( 'NONE', #93, 1000.000000000000000 ) ;
#22 = APPROVAL_DATE_TIME ( #121, #67 ) ;
#23 =( LENGTH_UNIT ( ) NAMED_UNIT ( * ) SI_UNIT ( .MILLI., .METRE. ) );
#24 = PRODUCT_RELATED_PRODUCT_CATEGORY ( 'detail', '', ( #196 ) ) ;
#25 = ORIENTED_EDGE ( 'NONE', *, *, #101, .T. ) ;
#26 = AXIS2_PLACEMENT_3D ( 'NONE', #204, #4, #184 ) ;
#27 = ORIENTED_EDGE ( 'NONE', *, *, #218, .F. ) ;
#28 = ORIENTED_EDGE ( 'NONE', *, *, #84, .F. ) ;
#29 = VERTEX_POINT ( 'NONE', #222 ) ;
#30 = ORIENTED_EDGE ( 'NONE', *, *, #218, .T. ) ;
#31 = PERSON_AND_ORGANIZATION_ROLE ( 'design_owner' ) ;
#32 = DIRECTION ( 'NONE',  ( 0.000000000000000000, 0.000000000000000000, 1.000000000000000000 ) ) ;
#33 = CALENDAR_DATE ( 2024, 4, 10 ) ;
#34 = CARTESIAN_POINT ( 'NONE',  ( 0.000000000000000000, 85.00000000000000000, -20.00000000000000000 ) ) ;
#35 = DIRECTION ( 'NONE',  ( 1.000000000000000000, 0.000000000000000000, 0.000000000000000000 ) ) ;
#36 = CYLINDRICAL_SURFACE ( 'NONE', #193, 25.00000000000000000 ) ;
#37 = PERSON_AND_ORGANIZATION ( #85, #81 ) ;
#38 = ADVANCED_FACE ( 'NONE', ( #183 ), #202, .F. ) ;
#39 = DIRECTION ( 'NONE',  ( 0.000000000000000000, 0.000000000000000000, 1.000000000000000000 ) ) ;
#40 = EDGE_CURVE ( 'NONE', #166, #125, #99, .T. ) ;
#41 = AXIS2_PLACEMENT_3D ( 'NONE', #231, #20, #32 ) ;
#42 = APPLICATION_CONTEXT ( 'configuration controlled 3d designs of mechanical parts and assemblies' ) ;
#43 = LOCAL_TIME ( 15, 20, 8.000000000000000000, #178 ) ;
#44 = CARTESIAN_POINT ( 'NONE',  ( 0.000000000000000000, 0.000000000000000000, 0.000000000000000000 ) ) ;
#45 = CALENDAR_DATE ( 2024, 4, 10 ) ;
#46 = APPROVAL_PERSON_ORGANIZATION ( #37, #47, #170 ) ;
#47 = APPROVAL ( #136, 'UNSPECIFIED' ) ;
#48 = EDGE_LOOP ( 'NONE', ( #65, #27, #69, #144 ) ) ;
#49 = DIRECTION ( 'NONE',  ( -0.000000000000000000, -1.000000000000000000, -0.000000000000000000 ) ) ;
#50 = EDGE_LOOP ( 'NONE', ( #7, #3, #28, #221 ) ) ;
#51 =( GEOMETRIC_REPRESENTATION_CONTEXT ( 3 ) GLOBAL_UNCERTAINTY_ASSIGNED_CONTEXT ( ( #237 ) ) GLOBAL_UNIT_ASSIGNED_CONTEXT ( ( #23, #13, #134 ) ) REPRESENTATION_CONTEXT ( 'NONE', 'WORKASPACE' ) );
#52 = VERTEX_POINT ( 'NONE', #216 ) ;
#53 = AXIS2_PLACEMENT_3D ( 'NONE', #130, #14, #245 ) ;
#54 = DATE_AND_TIME ( #33, #186 ) ;
#55 = DIRECTION ( 'NONE',  ( 0.000000000000000000, 1.000000000000000000, 0.000000000000000000 ) ) ;
#56 = DIRECTION ( 'NONE',  ( -0.000000000000000000, -1.000000000000000000, -0.000000000000000000 ) ) ;
#57 = DATE_TIME_ROLE ( 'creation_date' ) ;
#58 = DIRECTION ( 'NONE',  ( 0.000000000000000000, 1.000000000000000000, 0.000000000000000000 ) ) ;
#59 = PERSON_AND_ORGANIZATION ( #85, #81 ) ;
#60 = FACE_OUTER_BOUND ( 'NONE', #208, .T. ) ;
#61 = EDGE_CURVE ( 'NONE', #125, #86, #168, .T. ) ;
#62 = CC_DESIGN_DATE_AND_TIME_ASSIGNMENT ( #179, #1, ( #205 ) ) ;
#63 = EDGE_LOOP ( 'NONE', ( #239, #127, #25, #185 ) ) ;
#64 = ORIENTED_EDGE ( 'NONE', *, *, #238, .F. ) ;
#65 = ORIENTED_EDGE ( 'NONE', *, *, #40, .F. ) ;
#66 = CYLINDRICAL_SURFACE ( 'NONE', #243, 20.00000000000000000 ) ;
#67 = APPROVAL ( #200, 'UNSPECIFIED' ) ;
#68 = PERSON_AND_ORGANIZATION_ROLE ( 'creator' ) ;
#69 = ORIENTED_EDGE ( 'NONE', *, *, #83, .T. ) ;
#70 = DIRECTION ( 'NONE',  ( 0.000000000000000000, 1.000000000000000000, 0.000000000000000000 ) ) ;
#71 = PERSON_AND_ORGANIZATION ( #85, #81 ) ;
#72 = DIRECTION ( 'NONE',  ( 0.000000000000000000, 1.000000000000000000, 0.000000000000000000 ) ) ;
#73 = CARTESIAN_POINT ( 'NONE',  ( 0.000000000000000000, 0.000000000000000000, 0.000000000000000000 ) ) ;
#74 = COORDINATED_UNIVERSAL_TIME_OFFSET ( 1, 0, .AHEAD. ) ;
#75 = LINE ( 'NONE', #34, #198 ) ;
#76 = LOCAL_TIME ( 15, 20, 8.000000000000000000, #74 ) ;
#77 = EDGE_CURVE ( 'NONE', #86, #125, #89, .T. ) ;
#78 = EDGE_CURVE ( 'NONE', #223, #82, #124, .T. ) ;
#79 = CIRCLE ( 'NONE', #226, 20.00000000000000000 ) ;
#80 = FACE_OUTER_BOUND ( 'NONE', #50, .T. ) ;
#81 = ORGANIZATION ( 'UNSPECIFIED', 'UNSPECIFIED', '' ) ;
#82 = VERTEX_POINT ( 'NONE', #167 ) ;
#83 = EDGE_CURVE ( 'NONE', #109, #86, #190, .T. ) ;
#84 = EDGE_CURVE ( 'NONE', #29, #52, #161, .T. ) ;
#85 = PERSON ( 'UNSPECIFIED', 'UNSPECIFIED', 'UNSPECIFIED', ('UNSPECIFIED'), ('UNSPECIFIED'), ('UNSPECIFIED') ) ;
#86 = VERTEX_POINT ( 'NONE', #138 ) ;
#87 = DIRECTION ( 'NONE',  ( 0.000000000000000000, 0.000000000000000000, 1.000000000000000000 ) ) ;
#88 = CARTESIAN_POINT ( 'NONE',  ( 0.000000000000000000, 85.00000000000000000, 0.000000000000000000 ) ) ;
#89 = CIRCLE ( 'NONE', #232, 25.00000000000000000 ) ;
#90 = COORDINATED_UNIVERSAL_TIME_OFFSET ( 1, 0, .AHEAD. ) ;
#91 = CARTESIAN_POINT ( 'NONE',  ( 0.000000000000000000, 85.00000000000000000, 0.000000000000000000 ) ) ;
#92 = PERSON_AND_ORGANIZATION ( #85, #81 ) ;
#93 = DIRECTION ( 'NONE',  ( -0.000000000000000000, -1.000000000000000000, -0.000000000000000000 ) ) ;
#94 = CC_DESIGN_APPROVAL ( #192, ( #104 ) ) ;
#95 = DATE_AND_TIME ( #210, #96 ) ;
#96 = LOCAL_TIME ( 15, 20, 8.000000000000000000, #90 ) ;
#97 = FACE_OUTER_BOUND ( 'NONE', #48, .T. ) ;
#98 = COORDINATED_UNIVERSAL_TIME_OFFSET ( 1, 0, .AHEAD. ) ;
#99 = LINE ( 'NONE', #191, #149 ) ;
#100 = APPROVAL_ROLE ( '' ) ;
#101 = EDGE_CURVE ( 'NONE', #223, #29, #75, .T. ) ;
#102 = CALENDAR_DATE ( 2024, 4, 10 ) ;
#103 = ORIENTED_EDGE ( 'NONE', *, *, #83, .F. ) ;
#104 = PRODUCT_DEFINITION_FORMATION_WITH_SPECIFIED_SOURCE ( 'ANY', '', #196, .NOT_KNOWN. ) ;
#105 = LINE ( 'NONE', #162, #140 ) ;
#106 = AXIS2_PLACEMENT_3D ( 'NONE', #197, #213, #17 ) ;
#107 = CARTESIAN_POINT ( 'NONE',  ( 0.000000000000000000, 85.00000000000000000, 0.000000000000000000 ) ) ;
#108 = PRODUCT_DEFINITION ( 'UNKNOWN', '', #104, #110 ) ;
#109 = VERTEX_POINT ( 'NONE', #195 ) ;
#110 = DESIGN_CONTEXT ( 'detailed design', #42, 'design' ) ;
#111 = CC_DESIGN_APPROVAL ( #47, ( #108 ) ) ;
#112 = ORIENTED_EDGE ( 'NONE', *, *, #78, .F. ) ;
#113 = DIRECTION ( 'NONE',  ( 0.000000000000000000, 0.000000000000000000, -1.000000000000000000 ) ) ;
#114 = DIRECTION ( 'NONE',  ( 0.000000000000000000, 1.000000000000000000, 0.000000000000000000 ) ) ;
#115 = CARTESIAN_POINT ( 'NONE',  ( 0.000000000000000000, 85.00000000000000000, 0.000000000000000000 ) ) ;
#116 = SECURITY_CLASSIFICATION_LEVEL ( 'unclassified' ) ;
#117 = DIRECTION ( 'NONE',  ( 0.000000000000000000, 0.000000000000000000, 1.000000000000000000 ) ) ;
#118 = APPROVAL_STATUS ( 'not_yet_approved' ) ;
#119 = CARTESIAN_POINT ( 'NONE',  ( 3.061616997868383043E-15, 0.000000000000000000, 25.00000000000000000 ) ) ;
#120 = CC_DESIGN_PERSON_AND_ORGANIZATION_ASSIGNMENT ( #157, #19, ( #205 ) ) ;
#121 = DATE_AND_TIME ( #102, #43 ) ;
#122 = DIRECTION ( 'NONE',  ( 0.000000000000000000, 0.000000000000000000, -1.000000000000000000 ) ) ;
#123 = ORIENTED_EDGE ( 'NONE', *, *, #155, .F. ) ;
#124 = CIRCLE ( 'NONE', #12, 20.00000000000000000 ) ;
#125 = VERTEX_POINT ( 'NONE', #119 ) ;
#126 = AXIS2_PLACEMENT_3D ( 'NONE', #88, #70, #151 ) ;
#127 = ORIENTED_EDGE ( 'NONE', *, *, #155, .T. ) ;
#128 = EDGE_LOOP ( 'NONE', ( #187, #236 ) ) ;
#129 = APPROVAL_DATE_TIME ( #54, #47 ) ;
#130 = CARTESIAN_POINT ( 'NONE',  ( 0.000000000000000000, 0.000000000000000000, 0.000000000000000000 ) ) ;
#131 = COORDINATED_UNIVERSAL_TIME_OFFSET ( 1, 0, .AHEAD. ) ;
#132 = PLANE ( 'NONE',  #106 ) ;
#133 = DIRECTION ( 'NONE',  ( 0.000000000000000000, -0.000000000000000000, 1.000000000000000000 ) ) ;
#134 =( NAMED_UNIT ( * ) SI_UNIT ( $, .STERADIAN. ) SOLID_ANGLE_UNIT ( ) );
#135 = CARTESIAN_POINT ( 'NONE',  ( 0.000000000000000000, 0.000000000000000000, 0.000000000000000000 ) ) ;
#136 = APPROVAL_STATUS ( 'not_yet_approved' ) ;
#137 = EDGE_CURVE ( 'NONE', #52, #29, #79, .T. ) ;
#138 = CARTESIAN_POINT ( 'NONE',  ( 0.000000000000000000, 0.000000000000000000, -25.00000000000000000 ) ) ;
#139 = LOCAL_TIME ( 15, 20, 8.000000000000000000, #98 ) ;
#140 = VECTOR ( 'NONE', #49, 1000.000000000000000 ) ;
#141 = PERSON_AND_ORGANIZATION ( #85, #81 ) ;
#142 = ORIENTED_EDGE ( 'NONE', *, *, #61, .F. ) ;
#143 = EDGE_LOOP ( 'NONE', ( #112, #123 ) ) ;
#144 = ORIENTED_EDGE ( 'NONE', *, *, #77, .T. ) ;
#145 = CIRCLE ( 'NONE', #41, 25.00000000000000000 ) ;
#146 = DIRECTION ( 'NONE',  ( -0.000000000000000000, -1.000000000000000000, -0.000000000000000000 ) ) ;
#147 = MECHANICAL_CONTEXT ( 'NONE', #182, 'mechanical' ) ;
#148 = PLANE ( 'NONE',  #2 ) ;
#149 = VECTOR ( 'NONE', #171, 1000.000000000000000 ) ;
#150 = APPLICATION_PROTOCOL_DEFINITION ( 'international standard', 'config_control_design', 1994, #42 ) ;
#151 = DIRECTION ( 'NONE',  ( 0.000000000000000000, 0.000000000000000000, 1.000000000000000000 ) ) ;
#152 = PERSON_AND_ORGANIZATION ( #85, #81 ) ;
#153 = DIRECTION ( 'NONE',  ( 0.000000000000000000, 1.000000000000000000, 0.000000000000000000 ) ) ;
#154 = FACE_BOUND ( 'NONE', #143, .T. ) ;
#155 = EDGE_CURVE ( 'NONE', #82, #223, #15, .T. ) ;
#156 = ADVANCED_FACE ( 'NONE', ( #242, #169 ), #148, .F. ) ;
#157 = PERSON_AND_ORGANIZATION ( #85, #81 ) ;
#158 = FACE_OUTER_BOUND ( 'NONE', #241, .T. ) ;
#159 = CC_DESIGN_PERSON_AND_ORGANIZATION_ASSIGNMENT ( #152, #174, ( #104 ) ) ;
#160 = APPROVAL_PERSON_ORGANIZATION ( #59, #192, #10 ) ;
#161 = CIRCLE ( 'NONE', #53, 20.00000000000000000 ) ;
#162 = CARTESIAN_POINT ( 'NONE',  ( 2.449293598294706513E-15, 85.00000000000000000, 20.00000000000000000 ) ) ;
#163 = ORIENTED_EDGE ( 'NONE', *, *, #238, .T. ) ;
#164 = ORIENTED_EDGE ( 'NONE', *, *, #40, .T. ) ;
#165 = ORIENTED_EDGE ( 'NONE', *, *, #77, .F. ) ;
#166 = VERTEX_POINT ( 'NONE', #247 ) ;
#167 = CARTESIAN_POINT ( 'NONE',  ( 2.449293598294706513E-15, 85.00000000000000000, 20.00000000000000000 ) ) ;
#168 = CIRCLE ( 'NONE', #201, 25.00000000000000000 ) ;
#169 = FACE_BOUND ( 'NONE', #128, .T. ) ;
#170 = APPROVAL_ROLE ( '' ) ;
#171 = DIRECTION ( 'NONE',  ( -0.000000000000000000, -1.000000000000000000, -0.000000000000000000 ) ) ;
#172 = CC_DESIGN_PERSON_AND_ORGANIZATION_ASSIGNMENT ( #176, #68, ( #108 ) ) ;
#173 = ADVANCED_FACE ( 'NONE', ( #158, #154 ), #132, .T. ) ;
#174 = PERSON_AND_ORGANIZATION_ROLE ( 'design_supplier' ) ;
#175 = DIRECTION ( 'NONE',  ( -0.000000000000000000, -1.000000000000000000, -0.000000000000000000 ) ) ;
#176 = PERSON_AND_ORGANIZATION ( #85, #81 ) ;
#177 = CARTESIAN_POINT ( 'NONE',  ( 0.000000000000000000, 85.00000000000000000, 0.000000000000000000 ) ) ;
#178 = COORDINATED_UNIVERSAL_TIME_OFFSET ( 1, 0, .AHEAD. ) ;
#179 = DATE_AND_TIME ( #45, #139 ) ;
#180 = CC_DESIGN_PERSON_AND_ORGANIZATION_ASSIGNMENT ( #92, #31, ( #196 ) ) ;
#181 = CC_DESIGN_SECURITY_CLASSIFICATION ( #205, ( #104 ) ) ;
#182 = APPLICATION_CONTEXT ( 'configuration controlled 3d designs of mechanical parts and assemblies' ) ;
#183 = FACE_OUTER_BOUND ( 'NONE', #63, .T. ) ;
#184 = DIRECTION ( 'NONE',  ( 0.000000000000000000, 0.000000000000000000, -1.000000000000000000 ) ) ;
#185 = ORIENTED_EDGE ( 'NONE', *, *, #137, .F. ) ;
#186 = LOCAL_TIME ( 15, 20, 8.000000000000000000, #131 ) ;
#187 = ORIENTED_EDGE ( 'NONE', *, *, #84, .T. ) ;
#188 = CARTESIAN_POINT ( 'NONE',  ( 0.000000000000000000, 85.00000000000000000, -20.00000000000000000 ) ) ;
#189 = DATE_AND_TIME ( #16, #76 ) ;
#190 = LINE ( 'NONE', #9, #21 ) ;
#191 = CARTESIAN_POINT ( 'NONE',  ( 3.061616997868383043E-15, 85.00000000000000000, 25.00000000000000000 ) ) ;
#192 = APPROVAL ( #118, 'UNSPECIFIED' ) ;
#193 = AXIS2_PLACEMENT_3D ( 'NONE', #211, #175, #248 ) ;
#194 = CARTESIAN_POINT ( 'NONE',  ( 0.000000000000000000, 0.000000000000000000, 0.000000000000000000 ) ) ;
#195 = CARTESIAN_POINT ( 'NONE',  ( 0.000000000000000000, 85.00000000000000000, -25.00000000000000000 ) ) ;
#196 = PRODUCT ( '3D_M-7012G_DN40_174731035', '3D_M-7012G_DN40_174731035', '', ( #147 ) ) ;
#197 = CARTESIAN_POINT ( 'NONE',  ( 0.000000000000000000, 85.00000000000000000, 0.000000000000000000 ) ) ;
#198 = VECTOR ( 'NONE', #56, 1000.000000000000000 ) ;
#199 = CC_DESIGN_DATE_AND_TIME_ASSIGNMENT ( #189, #57, ( #108 ) ) ;
#200 = APPROVAL_STATUS ( 'not_yet_approved' ) ;
#201 = AXIS2_PLACEMENT_3D ( 'NONE', #44, #72, #117 ) ;
#202 = CYLINDRICAL_SURFACE ( 'NONE', #26, 20.00000000000000000 ) ;
#203 = AXIS2_PLACEMENT_3D ( 'NONE', #177, #249, #113 ) ;
#204 = CARTESIAN_POINT ( 'NONE',  ( 0.000000000000000000, 85.00000000000000000, 0.000000000000000000 ) ) ;
#205 = SECURITY_CLASSIFICATION ( '', '', #116 ) ;
#206 = EDGE_LOOP ( 'NONE', ( #165, #142 ) ) ;
#207 = ADVANCED_FACE ( 'NONE', ( #97 ), #36, .T. ) ;
#208 = EDGE_LOOP ( 'NONE', ( #64, #164, #8, #103 ) ) ;
#209 = AXIS2_PLACEMENT_3D ( 'NONE', #194, #87, #35 ) ;
#210 = CALENDAR_DATE ( 2024, 4, 10 ) ;
#211 = CARTESIAN_POINT ( 'NONE',  ( 0.000000000000000000, 85.00000000000000000, 0.000000000000000000 ) ) ;
#212 = CYLINDRICAL_SURFACE ( 'NONE', #203, 25.00000000000000000 ) ;
#213 = DIRECTION ( 'NONE',  ( 0.000000000000000000, 1.000000000000000000, 0.000000000000000000 ) ) ;
#214 = APPLICATION_PROTOCOL_DEFINITION ( 'international standard', 'config_control_design', 1994, #182 ) ;
#215 = DIRECTION ( 'NONE',  ( 0.000000000000000000, 0.000000000000000000, 1.000000000000000000 ) ) ;
#216 = CARTESIAN_POINT ( 'NONE',  ( 2.449293598294706513E-15, 0.000000000000000000, 20.00000000000000000 ) ) ;
#217 = CLOSED_SHELL ( 'NONE', ( #5, #220, #173, #156, #207, #38 ) ) ;
#218 = EDGE_CURVE ( 'NONE', #109, #166, #145, .T. ) ;
#219 = SHAPE_DEFINITION_REPRESENTATION ( #230, #227 ) ;
#220 = ADVANCED_FACE ( 'NONE', ( #60 ), #212, .T. ) ;
#221 = ORIENTED_EDGE ( 'NONE', *, *, #101, .F. ) ;
#222 = CARTESIAN_POINT ( 'NONE',  ( 0.000000000000000000, 0.000000000000000000, -20.00000000000000000 ) ) ;
#223 = VERTEX_POINT ( 'NONE', #188 ) ;
#224 = PERSON_AND_ORGANIZATION_ROLE ( 'creator' ) ;
#225 = DIRECTION ( 'NONE',  ( 0.000000000000000000, 0.000000000000000000, 1.000000000000000000 ) ) ;
#226 = AXIS2_PLACEMENT_3D ( 'NONE', #135, #114, #225 ) ;
#227 = ADVANCED_BREP_SHAPE_REPRESENTATION ( '3D_M-7012G_DN40_174731035', ( #235, #209 ), #51 ) ;
#228 = DIRECTION ( 'NONE',  ( 0.000000000000000000, 0.000000000000000000, 1.000000000000000000 ) ) ;
#229 = DIRECTION ( 'NONE',  ( 0.000000000000000000, 1.000000000000000000, 0.000000000000000000 ) ) ;
#230 = PRODUCT_DEFINITION_SHAPE ( 'NONE', 'NONE',  #108 ) ;
#231 = CARTESIAN_POINT ( 'NONE',  ( 0.000000000000000000, 85.00000000000000000, 0.000000000000000000 ) ) ;
#232 = AXIS2_PLACEMENT_3D ( 'NONE', #73, #229, #215 ) ;
#233 = CIRCLE ( 'NONE', #126, 25.00000000000000000 ) ;
#234 = CC_DESIGN_APPROVAL ( #67, ( #205 ) ) ;
#235 = MANIFOLD_SOLID_BREP ( 'Aufsatz-Linear austragen1', #217 ) ;
#236 = ORIENTED_EDGE ( 'NONE', *, *, #137, .T. ) ;
#237 = UNCERTAINTY_MEASURE_WITH_UNIT (LENGTH_MEASURE( 1.000000000000000082E-05 ), #23, 'distance_accuracy_value', 'NONE');
#238 = EDGE_CURVE ( 'NONE', #166, #109, #233, .T. ) ;
#239 = ORIENTED_EDGE ( 'NONE', *, *, #6, .F. ) ;
#240 = APPROVAL_PERSON_ORGANIZATION ( #141, #67, #100 ) ;
#241 = EDGE_LOOP ( 'NONE', ( #30, #163 ) ) ;
#242 = FACE_OUTER_BOUND ( 'NONE', #206, .T. ) ;
#243 = AXIS2_PLACEMENT_3D ( 'NONE', #107, #146, #122 ) ;
#244 = APPROVAL_DATE_TIME ( #95, #192 ) ;
#245 = DIRECTION ( 'NONE',  ( 0.000000000000000000, 0.000000000000000000, 1.000000000000000000 ) ) ;
#246 = AXIS2_PLACEMENT_3D ( 'NONE', #91, #55, #228 ) ;
#247 = CARTESIAN_POINT ( 'NONE',  ( 3.061616997868383043E-15, 85.00000000000000000, 25.00000000000000000 ) ) ;
#248 = DIRECTION ( 'NONE',  ( 0.000000000000000000, 0.000000000000000000, -1.000000000000000000 ) ) ;
#249 = DIRECTION ( 'NONE',  ( -0.000000000000000000, -1.000000000000000000, -0.000000000000000000 ) ) ;
ENDSEC;
END-ISO-10303-21;
